ISO-10303-21;
HEADER;
FILE_DESCRIPTION(('no description'),'unknown implementation level');
FILE_NAME('CFB3080-1200-Huellk.stp','  ',('CIMSOURCE GmbH'),('CADClick - KiM GmbH - www.kimweb.de'),'unknown preprocess','ACIS','unknown authorization');
FILE_SCHEMA(('automotive_design'));
ENDSEC;
DATA;
#1=MECHANICAL_DESIGN_GEOMETRIC_PRESENTATION_REPRESENTATION(' ',(#10,#11,#12,#13,#14,#15,#16,#17,#18,#19,#20,#21,#22,#23,#24,#25,#26,#27,#28,#29,#30,#31,#32,#33,#34,#35,#36,#37,#38,#39,#40,#41,#42,#43,#44,#45,#46,#47),#6);
#2=PRODUCT_DEFINITION_CONTEXT('',#48,'design');
#3=APPLICATION_PROTOCOL_DEFINITION('INTERNATIONAL STANDARD','automotive_design',1994,#48);
#4=PRODUCT_CATEGORY_RELATIONSHIP('NONE','NONE',#49,#50);
#5=SHAPE_DEFINITION_REPRESENTATION(#51,#52);
#6= (GEOMETRIC_REPRESENTATION_CONTEXT(3)GLOBAL_UNCERTAINTY_ASSIGNED_CONTEXT((#55))GLOBAL_UNIT_ASSIGNED_CONTEXT((#57,#58,#59))REPRESENTATION_CONTEXT('NONE','WORKSPACE'));
#10=STYLED_ITEM('',(#61),#62);
#11=STYLED_ITEM('',(#63),#64);
#12=STYLED_ITEM('',(#65),#66);
#13=STYLED_ITEM('',(#67),#68);
#14=STYLED_ITEM('',(#69),#70);
#15=STYLED_ITEM('',(#71),#72);
#16=STYLED_ITEM('',(#73),#74);
#17=STYLED_ITEM('',(#75),#76);
#18=STYLED_ITEM('',(#77),#78);
#19=STYLED_ITEM('',(#79),#80);
#20=STYLED_ITEM('',(#81),#82);
#21=STYLED_ITEM('',(#83),#84);
#22=STYLED_ITEM('',(#85),#86);
#23=STYLED_ITEM('',(#87),#88);
#24=STYLED_ITEM('',(#89),#90);
#25=STYLED_ITEM('',(#91),#92);
#26=STYLED_ITEM('',(#93),#94);
#27=STYLED_ITEM('',(#95),#96);
#28=STYLED_ITEM('',(#97),#98);
#29=STYLED_ITEM('',(#99),#100);
#30=STYLED_ITEM('',(#101),#102);
#31=STYLED_ITEM('',(#103),#104);
#32=STYLED_ITEM('',(#105),#106);
#33=STYLED_ITEM('',(#107),#108);
#34=STYLED_ITEM('',(#109),#110);
#35=STYLED_ITEM('',(#111),#112);
#36=STYLED_ITEM('',(#113),#114);
#37=STYLED_ITEM('',(#115),#116);
#38=STYLED_ITEM('',(#117),#118);
#39=STYLED_ITEM('',(#119),#120);
#40=STYLED_ITEM('',(#121),#122);
#41=STYLED_ITEM('',(#123),#124);
#42=STYLED_ITEM('',(#125),#126);
#43=STYLED_ITEM('',(#127),#128);
#44=STYLED_ITEM('',(#129),#130);
#45=STYLED_ITEM('',(#131),#132);
#46=STYLED_ITEM('',(#133),#134);
#47=STYLED_ITEM('',(#135),#136);
#48=APPLICATION_CONTEXT(' ');
#49=PRODUCT_CATEGORY('part','NONE');
#50=PRODUCT_RELATED_PRODUCT_CATEGORY('detail',' ',(#137));
#51=PRODUCT_DEFINITION_SHAPE('NONE','NONE',#138);
#52=ADVANCED_BREP_SHAPE_REPRESENTATION('1',(#68,#139),#6);
#55=UNCERTAINTY_MEASURE_WITH_UNIT(LENGTH_MEASURE(1.0E-006),#57,'','');
#57= (CONVERSION_BASED_UNIT('MILLIMETRE',#142)LENGTH_UNIT()NAMED_UNIT(#145));
#58= (NAMED_UNIT(#147)PLANE_ANGLE_UNIT()SI_UNIT($,.RADIAN.));
#59= (NAMED_UNIT(#147)SOLID_ANGLE_UNIT()SI_UNIT($,.STERADIAN.));
#61=PRESENTATION_STYLE_ASSIGNMENT((#153));
#62=EDGE_CURVE('',#100,#134,#154,.T.);
#63=PRESENTATION_STYLE_ASSIGNMENT((#155));
#64=VERTEX_POINT('',#156);
#65=PRESENTATION_STYLE_ASSIGNMENT((#157));
#66=ADVANCED_FACE('',(#158),#159,.T.);
#67=PRESENTATION_STYLE_ASSIGNMENT((#160));
#68=MANIFOLD_SOLID_BREP('1',#161);
#69=PRESENTATION_STYLE_ASSIGNMENT((#162));
#70=EDGE_CURVE('',#88,#64,#163,.T.);
#71=PRESENTATION_STYLE_ASSIGNMENT((#164));
#72=EDGE_CURVE('',#134,#78,#165,.T.);
#73=PRESENTATION_STYLE_ASSIGNMENT((#166));
#74=ADVANCED_FACE('',(#167),#168,.T.);
#75=PRESENTATION_STYLE_ASSIGNMENT((#169));
#76=EDGE_CURVE('',#88,#124,#170,.T.);
#77=PRESENTATION_STYLE_ASSIGNMENT((#171));
#78=VERTEX_POINT('',#172);
#79=PRESENTATION_STYLE_ASSIGNMENT((#173));
#80=EDGE_CURVE('',#132,#78,#174,.T.);
#81=PRESENTATION_STYLE_ASSIGNMENT((#175));
#82=ADVANCED_FACE('',(#176),#177,.T.);
#83=PRESENTATION_STYLE_ASSIGNMENT((#178));
#84=EDGE_CURVE('',#132,#78,#179,.T.);
#85=PRESENTATION_STYLE_ASSIGNMENT((#180));
#86=EDGE_CURVE('',#124,#114,#181,.T.);
#87=PRESENTATION_STYLE_ASSIGNMENT((#182));
#88=VERTEX_POINT('',#183);
#89=PRESENTATION_STYLE_ASSIGNMENT((#184));
#90=EDGE_CURVE('',#94,#102,#185,.T.);
#91=PRESENTATION_STYLE_ASSIGNMENT((#186));
#92=EDGE_CURVE('',#132,#100,#187,.T.);
#93=PRESENTATION_STYLE_ASSIGNMENT((#188));
#94=VERTEX_POINT('',#189);
#95=PRESENTATION_STYLE_ASSIGNMENT((#190));
#96=EDGE_CURVE('',#114,#124,#191,.T.);
#97=PRESENTATION_STYLE_ASSIGNMENT((#192));
#98=EDGE_CURVE('',#78,#132,#193,.T.);
#99=PRESENTATION_STYLE_ASSIGNMENT((#194));
#100=VERTEX_POINT('',#195);
#101=PRESENTATION_STYLE_ASSIGNMENT((#196));
#102=VERTEX_POINT('',#197);
#103=PRESENTATION_STYLE_ASSIGNMENT((#198));
#104=ADVANCED_FACE('',(#199),#200,.T.);
#105=PRESENTATION_STYLE_ASSIGNMENT((#201));
#106=ADVANCED_FACE('',(#202),#203,.T.);
#107=PRESENTATION_STYLE_ASSIGNMENT((#204));
#108=ADVANCED_FACE('',(#205),#206,.T.);
#109=PRESENTATION_STYLE_ASSIGNMENT((#207));
#110=ADVANCED_FACE('',(#208),#209,.T.);
#111=PRESENTATION_STYLE_ASSIGNMENT((#210));
#112=ADVANCED_FACE('',(#211),#212,.T.);
#113=PRESENTATION_STYLE_ASSIGNMENT((#213));
#114=VERTEX_POINT('',#214);
#115=PRESENTATION_STYLE_ASSIGNMENT((#215));
#116=EDGE_CURVE('',#114,#64,#216,.T.);
#117=PRESENTATION_STYLE_ASSIGNMENT((#217));
#118=ADVANCED_FACE('',(#218,#219),#220,.T.);
#119=PRESENTATION_STYLE_ASSIGNMENT((#221));
#120=ADVANCED_FACE('',(#222),#223,.T.);
#121=PRESENTATION_STYLE_ASSIGNMENT((#224));
#122=EDGE_CURVE('',#94,#114,#225,.T.);
#123=PRESENTATION_STYLE_ASSIGNMENT((#226));
#124=VERTEX_POINT('',#227);
#125=PRESENTATION_STYLE_ASSIGNMENT((#228));
#126=EDGE_CURVE('',#102,#94,#229,.T.);
#127=PRESENTATION_STYLE_ASSIGNMENT((#230));
#128=EDGE_CURVE('',#124,#102,#231,.T.);
#129=PRESENTATION_STYLE_ASSIGNMENT((#232));
#130=EDGE_CURVE('',#64,#88,#233,.T.);
#131=PRESENTATION_STYLE_ASSIGNMENT((#234));
#132=VERTEX_POINT('',#235);
#133=PRESENTATION_STYLE_ASSIGNMENT((#236));
#134=VERTEX_POINT('',#237);
#135=PRESENTATION_STYLE_ASSIGNMENT((#238));
#136=EDGE_CURVE('',#134,#100,#239,.T.);
#137=PRODUCT('1','1','PART-1-DESC',(#240));
#138=PRODUCT_DEFINITION('NONE','NONE',#241,#2);
#139=AXIS2_PLACEMENT_3D('',#242,#243,#244);
#142=LENGTH_MEASURE_WITH_UNIT(LENGTH_MEASURE(1.0),#245);
#145=DIMENSIONAL_EXPONENTS(1.0,0.0,0.0,0.0,0.0,0.0,0.0);
#147=DIMENSIONAL_EXPONENTS(0.0,0.0,0.0,0.0,0.0,0.0,0.0);
#153=CURVE_STYLE('',#246,POSITIVE_LENGTH_MEASURE(1.0E-006),#247);
#154=CIRCLE('',#248,3.9999);
#155=POINT_STYLE(' ',#249,POSITIVE_LENGTH_MEASURE(1.0E-006),#250);
#156=CARTESIAN_POINT('',(4.40858287376056E-016,-3.6,0.0));
#157=SURFACE_STYLE_USAGE(.BOTH.,#251);
#158=FACE_OUTER_BOUND('',#252,.T.);
#159=CONICAL_SURFACE('',#253,3.8,0.785398163397441);
#160=SURFACE_STYLE_USAGE(.BOTH.,#254);
#161=CLOSED_SHELL('',(#104,#106,#108,#66,#118,#120,#110,#112,#74,#82));
#162=CURVE_STYLE('',#255,POSITIVE_LENGTH_MEASURE(1.0E-006),#256);
#163=CIRCLE('',#257,3.6);
#164=CURVE_STYLE('',#258,POSITIVE_LENGTH_MEASURE(1.0E-006),#259);
#165=LINE('',#260,#261);
#166=SURFACE_STYLE_USAGE(.BOTH.,#262);
#167=FACE_OUTER_BOUND('',#263,.T.);
#168=CONICAL_SURFACE('',#264,3.99995,1.24999999993753E-005);
#169=CURVE_STYLE('',#265,POSITIVE_LENGTH_MEASURE(1.0E-006),#266);
#170=LINE('',#267,#268);
#171=POINT_STYLE(' ',#269,POSITIVE_LENGTH_MEASURE(1.0E-006),#270);
#172=CARTESIAN_POINT('',(0.0,4.0,-86.0));
#173=CURVE_STYLE('',#271,POSITIVE_LENGTH_MEASURE(1.0E-006),#272);
#174=CIRCLE('',#273,4.00000000000001);
#175=SURFACE_STYLE_USAGE(.BOTH.,#274);
#176=FACE_OUTER_BOUND('',#275,.T.);
#177=SPHERICAL_SURFACE('',#276,4.00000000000001);
#178=CURVE_STYLE('',#277,POSITIVE_LENGTH_MEASURE(1.0E-006),#278);
#179=CIRCLE('',#279,4.0);
#180=CURVE_STYLE('',#280,POSITIVE_LENGTH_MEASURE(1.0E-006),#281);
#181=CIRCLE('',#282,4.0);
#182=POINT_STYLE(' ',#283,POSITIVE_LENGTH_MEASURE(1.0E-006),#284);
#183=CARTESIAN_POINT('',(0.0,3.6,0.0));
#184=CURVE_STYLE('',#285,POSITIVE_LENGTH_MEASURE(1.0E-006),#286);
#185=CIRCLE('',#287,4.0);
#186=CURVE_STYLE('',#288,POSITIVE_LENGTH_MEASURE(1.0E-006),#289);
#187=LINE('',#290,#291);
#188=POINT_STYLE(' ',#292,POSITIVE_LENGTH_MEASURE(1.0E-006),#293);
#189=CARTESIAN_POINT('',(4.89842541528951E-016,-4.0,-78.0));
#190=CURVE_STYLE('',#294,POSITIVE_LENGTH_MEASURE(1.0E-006),#295);
#191=CIRCLE('',#296,4.0);
#192=CURVE_STYLE('',#297,POSITIVE_LENGTH_MEASURE(1.0E-006),#298);
#193=CIRCLE('',#299,4.0);
#194=POINT_STYLE(' ',#300,POSITIVE_LENGTH_MEASURE(1.0E-006),#301);
#195=CARTESIAN_POINT('',(4.89830295465413E-016,-3.9999,-78.0));
#196=POINT_STYLE(' ',#302,POSITIVE_LENGTH_MEASURE(1.0E-006),#303);
#197=CARTESIAN_POINT('',(0.0,4.0,-78.0));
#198=SURFACE_STYLE_USAGE(.BOTH.,#304);
#199=FACE_OUTER_BOUND('',#305,.T.);
#200=SPHERICAL_SURFACE('',#306,4.00000000000001);
#201=SURFACE_STYLE_USAGE(.BOTH.,#307);
#202=FACE_OUTER_BOUND('',#308,.T.);
#203=CONICAL_SURFACE('',#309,3.99995,1.24999999993753E-005);
#204=SURFACE_STYLE_USAGE(.BOTH.,#310);
#205=FACE_OUTER_BOUND('',#311,.T.);
#206=CYLINDRICAL_SURFACE('',#312,4.0);
#207=SURFACE_STYLE_USAGE(.BOTH.,#313);
#208=FACE_OUTER_BOUND('',#314,.T.);
#209=CONICAL_SURFACE('',#315,3.8,0.785398163397441);
#210=SURFACE_STYLE_USAGE(.BOTH.,#316);
#211=FACE_OUTER_BOUND('',#317,.T.);
#212=CYLINDRICAL_SURFACE('',#318,4.0);
#213=POINT_STYLE(' ',#319,POSITIVE_LENGTH_MEASURE(1.0E-006),#320);
#214=CARTESIAN_POINT('',(4.89842541528951E-016,-4.0,-0.400000000000006));
#215=CURVE_STYLE('',#321,POSITIVE_LENGTH_MEASURE(1.0E-006),#322);
#216=LINE('',#323,#324);
#217=SURFACE_STYLE_USAGE(.BOTH.,#325);
#218=FACE_OUTER_BOUND('',#326,.T.);
#219=FACE_BOUND('',#327,.T.);
#220=PLANE('',#328);
#221=SURFACE_STYLE_USAGE(.BOTH.,#329);
#222=FACE_OUTER_BOUND('',#330,.T.);
#223=PLANE('',#331);
#224=CURVE_STYLE('',#332,POSITIVE_LENGTH_MEASURE(1.0E-006),#333);
#225=LINE('',#334,#335);
#226=POINT_STYLE(' ',#336,POSITIVE_LENGTH_MEASURE(1.0E-006),#337);
#227=CARTESIAN_POINT('',(0.0,4.0,-0.400000000000006));
#228=CURVE_STYLE('',#338,POSITIVE_LENGTH_MEASURE(1.0E-006),#339);
#229=CIRCLE('',#340,4.0);
#230=CURVE_STYLE('',#341,POSITIVE_LENGTH_MEASURE(1.0E-006),#342);
#231=LINE('',#343,#344);
#232=CURVE_STYLE('',#345,POSITIVE_LENGTH_MEASURE(1.0E-006),#346);
#233=CIRCLE('',#347,3.6);
#234=POINT_STYLE(' ',#348,POSITIVE_LENGTH_MEASURE(1.0E-006),#349);
#235=CARTESIAN_POINT('',(4.89842541528951E-016,-4.0,-86.0));
#236=POINT_STYLE(' ',#350,POSITIVE_LENGTH_MEASURE(1.0E-006),#351);
#237=CARTESIAN_POINT('',(0.0,3.9999,-78.0));
#238=CURVE_STYLE('',#352,POSITIVE_LENGTH_MEASURE(1.0E-006),#353);
#239=CIRCLE('',#354,3.9999);
#240=PRODUCT_CONTEXT('',#48,'mechanical');
#241=PRODUCT_DEFINITION_FORMATION_WITH_SPECIFIED_SOURCE(' ','NONE',#137,.NOT_KNOWN.);
#242=CARTESIAN_POINT('',(0.0,0.0,0.0));
#243=DIRECTION('',(0.0,0.0,1.0));
#244=DIRECTION('',(1.0,0.0,0.0));
#245= (NAMED_UNIT(#145)LENGTH_UNIT()SI_UNIT(.MILLI.,.METRE.));
#246=DRAUGHTING_PRE_DEFINED_CURVE_FONT('continuous');
#247=COLOUR_RGB('',0.800000011920929,0.800000011920929,0.800000011920929);
#248=AXIS2_PLACEMENT_3D('',#356,#357,#358);
#249=PRE_DEFINED_MARKER('');
#250=COLOUR_RGB('',0.498039215803146,0.498039215803146,0.498039215803146);
#251=SURFACE_SIDE_STYLE('',(#359));
#252=EDGE_LOOP('',(#360,#361,#362,#363));
#253=AXIS2_PLACEMENT_3D('',#364,#365,#366);
#254=SURFACE_SIDE_STYLE('',(#367));
#255=DRAUGHTING_PRE_DEFINED_CURVE_FONT('continuous');
#256=COLOUR_RGB('',0.498039215803146,0.498039215803146,0.498039215803146);
#257=AXIS2_PLACEMENT_3D('',#368,#369,#370);
#258=DRAUGHTING_PRE_DEFINED_CURVE_FONT('continuous');
#259=COLOUR_RGB('',0.800000011920929,0.800000011920929,0.800000011920929);
#260=CARTESIAN_POINT('',(-4.89836418497182E-016,3.99995,-82.0));
#261=VECTOR('',#371,1.0);
#262=SURFACE_SIDE_STYLE('',(#372));
#263=EDGE_LOOP('',(#373,#374,#375,#376));
#264=AXIS2_PLACEMENT_3D('',#377,#378,#379);
#265=DRAUGHTING_PRE_DEFINED_CURVE_FONT('continuous');
#266=COLOUR_RGB('',0.498039215803146,0.498039215803146,0.498039215803146);
#267=CARTESIAN_POINT('',(-4.65350414452503E-016,3.8,-0.200000000000003));
#268=VECTOR('',#380,1.0);
#269=PRE_DEFINED_MARKER('');
#270=COLOUR_RGB('',0.800000011920929,0.800000011920929,0.800000011920929);
#271=DRAUGHTING_PRE_DEFINED_CURVE_FONT('continuous');
#272=COLOUR_RGB('',0.800000011920929,0.800000011920929,0.800000011920929);
#273=AXIS2_PLACEMENT_3D('',#381,#382,#383);
#274=SURFACE_SIDE_STYLE('',(#384));
#275=EDGE_LOOP('',(#385,#386));
#276=AXIS2_PLACEMENT_3D('',#387,#388,#389);
#277=DRAUGHTING_PRE_DEFINED_CURVE_FONT('continuous');
#278=COLOUR_RGB('',0.800000011920929,0.800000011920929,0.800000011920929);
#279=AXIS2_PLACEMENT_3D('',#390,#391,#392);
#280=DRAUGHTING_PRE_DEFINED_CURVE_FONT('continuous');
#281=COLOUR_RGB('',0.498039215803146,0.498039215803146,0.498039215803146);
#282=AXIS2_PLACEMENT_3D('',#393,#394,#395);
#283=PRE_DEFINED_MARKER('');
#284=COLOUR_RGB('',0.498039215803146,0.498039215803146,0.498039215803146);
#285=DRAUGHTING_PRE_DEFINED_CURVE_FONT('continuous');
#286=COLOUR_RGB('',0.498039215803146,0.498039215803146,0.498039215803146);
#287=AXIS2_PLACEMENT_3D('',#396,#397,#398);
#288=DRAUGHTING_PRE_DEFINED_CURVE_FONT('continuous');
#289=COLOUR_RGB('',0.800000011920929,0.800000011920929,0.800000011920929);
#290=CARTESIAN_POINT('',(4.89836418497182E-016,-3.99995,-82.0));
#291=VECTOR('',#399,1.0);
#292=PRE_DEFINED_MARKER('');
#293=COLOUR_RGB('',0.498039215803146,0.498039215803146,0.498039215803146);
#294=DRAUGHTING_PRE_DEFINED_CURVE_FONT('continuous');
#295=COLOUR_RGB('',0.498039215803146,0.498039215803146,0.498039215803146);
#296=AXIS2_PLACEMENT_3D('',#400,#401,#402);
#297=DRAUGHTING_PRE_DEFINED_CURVE_FONT('continuous');
#298=COLOUR_RGB('',0.800000011920929,0.800000011920929,0.800000011920929);
#299=AXIS2_PLACEMENT_3D('',#403,#404,#405);
#300=PRE_DEFINED_MARKER('');
#301=COLOUR_RGB('',0.800000011920929,0.800000011920929,0.800000011920929);
#302=PRE_DEFINED_MARKER('');
#303=COLOUR_RGB('',0.498039215803146,0.498039215803146,0.498039215803146);
#304=SURFACE_SIDE_STYLE('',(#406));
#305=EDGE_LOOP('',(#407,#408));
#306=AXIS2_PLACEMENT_3D('',#409,#410,#411);
#307=SURFACE_SIDE_STYLE('',(#412));
#308=EDGE_LOOP('',(#413,#414,#415,#416));
#309=AXIS2_PLACEMENT_3D('',#417,#418,#419);
#310=SURFACE_SIDE_STYLE('',(#420));
#311=EDGE_LOOP('',(#421,#422,#423,#424));
#312=AXIS2_PLACEMENT_3D('',#425,#426,#427);
#313=SURFACE_SIDE_STYLE('',(#428));
#314=EDGE_LOOP('',(#429,#430,#431,#432));
#315=AXIS2_PLACEMENT_3D('',#433,#434,#435);
#316=SURFACE_SIDE_STYLE('',(#436));
#317=EDGE_LOOP('',(#437,#438,#439,#440));
#318=AXIS2_PLACEMENT_3D('',#441,#442,#443);
#319=PRE_DEFINED_MARKER('');
#320=COLOUR_RGB('',0.498039215803146,0.498039215803146,0.498039215803146);
#321=DRAUGHTING_PRE_DEFINED_CURVE_FONT('continuous');
#322=COLOUR_RGB('',0.498039215803146,0.498039215803146,0.498039215803146);
#323=CARTESIAN_POINT('',(4.65350414452503E-016,-3.8,-0.200000000000003));
#324=VECTOR('',#444,1.0);
#325=SURFACE_SIDE_STYLE('',(#445));
#326=EDGE_LOOP('',(#446,#447));
#327=EDGE_LOOP('',(#448,#449));
#328=AXIS2_PLACEMENT_3D('',#450,#451,#452);
#329=SURFACE_SIDE_STYLE('',(#453));
#330=EDGE_LOOP('',(#454,#455));
#331=AXIS2_PLACEMENT_3D('',#456,#457,#458);
#332=DRAUGHTING_PRE_DEFINED_CURVE_FONT('continuous');
#333=COLOUR_RGB('',0.498039215803146,0.498039215803146,0.498039215803146);
#334=CARTESIAN_POINT('',(4.89842541528951E-016,-4.0,-39.2));
#335=VECTOR('',#459,1.0);
#336=PRE_DEFINED_MARKER('');
#337=COLOUR_RGB('',0.498039215803146,0.498039215803146,0.498039215803146);
#338=DRAUGHTING_PRE_DEFINED_CURVE_FONT('continuous');
#339=COLOUR_RGB('',0.498039215803146,0.498039215803146,0.498039215803146);
#340=AXIS2_PLACEMENT_3D('',#460,#461,#462);
#341=DRAUGHTING_PRE_DEFINED_CURVE_FONT('continuous');
#342=COLOUR_RGB('',0.498039215803146,0.498039215803146,0.498039215803146);
#343=CARTESIAN_POINT('',(-4.89842541528951E-016,4.0,-39.2));
#344=VECTOR('',#463,1.0);
#345=DRAUGHTING_PRE_DEFINED_CURVE_FONT('continuous');
#346=COLOUR_RGB('',0.498039215803146,0.498039215803146,0.498039215803146);
#347=AXIS2_PLACEMENT_3D('',#464,#465,#466);
#348=PRE_DEFINED_MARKER('');
#349=COLOUR_RGB('',0.800000011920929,0.800000011920929,0.800000011920929);
#350=PRE_DEFINED_MARKER('');
#351=COLOUR_RGB('',0.800000011920929,0.800000011920929,0.800000011920929);
#352=DRAUGHTING_PRE_DEFINED_CURVE_FONT('continuous');
#353=COLOUR_RGB('',0.800000011920929,0.800000011920929,0.800000011920929);
#354=AXIS2_PLACEMENT_3D('',#467,#468,#469);
#356=CARTESIAN_POINT('',(0.0,0.0,-78.0));
#357=DIRECTION('',(0.0,0.0,-1.0));
#358=DIRECTION('',(0.0,1.0,0.0));
#359=SURFACE_STYLE_FILL_AREA(#470);
#360=ORIENTED_EDGE('',*,*,#76,.F.);
#361=ORIENTED_EDGE('',*,*,#70,.T.);
#362=ORIENTED_EDGE('',*,*,#116,.F.);
#363=ORIENTED_EDGE('',*,*,#86,.F.);
#364=CARTESIAN_POINT('',(0.0,0.0,-0.200000000000003));
#365=DIRECTION('',(0.0,-0.0,-1.0));
#366=DIRECTION('',(0.0,1.0,0.0));
#367=SURFACE_STYLE_FILL_AREA(#471);
#368=CARTESIAN_POINT('',(0.0,0.0,0.0));
#369=DIRECTION('',(0.0,0.0,-1.0));
#370=DIRECTION('',(0.0,1.0,0.0));
#371=DIRECTION('',(-1.53075794216161E-021,1.24999999990498E-005,-0.999999999921875));
#372=SURFACE_STYLE_FILL_AREA(#472);
#373=ORIENTED_EDGE('',*,*,#72,.T.);
#374=ORIENTED_EDGE('',*,*,#84,.F.);
#375=ORIENTED_EDGE('',*,*,#92,.T.);
#376=ORIENTED_EDGE('',*,*,#62,.T.);
#377=CARTESIAN_POINT('',(0.0,0.0,-82.0));
#378=DIRECTION('',(0.0,-0.0,-1.0));
#379=DIRECTION('',(0.0,1.0,0.0));
#380=DIRECTION('',(-8.65927457071929E-017,0.707106781186542,-0.707106781186553));
#381=CARTESIAN_POINT('',(0.0,0.0,-86.0));
#382=DIRECTION('',(1.0,0.0,1.22460635382238E-016));
#383=DIRECTION('',(-1.22460635382238E-016,0.0,1.0));
#384=SURFACE_STYLE_FILL_AREA(#473);
#385=ORIENTED_EDGE('',*,*,#80,.T.);
#386=ORIENTED_EDGE('',*,*,#98,.T.);
#387=CARTESIAN_POINT('',(0.0,0.0,-86.0));
#388=DIRECTION('',(0.0,1.0,0.0));
#389=DIRECTION('',(0.0,0.0,-1.0));
#390=CARTESIAN_POINT('',(0.0,0.0,-86.0));
#391=DIRECTION('',(0.0,0.0,-1.0));
#392=DIRECTION('',(0.0,1.0,0.0));
#393=CARTESIAN_POINT('',(0.0,0.0,-0.400000000000006));
#394=DIRECTION('',(0.0,0.0,-1.0));
#395=DIRECTION('',(0.0,1.0,0.0));
#396=CARTESIAN_POINT('',(0.0,0.0,-78.0));
#397=DIRECTION('',(0.0,0.0,-1.0));
#398=DIRECTION('',(0.0,1.0,0.0));
#399=DIRECTION('',(-1.53075794216161E-021,1.24999999990498E-005,0.999999999921875));
#400=CARTESIAN_POINT('',(0.0,0.0,-0.400000000000006));
#401=DIRECTION('',(0.0,0.0,-1.0));
#402=DIRECTION('',(0.0,1.0,0.0));
#403=CARTESIAN_POINT('',(0.0,0.0,-86.0));
#404=DIRECTION('',(0.0,0.0,-1.0));
#405=DIRECTION('',(0.0,1.0,0.0));
#406=SURFACE_STYLE_FILL_AREA(#474);
#407=ORIENTED_EDGE('',*,*,#80,.F.);
#408=ORIENTED_EDGE('',*,*,#84,.T.);
#409=CARTESIAN_POINT('',(0.0,0.0,-86.0));
#410=DIRECTION('',(0.0,1.0,0.0));
#411=DIRECTION('',(0.0,0.0,-1.0));
#412=SURFACE_STYLE_FILL_AREA(#475);
#413=ORIENTED_EDGE('',*,*,#72,.F.);
#414=ORIENTED_EDGE('',*,*,#136,.T.);
#415=ORIENTED_EDGE('',*,*,#92,.F.);
#416=ORIENTED_EDGE('',*,*,#98,.F.);
#417=CARTESIAN_POINT('',(0.0,0.0,-82.0));
#418=DIRECTION('',(0.0,-0.0,-1.0));
#419=DIRECTION('',(0.0,1.0,0.0));
#420=SURFACE_STYLE_FILL_AREA(#476);
#421=ORIENTED_EDGE('',*,*,#128,.F.);
#422=ORIENTED_EDGE('',*,*,#86,.T.);
#423=ORIENTED_EDGE('',*,*,#122,.F.);
#424=ORIENTED_EDGE('',*,*,#126,.F.);
#425=CARTESIAN_POINT('',(0.0,0.0,-39.2));
#426=DIRECTION('',(-0.0,-0.0,1.0));
#427=DIRECTION('',(0.0,1.0,0.0));
#428=SURFACE_STYLE_FILL_AREA(#477);
#429=ORIENTED_EDGE('',*,*,#76,.T.);
#430=ORIENTED_EDGE('',*,*,#96,.F.);
#431=ORIENTED_EDGE('',*,*,#116,.T.);
#432=ORIENTED_EDGE('',*,*,#130,.T.);
#433=CARTESIAN_POINT('',(0.0,0.0,-0.200000000000003));
#434=DIRECTION('',(0.0,-0.0,-1.0));
#435=DIRECTION('',(0.0,1.0,0.0));
#436=SURFACE_STYLE_FILL_AREA(#478);
#437=ORIENTED_EDGE('',*,*,#128,.T.);
#438=ORIENTED_EDGE('',*,*,#90,.F.);
#439=ORIENTED_EDGE('',*,*,#122,.T.);
#440=ORIENTED_EDGE('',*,*,#96,.T.);
#441=CARTESIAN_POINT('',(0.0,0.0,-39.2));
#442=DIRECTION('',(-0.0,-0.0,1.0));
#443=DIRECTION('',(0.0,1.0,0.0));
#444=DIRECTION('',(-8.65927457071929E-017,0.707106781186542,0.707106781186553));
#445=SURFACE_STYLE_FILL_AREA(#479);
#446=ORIENTED_EDGE('',*,*,#126,.T.);
#447=ORIENTED_EDGE('',*,*,#90,.T.);
#448=ORIENTED_EDGE('',*,*,#136,.F.);
#449=ORIENTED_EDGE('',*,*,#62,.F.);
#450=CARTESIAN_POINT('',(0.0,2.0,-78.0));
#451=DIRECTION('',(0.0,0.0,-1.0));
#452=DIRECTION('',(0.0,1.0,0.0));
#453=SURFACE_STYLE_FILL_AREA(#480);
#454=ORIENTED_EDGE('',*,*,#70,.F.);
#455=ORIENTED_EDGE('',*,*,#130,.F.);
#456=CARTESIAN_POINT('',(0.0,1.8,0.0));
#457=DIRECTION('',(-0.0,0.0,1.0));
#458=DIRECTION('',(0.0,-1.0,0.0));
#459=DIRECTION('',(-0.0,-0.0,1.0));
#460=CARTESIAN_POINT('',(0.0,0.0,-78.0));
#461=DIRECTION('',(0.0,0.0,-1.0));
#462=DIRECTION('',(0.0,1.0,0.0));
#463=DIRECTION('',(0.0,0.0,-1.0));
#464=CARTESIAN_POINT('',(0.0,0.0,0.0));
#465=DIRECTION('',(0.0,0.0,-1.0));
#466=DIRECTION('',(0.0,1.0,0.0));
#467=CARTESIAN_POINT('',(0.0,0.0,-78.0));
#468=DIRECTION('',(0.0,0.0,-1.0));
#469=DIRECTION('',(0.0,1.0,0.0));
#470=FILL_AREA_STYLE('',(#481));
#471=FILL_AREA_STYLE('',(#482));
#472=FILL_AREA_STYLE('',(#483));
#473=FILL_AREA_STYLE('',(#484));
#474=FILL_AREA_STYLE('',(#485));
#475=FILL_AREA_STYLE('',(#486));
#476=FILL_AREA_STYLE('',(#487));
#477=FILL_AREA_STYLE('',(#488));
#478=FILL_AREA_STYLE('',(#489));
#479=FILL_AREA_STYLE('',(#490));
#480=FILL_AREA_STYLE('',(#491));
#481=FILL_AREA_STYLE_COLOUR('',#492);
#482=FILL_AREA_STYLE_COLOUR('',#493);
#483=FILL_AREA_STYLE_COLOUR('',#494);
#484=FILL_AREA_STYLE_COLOUR('',#495);
#485=FILL_AREA_STYLE_COLOUR('',#496);
#486=FILL_AREA_STYLE_COLOUR('',#497);
#487=FILL_AREA_STYLE_COLOUR('',#498);
#488=FILL_AREA_STYLE_COLOUR('',#499);
#489=FILL_AREA_STYLE_COLOUR('',#500);
#490=FILL_AREA_STYLE_COLOUR('',#501);
#491=FILL_AREA_STYLE_COLOUR('',#502);
#492=COLOUR_RGB('',0.498039215803146,0.498039215803146,0.498039215803146);
#493=COLOUR_RGB('',0.800000011920929,0.800000011920929,0.800000011920929);
#494=COLOUR_RGB('',0.800000011920929,0.800000011920929,0.800000011920929);
#495=COLOUR_RGB('',0.800000011920929,0.800000011920929,0.800000011920929);
#496=COLOUR_RGB('',0.800000011920929,0.800000011920929,0.800000011920929);
#497=COLOUR_RGB('',0.800000011920929,0.800000011920929,0.800000011920929);
#498=COLOUR_RGB('',0.498039215803146,0.498039215803146,0.498039215803146);
#499=COLOUR_RGB('',0.498039215803146,0.498039215803146,0.498039215803146);
#500=COLOUR_RGB('',0.498039215803146,0.498039215803146,0.498039215803146);
#501=COLOUR_RGB('',0.498039215803146,0.498039215803146,0.498039215803146);
#502=COLOUR_RGB('',0.498039215803146,0.498039215803146,0.498039215803146);
#503=AXIS2_PLACEMENT_3D('PCS',#504,#505,#506);
#504=CARTESIAN_POINT('',(0.0,0.0,0.0));
#505=DIRECTION('',(0.0,0.0,1.0));
#506=DIRECTION('',(1.0,0.0,0.0));
#507=AXIS2_PLACEMENT_3D('CIP',#508,#509,#510);
#508=CARTESIAN_POINT('',(0.0,0.0,-90.0));
#509=DIRECTION('',(0.0,0.0,1.0));
#510=DIRECTION('',(1.0,0.0,0.0));
#511=AXIS2_PLACEMENT_3D('CRP',#512,#513,#514);
#512=CARTESIAN_POINT('',(-4.0,0.0,-90.0));
#513=DIRECTION('',(0.0,0.0,1.0));
#514=DIRECTION('',(1.0,0.0,0.0));
#515=AXIS2_PLACEMENT_3D('MCS',#516,#517,#518);
#516=CARTESIAN_POINT('',(0.0,0.0,-78.0));
#517=DIRECTION('',(0.0,0.0,1.0));
#518=DIRECTION('',(1.0,0.0,0.0));
#519=CONSTRUCTIVE_GEOMETRY_REPRESENTATION_RELATIONSHIP('coordinate systems',$,#52,#520);
#520=CONSTRUCTIVE_GEOMETRY_REPRESENTATION('coordinate systems',(#503,#507,#511,#515),#6);
ENDSEC;
END-ISO-10303-21;
