ISO-10303-21;
HEADER;
FILE_DESCRIPTION(('no description'),'unknown implementation level');
FILE_NAME('CFB3100-1500-Huellk.stp','  ',('CIMSOURCE GmbH'),('CADClick - KiM GmbH - www.kimweb.de'),'unknown preprocess','ACIS','unknown authorization');
FILE_SCHEMA(('automotive_design'));
ENDSEC;
DATA;
#1=MECHANICAL_DESIGN_GEOMETRIC_PRESENTATION_REPRESENTATION(' ',(#10,#11,#12,#13,#14,#15,#16,#17,#18,#19,#20,#21,#22,#23,#24,#25,#26,#27,#28,#29,#30,#31,#32,#33,#34,#35,#36,#37,#38,#39,#40,#41,#42,#43,#44,#45,#46,#47),#6);
#2=PRODUCT_DEFINITION_CONTEXT('',#48,'design');
#3=APPLICATION_PROTOCOL_DEFINITION('INTERNATIONAL STANDARD','automotive_design',1994,#48);
#4=PRODUCT_CATEGORY_RELATIONSHIP('NONE','NONE',#49,#50);
#5=SHAPE_DEFINITION_REPRESENTATION(#51,#52);
#6= (GEOMETRIC_REPRESENTATION_CONTEXT(3)GLOBAL_UNCERTAINTY_ASSIGNED_CONTEXT((#55))GLOBAL_UNIT_ASSIGNED_CONTEXT((#57,#58,#59))REPRESENTATION_CONTEXT('NONE','WORKSPACE'));
#10=STYLED_ITEM('',(#61),#62);
#11=STYLED_ITEM('',(#63),#64);
#12=STYLED_ITEM('',(#65),#66);
#13=STYLED_ITEM('',(#67),#68);
#14=STYLED_ITEM('',(#69),#70);
#15=STYLED_ITEM('',(#71),#72);
#16=STYLED_ITEM('',(#73),#74);
#17=STYLED_ITEM('',(#75),#76);
#18=STYLED_ITEM('',(#77),#78);
#19=STYLED_ITEM('',(#79),#80);
#20=STYLED_ITEM('',(#81),#82);
#21=STYLED_ITEM('',(#83),#84);
#22=STYLED_ITEM('',(#85),#86);
#23=STYLED_ITEM('',(#87),#88);
#24=STYLED_ITEM('',(#89),#90);
#25=STYLED_ITEM('',(#91),#92);
#26=STYLED_ITEM('',(#93),#94);
#27=STYLED_ITEM('',(#95),#96);
#28=STYLED_ITEM('',(#97),#98);
#29=STYLED_ITEM('',(#99),#100);
#30=STYLED_ITEM('',(#101),#102);
#31=STYLED_ITEM('',(#103),#104);
#32=STYLED_ITEM('',(#105),#106);
#33=STYLED_ITEM('',(#107),#108);
#34=STYLED_ITEM('',(#109),#110);
#35=STYLED_ITEM('',(#111),#112);
#36=STYLED_ITEM('',(#113),#114);
#37=STYLED_ITEM('',(#115),#116);
#38=STYLED_ITEM('',(#117),#118);
#39=STYLED_ITEM('',(#119),#120);
#40=STYLED_ITEM('',(#121),#122);
#41=STYLED_ITEM('',(#123),#124);
#42=STYLED_ITEM('',(#125),#126);
#43=STYLED_ITEM('',(#127),#128);
#44=STYLED_ITEM('',(#129),#130);
#45=STYLED_ITEM('',(#131),#132);
#46=STYLED_ITEM('',(#133),#134);
#47=STYLED_ITEM('',(#135),#136);
#48=APPLICATION_CONTEXT(' ');
#49=PRODUCT_CATEGORY('part','NONE');
#50=PRODUCT_RELATED_PRODUCT_CATEGORY('detail',' ',(#137));
#51=PRODUCT_DEFINITION_SHAPE('NONE','NONE',#138);
#52=ADVANCED_BREP_SHAPE_REPRESENTATION('1',(#108,#139),#6);
#55=UNCERTAINTY_MEASURE_WITH_UNIT(LENGTH_MEASURE(1.0E-006),#57,'','');
#57= (CONVERSION_BASED_UNIT('MILLIMETRE',#142)LENGTH_UNIT()NAMED_UNIT(#145));
#58= (NAMED_UNIT(#147)PLANE_ANGLE_UNIT()SI_UNIT($,.RADIAN.));
#59= (NAMED_UNIT(#147)SOLID_ANGLE_UNIT()SI_UNIT($,.STERADIAN.));
#61=PRESENTATION_STYLE_ASSIGNMENT((#153));
#62=VERTEX_POINT('',#154);
#63=PRESENTATION_STYLE_ASSIGNMENT((#155));
#64=EDGE_CURVE('',#68,#74,#156,.T.);
#65=PRESENTATION_STYLE_ASSIGNMENT((#157));
#66=VERTEX_POINT('',#158);
#67=PRESENTATION_STYLE_ASSIGNMENT((#159));
#68=VERTEX_POINT('',#160);
#69=PRESENTATION_STYLE_ASSIGNMENT((#161));
#70=ADVANCED_FACE('',(#162),#163,.T.);
#71=PRESENTATION_STYLE_ASSIGNMENT((#164));
#72=VERTEX_POINT('',#165);
#73=PRESENTATION_STYLE_ASSIGNMENT((#166));
#74=VERTEX_POINT('',#167);
#75=PRESENTATION_STYLE_ASSIGNMENT((#168));
#76=EDGE_CURVE('',#112,#98,#169,.T.);
#77=PRESENTATION_STYLE_ASSIGNMENT((#170));
#78=ADVANCED_FACE('',(#171),#172,.T.);
#79=PRESENTATION_STYLE_ASSIGNMENT((#173));
#80=VERTEX_POINT('',#174);
#81=PRESENTATION_STYLE_ASSIGNMENT((#175));
#82=VERTEX_POINT('',#176);
#83=PRESENTATION_STYLE_ASSIGNMENT((#177));
#84=ADVANCED_FACE('',(#178),#179,.T.);
#85=PRESENTATION_STYLE_ASSIGNMENT((#180));
#86=EDGE_CURVE('',#80,#74,#181,.T.);
#87=PRESENTATION_STYLE_ASSIGNMENT((#182));
#88=EDGE_CURVE('',#72,#66,#183,.T.);
#89=PRESENTATION_STYLE_ASSIGNMENT((#184));
#90=EDGE_CURVE('',#116,#82,#185,.T.);
#91=PRESENTATION_STYLE_ASSIGNMENT((#186));
#92=ADVANCED_FACE('',(#187),#188,.T.);
#93=PRESENTATION_STYLE_ASSIGNMENT((#189));
#94=EDGE_CURVE('',#82,#116,#190,.T.);
#95=PRESENTATION_STYLE_ASSIGNMENT((#191));
#96=EDGE_CURVE('',#74,#68,#192,.T.);
#97=PRESENTATION_STYLE_ASSIGNMENT((#193));
#98=VERTEX_POINT('',#194);
#99=PRESENTATION_STYLE_ASSIGNMENT((#195));
#100=EDGE_CURVE('',#66,#72,#196,.T.);
#101=PRESENTATION_STYLE_ASSIGNMENT((#197));
#102=ADVANCED_FACE('',(#198),#199,.T.);
#103=PRESENTATION_STYLE_ASSIGNMENT((#200));
#104=ADVANCED_FACE('',(#201),#202,.T.);
#105=PRESENTATION_STYLE_ASSIGNMENT((#203));
#106=EDGE_CURVE('',#66,#68,#204,.T.);
#107=PRESENTATION_STYLE_ASSIGNMENT((#205));
#108=MANIFOLD_SOLID_BREP('1',#206);
#109=PRESENTATION_STYLE_ASSIGNMENT((#207));
#110=ADVANCED_FACE('',(#208),#209,.T.);
#111=PRESENTATION_STYLE_ASSIGNMENT((#210));
#112=VERTEX_POINT('',#211);
#113=PRESENTATION_STYLE_ASSIGNMENT((#212));
#114=EDGE_CURVE('',#68,#62,#213,.T.);
#115=PRESENTATION_STYLE_ASSIGNMENT((#214));
#116=VERTEX_POINT('',#215);
#117=PRESENTATION_STYLE_ASSIGNMENT((#216));
#118=ADVANCED_FACE('',(#217,#218),#219,.T.);
#119=PRESENTATION_STYLE_ASSIGNMENT((#220));
#120=EDGE_CURVE('',#116,#82,#221,.T.);
#121=PRESENTATION_STYLE_ASSIGNMENT((#222));
#122=ADVANCED_FACE('',(#223),#224,.T.);
#123=PRESENTATION_STYLE_ASSIGNMENT((#225));
#124=EDGE_CURVE('',#98,#112,#226,.T.);
#125=PRESENTATION_STYLE_ASSIGNMENT((#227));
#126=EDGE_CURVE('',#74,#72,#228,.T.);
#127=PRESENTATION_STYLE_ASSIGNMENT((#229));
#128=ADVANCED_FACE('',(#230),#231,.T.);
#129=PRESENTATION_STYLE_ASSIGNMENT((#232));
#130=EDGE_CURVE('',#62,#80,#233,.T.);
#131=PRESENTATION_STYLE_ASSIGNMENT((#234));
#132=EDGE_CURVE('',#116,#112,#235,.T.);
#133=PRESENTATION_STYLE_ASSIGNMENT((#236));
#134=EDGE_CURVE('',#98,#82,#237,.T.);
#135=PRESENTATION_STYLE_ASSIGNMENT((#238));
#136=EDGE_CURVE('',#80,#62,#239,.T.);
#137=PRODUCT('1','1','PART-1-DESC',(#240));
#138=PRODUCT_DEFINITION('NONE','NONE',#241,#2);
#139=AXIS2_PLACEMENT_3D('',#242,#243,#244);
#142=LENGTH_MEASURE_WITH_UNIT(LENGTH_MEASURE(1.0),#245);
#145=DIMENSIONAL_EXPONENTS(1.0,0.0,0.0,0.0,0.0,0.0,0.0);
#147=DIMENSIONAL_EXPONENTS(0.0,0.0,0.0,0.0,0.0,0.0,0.0);
#153=POINT_STYLE(' ',#246,POSITIVE_LENGTH_MEASURE(1.0E-006),#247);
#154=CARTESIAN_POINT('',(5.5107285922007E-016,-4.5,0.0));
#155=CURVE_STYLE('',#248,POSITIVE_LENGTH_MEASURE(1.0E-006),#249);
#156=CIRCLE('',#250,5.0);
#157=POINT_STYLE(' ',#251,POSITIVE_LENGTH_MEASURE(1.0E-006),#252);
#158=CARTESIAN_POINT('',(6.12303176911189E-016,-5.0,-85.0));
#159=POINT_STYLE(' ',#253,POSITIVE_LENGTH_MEASURE(1.0E-006),#254);
#160=CARTESIAN_POINT('',(6.12303176911189E-016,-5.0,-0.5));
#161=SURFACE_STYLE_USAGE(.BOTH.,#255);
#162=FACE_OUTER_BOUND('',#256,.T.);
#163=CYLINDRICAL_SURFACE('',#257,5.0);
#164=POINT_STYLE(' ',#258,POSITIVE_LENGTH_MEASURE(1.0E-006),#259);
#165=CARTESIAN_POINT('',(0.0,5.0,-85.0));
#166=POINT_STYLE(' ',#260,POSITIVE_LENGTH_MEASURE(1.0E-006),#261);
#167=CARTESIAN_POINT('',(0.0,5.0,-0.5));
#168=CURVE_STYLE('',#262,POSITIVE_LENGTH_MEASURE(1.0E-006),#263);
#169=CIRCLE('',#264,4.9999);
#170=SURFACE_STYLE_USAGE(.BOTH.,#265);
#171=FACE_OUTER_BOUND('',#266,.T.);
#172=CONICAL_SURFACE('',#267,4.99995,9.99999999973218E-006);
#173=POINT_STYLE(' ',#268,POSITIVE_LENGTH_MEASURE(1.0E-006),#269);
#174=CARTESIAN_POINT('',(0.0,4.5,0.0));
#175=POINT_STYLE(' ',#270,POSITIVE_LENGTH_MEASURE(1.0E-006),#271);
#176=CARTESIAN_POINT('',(0.0,5.0,-95.0));
#177=SURFACE_STYLE_USAGE(.BOTH.,#272);
#178=FACE_OUTER_BOUND('',#273,.T.);
#179=CONICAL_SURFACE('',#274,4.75,0.785398163397448);
#180=CURVE_STYLE('',#275,POSITIVE_LENGTH_MEASURE(1.0E-006),#276);
#181=LINE('',#277,#278);
#182=CURVE_STYLE('',#279,POSITIVE_LENGTH_MEASURE(1.0E-006),#280);
#183=CIRCLE('',#281,5.0);
#184=CURVE_STYLE('',#282,POSITIVE_LENGTH_MEASURE(1.0E-006),#283);
#185=CIRCLE('',#284,5.0);
#186=SURFACE_STYLE_USAGE(.BOTH.,#285);
#187=FACE_OUTER_BOUND('',#286,.T.);
#188=PLANE('',#287);
#189=CURVE_STYLE('',#288,POSITIVE_LENGTH_MEASURE(1.0E-006),#289);
#190=CIRCLE('',#290,5.0);
#191=CURVE_STYLE('',#291,POSITIVE_LENGTH_MEASURE(1.0E-006),#292);
#192=CIRCLE('',#293,5.0);
#193=POINT_STYLE(' ',#294,POSITIVE_LENGTH_MEASURE(1.0E-006),#295);
#194=CARTESIAN_POINT('',(0.0,4.9999,-85.0));
#195=CURVE_STYLE('',#296,POSITIVE_LENGTH_MEASURE(1.0E-006),#297);
#196=CIRCLE('',#298,5.0);
#197=SURFACE_STYLE_USAGE(.BOTH.,#299);
#198=FACE_OUTER_BOUND('',#300,.T.);
#199=CYLINDRICAL_SURFACE('',#301,5.0);
#200=SURFACE_STYLE_USAGE(.BOTH.,#302);
#201=FACE_OUTER_BOUND('',#303,.T.);
#202=CONICAL_SURFACE('',#304,4.75,0.785398163397448);
#203=CURVE_STYLE('',#305,POSITIVE_LENGTH_MEASURE(1.0E-006),#306);
#204=LINE('',#307,#308);
#205=SURFACE_STYLE_USAGE(.BOTH.,#309);
#206=CLOSED_SHELL('',(#128,#122,#102,#84,#118,#92,#104,#70,#78,#110));
#207=SURFACE_STYLE_USAGE(.BOTH.,#310);
#208=FACE_OUTER_BOUND('',#311,.T.);
#209=SPHERICAL_SURFACE('',#312,4.99999999999999);
#210=POINT_STYLE(' ',#313,POSITIVE_LENGTH_MEASURE(1.0E-006),#314);
#211=CARTESIAN_POINT('',(6.1229093084765E-016,-4.9999,-85.0));
#212=CURVE_STYLE('',#315,POSITIVE_LENGTH_MEASURE(1.0E-006),#316);
#213=LINE('',#317,#318);
#214=POINT_STYLE(' ',#319,POSITIVE_LENGTH_MEASURE(1.0E-006),#320);
#215=CARTESIAN_POINT('',(6.12303176911188E-016,-5.0,-95.0));
#216=SURFACE_STYLE_USAGE(.BOTH.,#321);
#217=FACE_OUTER_BOUND('',#322,.T.);
#218=FACE_BOUND('',#323,.T.);
#219=PLANE('',#324);
#220=CURVE_STYLE('',#325,POSITIVE_LENGTH_MEASURE(1.0E-006),#326);
#221=CIRCLE('',#327,4.99999999999999);
#222=SURFACE_STYLE_USAGE(.BOTH.,#328);
#223=FACE_OUTER_BOUND('',#329,.T.);
#224=CONICAL_SURFACE('',#330,4.99995,9.99999999973218E-006);
#225=CURVE_STYLE('',#331,POSITIVE_LENGTH_MEASURE(1.0E-006),#332);
#226=CIRCLE('',#333,4.9999);
#227=CURVE_STYLE('',#334,POSITIVE_LENGTH_MEASURE(1.0E-006),#335);
#228=LINE('',#336,#337);
#229=SURFACE_STYLE_USAGE(.BOTH.,#338);
#230=FACE_OUTER_BOUND('',#339,.T.);
#231=SPHERICAL_SURFACE('',#340,4.99999999999999);
#232=CURVE_STYLE('',#341,POSITIVE_LENGTH_MEASURE(1.0E-006),#342);
#233=CIRCLE('',#343,4.5);
#234=CURVE_STYLE('',#344,POSITIVE_LENGTH_MEASURE(1.0E-006),#345);
#235=LINE('',#346,#347);
#236=CURVE_STYLE('',#348,POSITIVE_LENGTH_MEASURE(1.0E-006),#349);
#237=LINE('',#350,#351);
#238=CURVE_STYLE('',#352,POSITIVE_LENGTH_MEASURE(1.0E-006),#353);
#239=CIRCLE('',#354,4.5);
#240=PRODUCT_CONTEXT('',#48,'mechanical');
#241=PRODUCT_DEFINITION_FORMATION_WITH_SPECIFIED_SOURCE(' ','NONE',#137,.NOT_KNOWN.);
#242=CARTESIAN_POINT('',(0.0,0.0,0.0));
#243=DIRECTION('',(0.0,0.0,1.0));
#244=DIRECTION('',(1.0,0.0,0.0));
#245= (NAMED_UNIT(#145)LENGTH_UNIT()SI_UNIT(.MILLI.,.METRE.));
#246=PRE_DEFINED_MARKER('');
#247=COLOUR_RGB('',0.498039215803146,0.498039215803146,0.498039215803146);
#248=DRAUGHTING_PRE_DEFINED_CURVE_FONT('continuous');
#249=COLOUR_RGB('',0.498039215803146,0.498039215803146,0.498039215803146);
#250=AXIS2_PLACEMENT_3D('',#356,#357,#358);
#251=PRE_DEFINED_MARKER('');
#252=COLOUR_RGB('',0.498039215803146,0.498039215803146,0.498039215803146);
#253=PRE_DEFINED_MARKER('');
#254=COLOUR_RGB('',0.498039215803146,0.498039215803146,0.498039215803146);
#255=SURFACE_SIDE_STYLE('',(#359));
#256=EDGE_LOOP('',(#360,#361,#362,#363));
#257=AXIS2_PLACEMENT_3D('',#364,#365,#366);
#258=PRE_DEFINED_MARKER('');
#259=COLOUR_RGB('',0.498039215803146,0.498039215803146,0.498039215803146);
#260=PRE_DEFINED_MARKER('');
#261=COLOUR_RGB('',0.498039215803146,0.498039215803146,0.498039215803146);
#262=DRAUGHTING_PRE_DEFINED_CURVE_FONT('continuous');
#263=COLOUR_RGB('',0.800000011920929,0.800000011920929,0.800000011920929);
#264=AXIS2_PLACEMENT_3D('',#367,#368,#369);
#265=SURFACE_SIDE_STYLE('',(#370));
#266=EDGE_LOOP('',(#371,#372,#373,#374));
#267=AXIS2_PLACEMENT_3D('',#375,#376,#377);
#268=PRE_DEFINED_MARKER('');
#269=COLOUR_RGB('',0.498039215803146,0.498039215803146,0.498039215803146);
#270=PRE_DEFINED_MARKER('');
#271=COLOUR_RGB('',0.800000011920929,0.800000011920929,0.800000011920929);
#272=SURFACE_SIDE_STYLE('',(#378));
#273=EDGE_LOOP('',(#379,#380,#381,#382));
#274=AXIS2_PLACEMENT_3D('',#383,#384,#385);
#275=DRAUGHTING_PRE_DEFINED_CURVE_FONT('continuous');
#276=COLOUR_RGB('',0.498039215803146,0.498039215803146,0.498039215803146);
#277=CARTESIAN_POINT('',(-5.81688018065629E-016,4.75,-0.25));
#278=VECTOR('',#386,1.0);
#279=DRAUGHTING_PRE_DEFINED_CURVE_FONT('continuous');
#280=COLOUR_RGB('',0.498039215803146,0.498039215803146,0.498039215803146);
#281=AXIS2_PLACEMENT_3D('',#387,#388,#389);
#282=DRAUGHTING_PRE_DEFINED_CURVE_FONT('continuous');
#283=COLOUR_RGB('',0.800000011920929,0.800000011920929,0.800000011920929);
#284=AXIS2_PLACEMENT_3D('',#390,#391,#392);
#285=SURFACE_SIDE_STYLE('',(#393));
#286=EDGE_LOOP('',(#394,#395));
#287=AXIS2_PLACEMENT_3D('',#396,#397,#398);
#288=DRAUGHTING_PRE_DEFINED_CURVE_FONT('continuous');
#289=COLOUR_RGB('',0.800000011920929,0.800000011920929,0.800000011920929);
#290=AXIS2_PLACEMENT_3D('',#399,#400,#401);
#291=DRAUGHTING_PRE_DEFINED_CURVE_FONT('continuous');
#292=COLOUR_RGB('',0.498039215803146,0.498039215803146,0.498039215803146);
#293=AXIS2_PLACEMENT_3D('',#402,#403,#404);
#294=PRE_DEFINED_MARKER('');
#295=COLOUR_RGB('',0.800000011920929,0.800000011920929,0.800000011920929);
#296=DRAUGHTING_PRE_DEFINED_CURVE_FONT('continuous');
#297=COLOUR_RGB('',0.498039215803146,0.498039215803146,0.498039215803146);
#298=AXIS2_PLACEMENT_3D('',#405,#406,#407);
#299=SURFACE_SIDE_STYLE('',(#408));
#300=EDGE_LOOP('',(#409,#410,#411,#412));
#301=AXIS2_PLACEMENT_3D('',#413,#414,#415);
#302=SURFACE_SIDE_STYLE('',(#416));
#303=EDGE_LOOP('',(#417,#418,#419,#420));
#304=AXIS2_PLACEMENT_3D('',#421,#422,#423);
#305=DRAUGHTING_PRE_DEFINED_CURVE_FONT('continuous');
#306=COLOUR_RGB('',0.498039215803146,0.498039215803146,0.498039215803146);
#307=CARTESIAN_POINT('',(6.12303176911189E-016,-5.0,-42.75));
#308=VECTOR('',#424,1.0);
#309=SURFACE_SIDE_STYLE('',(#425));
#310=SURFACE_SIDE_STYLE('',(#426));
#311=EDGE_LOOP('',(#427,#428));
#312=AXIS2_PLACEMENT_3D('',#429,#430,#431);
#313=PRE_DEFINED_MARKER('');
#314=COLOUR_RGB('',0.800000011920929,0.800000011920929,0.800000011920929);
#315=DRAUGHTING_PRE_DEFINED_CURVE_FONT('continuous');
#316=COLOUR_RGB('',0.498039215803146,0.498039215803146,0.498039215803146);
#317=CARTESIAN_POINT('',(5.81688018065629E-016,-4.75,-0.25));
#318=VECTOR('',#432,1.0);
#319=PRE_DEFINED_MARKER('');
#320=COLOUR_RGB('',0.800000011920929,0.800000011920929,0.800000011920929);
#321=SURFACE_SIDE_STYLE('',(#433));
#322=EDGE_LOOP('',(#434,#435));
#323=EDGE_LOOP('',(#436,#437));
#324=AXIS2_PLACEMENT_3D('',#438,#439,#440);
#325=DRAUGHTING_PRE_DEFINED_CURVE_FONT('continuous');
#326=COLOUR_RGB('',0.800000011920929,0.800000011920929,0.800000011920929);
#327=AXIS2_PLACEMENT_3D('',#441,#442,#443);
#328=SURFACE_SIDE_STYLE('',(#444));
#329=EDGE_LOOP('',(#445,#446,#447,#448));
#330=AXIS2_PLACEMENT_3D('',#449,#450,#451);
#331=DRAUGHTING_PRE_DEFINED_CURVE_FONT('continuous');
#332=COLOUR_RGB('',0.800000011920929,0.800000011920929,0.800000011920929);
#333=AXIS2_PLACEMENT_3D('',#452,#453,#454);
#334=DRAUGHTING_PRE_DEFINED_CURVE_FONT('continuous');
#335=COLOUR_RGB('',0.498039215803146,0.498039215803146,0.498039215803146);
#336=CARTESIAN_POINT('',(-6.12303176911189E-016,5.0,-42.75));
#337=VECTOR('',#455,1.0);
#338=SURFACE_SIDE_STYLE('',(#456));
#339=EDGE_LOOP('',(#457,#458));
#340=AXIS2_PLACEMENT_3D('',#459,#460,#461);
#341=DRAUGHTING_PRE_DEFINED_CURVE_FONT('continuous');
#342=COLOUR_RGB('',0.498039215803146,0.498039215803146,0.498039215803146);
#343=AXIS2_PLACEMENT_3D('',#462,#463,#464);
#344=DRAUGHTING_PRE_DEFINED_CURVE_FONT('continuous');
#345=COLOUR_RGB('',0.800000011920929,0.800000011920929,0.800000011920929);
#346=CARTESIAN_POINT('',(6.12297053879419E-016,-4.99995,-90.0));
#347=VECTOR('',#465,1.0);
#348=DRAUGHTING_PRE_DEFINED_CURVE_FONT('continuous');
#349=COLOUR_RGB('',0.800000011920929,0.800000011920929,0.800000011920929);
#350=CARTESIAN_POINT('',(-6.12297053879419E-016,4.99995,-90.0));
#351=VECTOR('',#466,1.0);
#352=DRAUGHTING_PRE_DEFINED_CURVE_FONT('continuous');
#353=COLOUR_RGB('',0.498039215803146,0.498039215803146,0.498039215803146);
#354=AXIS2_PLACEMENT_3D('',#467,#468,#469);
#356=CARTESIAN_POINT('',(0.0,0.0,-0.5));
#357=DIRECTION('',(0.0,0.0,-1.0));
#358=DIRECTION('',(0.0,1.0,0.0));
#359=SURFACE_STYLE_FILL_AREA(#470);
#360=ORIENTED_EDGE('',*,*,#126,.T.);
#361=ORIENTED_EDGE('',*,*,#100,.F.);
#362=ORIENTED_EDGE('',*,*,#106,.T.);
#363=ORIENTED_EDGE('',*,*,#64,.T.);
#364=CARTESIAN_POINT('',(0.0,0.0,-42.75));
#365=DIRECTION('',(-0.0,-0.0,1.0));
#366=DIRECTION('',(0.0,1.0,0.0));
#367=CARTESIAN_POINT('',(0.0,0.0,-85.0));
#368=DIRECTION('',(0.0,0.0,-1.0));
#369=DIRECTION('',(0.0,1.0,0.0));
#370=SURFACE_STYLE_FILL_AREA(#471);
#371=ORIENTED_EDGE('',*,*,#134,.T.);
#372=ORIENTED_EDGE('',*,*,#90,.F.);
#373=ORIENTED_EDGE('',*,*,#132,.T.);
#374=ORIENTED_EDGE('',*,*,#76,.T.);
#375=CARTESIAN_POINT('',(0.0,0.0,-90.0));
#376=DIRECTION('',(0.0,-0.0,-1.0));
#377=DIRECTION('',(0.0,1.0,0.0));
#378=SURFACE_STYLE_FILL_AREA(#472);
#379=ORIENTED_EDGE('',*,*,#86,.F.);
#380=ORIENTED_EDGE('',*,*,#136,.T.);
#381=ORIENTED_EDGE('',*,*,#114,.F.);
#382=ORIENTED_EDGE('',*,*,#96,.F.);
#383=CARTESIAN_POINT('',(0.0,0.0,-0.25));
#384=DIRECTION('',(0.0,-0.0,-1.0));
#385=DIRECTION('',(0.0,1.0,0.0));
#386=DIRECTION('',(-8.65927457071936E-017,0.707106781186548,-0.707106781186548));
#387=CARTESIAN_POINT('',(0.0,0.0,-85.0));
#388=DIRECTION('',(0.0,0.0,-1.0));
#389=DIRECTION('',(0.0,1.0,0.0));
#390=CARTESIAN_POINT('',(0.0,0.0,-95.0));
#391=DIRECTION('',(0.0,0.0,-1.0));
#392=DIRECTION('',(0.0,1.0,0.0));
#393=SURFACE_STYLE_FILL_AREA(#473);
#394=ORIENTED_EDGE('',*,*,#136,.F.);
#395=ORIENTED_EDGE('',*,*,#130,.F.);
#396=CARTESIAN_POINT('',(0.0,2.25,0.0));
#397=DIRECTION('',(-0.0,0.0,1.0));
#398=DIRECTION('',(0.0,-1.0,0.0));
#399=CARTESIAN_POINT('',(0.0,0.0,-95.0));
#400=DIRECTION('',(0.0,0.0,-1.0));
#401=DIRECTION('',(0.0,1.0,0.0));
#402=CARTESIAN_POINT('',(0.0,0.0,-0.5));
#403=DIRECTION('',(0.0,0.0,-1.0));
#404=DIRECTION('',(0.0,1.0,0.0));
#405=CARTESIAN_POINT('',(0.0,0.0,-85.0));
#406=DIRECTION('',(0.0,0.0,-1.0));
#407=DIRECTION('',(0.0,1.0,0.0));
#408=SURFACE_STYLE_FILL_AREA(#474);
#409=ORIENTED_EDGE('',*,*,#126,.F.);
#410=ORIENTED_EDGE('',*,*,#96,.T.);
#411=ORIENTED_EDGE('',*,*,#106,.F.);
#412=ORIENTED_EDGE('',*,*,#88,.F.);
#413=CARTESIAN_POINT('',(0.0,0.0,-42.75));
#414=DIRECTION('',(-0.0,-0.0,1.0));
#415=DIRECTION('',(0.0,1.0,0.0));
#416=SURFACE_STYLE_FILL_AREA(#475);
#417=ORIENTED_EDGE('',*,*,#86,.T.);
#418=ORIENTED_EDGE('',*,*,#64,.F.);
#419=ORIENTED_EDGE('',*,*,#114,.T.);
#420=ORIENTED_EDGE('',*,*,#130,.T.);
#421=CARTESIAN_POINT('',(0.0,0.0,-0.25));
#422=DIRECTION('',(0.0,-0.0,-1.0));
#423=DIRECTION('',(0.0,1.0,0.0));
#424=DIRECTION('',(-0.0,-0.0,1.0));
#425=SURFACE_STYLE_FILL_AREA(#476);
#426=SURFACE_STYLE_FILL_AREA(#477);
#427=ORIENTED_EDGE('',*,*,#120,.T.);
#428=ORIENTED_EDGE('',*,*,#94,.T.);
#429=CARTESIAN_POINT('',(0.0,0.0,-95.0));
#430=DIRECTION('',(0.0,1.0,0.0));
#431=DIRECTION('',(0.0,0.0,-1.0));
#432=DIRECTION('',(-8.65927457071936E-017,0.707106781186548,0.707106781186548));
#433=SURFACE_STYLE_FILL_AREA(#478);
#434=ORIENTED_EDGE('',*,*,#88,.T.);
#435=ORIENTED_EDGE('',*,*,#100,.T.);
#436=ORIENTED_EDGE('',*,*,#124,.F.);
#437=ORIENTED_EDGE('',*,*,#76,.F.);
#438=CARTESIAN_POINT('',(0.0,2.5,-85.0));
#439=DIRECTION('',(0.0,0.0,-1.0));
#440=DIRECTION('',(0.0,1.0,0.0));
#441=CARTESIAN_POINT('',(0.0,0.0,-95.0));
#442=DIRECTION('',(1.0,0.0,1.22460635382238E-016));
#443=DIRECTION('',(-1.22460635382238E-016,0.0,1.0));
#444=SURFACE_STYLE_FILL_AREA(#479);
#445=ORIENTED_EDGE('',*,*,#134,.F.);
#446=ORIENTED_EDGE('',*,*,#124,.T.);
#447=ORIENTED_EDGE('',*,*,#132,.F.);
#448=ORIENTED_EDGE('',*,*,#94,.F.);
#449=CARTESIAN_POINT('',(0.0,0.0,-90.0));
#450=DIRECTION('',(0.0,-0.0,-1.0));
#451=DIRECTION('',(0.0,1.0,0.0));
#452=CARTESIAN_POINT('',(0.0,0.0,-85.0));
#453=DIRECTION('',(0.0,0.0,-1.0));
#454=DIRECTION('',(0.0,1.0,0.0));
#455=DIRECTION('',(0.0,0.0,-1.0));
#456=SURFACE_STYLE_FILL_AREA(#480);
#457=ORIENTED_EDGE('',*,*,#120,.F.);
#458=ORIENTED_EDGE('',*,*,#90,.T.);
#459=CARTESIAN_POINT('',(0.0,0.0,-95.0));
#460=DIRECTION('',(0.0,1.0,0.0));
#461=DIRECTION('',(0.0,0.0,-1.0));
#462=CARTESIAN_POINT('',(0.0,0.0,0.0));
#463=DIRECTION('',(0.0,0.0,-1.0));
#464=DIRECTION('',(0.0,1.0,0.0));
#465=DIRECTION('',(-1.22460635376917E-021,9.99999999956551E-006,0.99999999995));
#466=DIRECTION('',(-1.22460635376917E-021,9.99999999956551E-006,-0.99999999995));
#467=CARTESIAN_POINT('',(0.0,0.0,0.0));
#468=DIRECTION('',(0.0,0.0,-1.0));
#469=DIRECTION('',(0.0,1.0,0.0));
#470=FILL_AREA_STYLE('',(#481));
#471=FILL_AREA_STYLE('',(#482));
#472=FILL_AREA_STYLE('',(#483));
#473=FILL_AREA_STYLE('',(#484));
#474=FILL_AREA_STYLE('',(#485));
#475=FILL_AREA_STYLE('',(#486));
#476=FILL_AREA_STYLE('',(#487));
#477=FILL_AREA_STYLE('',(#488));
#478=FILL_AREA_STYLE('',(#489));
#479=FILL_AREA_STYLE('',(#490));
#480=FILL_AREA_STYLE('',(#491));
#481=FILL_AREA_STYLE_COLOUR('',#492);
#482=FILL_AREA_STYLE_COLOUR('',#493);
#483=FILL_AREA_STYLE_COLOUR('',#494);
#484=FILL_AREA_STYLE_COLOUR('',#495);
#485=FILL_AREA_STYLE_COLOUR('',#496);
#486=FILL_AREA_STYLE_COLOUR('',#497);
#487=FILL_AREA_STYLE_COLOUR('',#498);
#488=FILL_AREA_STYLE_COLOUR('',#499);
#489=FILL_AREA_STYLE_COLOUR('',#500);
#490=FILL_AREA_STYLE_COLOUR('',#501);
#491=FILL_AREA_STYLE_COLOUR('',#502);
#492=COLOUR_RGB('',0.498039215803146,0.498039215803146,0.498039215803146);
#493=COLOUR_RGB('',0.800000011920929,0.800000011920929,0.800000011920929);
#494=COLOUR_RGB('',0.498039215803146,0.498039215803146,0.498039215803146);
#495=COLOUR_RGB('',0.498039215803146,0.498039215803146,0.498039215803146);
#496=COLOUR_RGB('',0.498039215803146,0.498039215803146,0.498039215803146);
#497=COLOUR_RGB('',0.498039215803146,0.498039215803146,0.498039215803146);
#498=COLOUR_RGB('',0.800000011920929,0.800000011920929,0.800000011920929);
#499=COLOUR_RGB('',0.800000011920929,0.800000011920929,0.800000011920929);
#500=COLOUR_RGB('',0.498039215803146,0.498039215803146,0.498039215803146);
#501=COLOUR_RGB('',0.800000011920929,0.800000011920929,0.800000011920929);
#502=COLOUR_RGB('',0.800000011920929,0.800000011920929,0.800000011920929);
#503=AXIS2_PLACEMENT_3D('PCS',#504,#505,#506);
#504=CARTESIAN_POINT('',(0.0,0.0,0.0));
#505=DIRECTION('',(0.0,0.0,1.0));
#506=DIRECTION('',(1.0,0.0,0.0));
#507=AXIS2_PLACEMENT_3D('CIP',#508,#509,#510);
#508=CARTESIAN_POINT('',(0.0,0.0,-100.0));
#509=DIRECTION('',(0.0,0.0,1.0));
#510=DIRECTION('',(1.0,0.0,0.0));
#511=AXIS2_PLACEMENT_3D('CRP',#512,#513,#514);
#512=CARTESIAN_POINT('',(-5.0,0.0,-100.0));
#513=DIRECTION('',(0.0,0.0,1.0));
#514=DIRECTION('',(1.0,0.0,0.0));
#515=AXIS2_PLACEMENT_3D('MCS',#516,#517,#518);
#516=CARTESIAN_POINT('',(0.0,0.0,-85.0));
#517=DIRECTION('',(0.0,0.0,1.0));
#518=DIRECTION('',(1.0,0.0,0.0));
#519=CONSTRUCTIVE_GEOMETRY_REPRESENTATION_RELATIONSHIP('coordinate systems',$,#52,#520);
#520=CONSTRUCTIVE_GEOMETRY_REPRESENTATION('coordinate systems',(#503,#507,#511,#515),#6);
ENDSEC;
END-ISO-10303-21;
