  0
SECTION
  2
HEADER
  9
$ACADVER
  1
AC1015
  9
$ACADMAINTVER
 70
     6
  9
$DWGCODEPAGE
  3
ANSI_1252
  9
$INSBASE
 10
0.0
 20
0.0
 30
0.0
  9
$EXTMIN
 10
0.0
 20
0.0
 30
0.0
  9
$EXTMAX
 10
25.0
 20
35.0
 30
0.0
  9
$LIMMIN
 10
0.0
 20
0.0
  9
$LIMMAX
 10
420.0
 20
297.0
  9
$ORTHOMODE
 70
     0
  9
$REGENMODE
 70
     1
  9
$FILLMODE
 70
     1
  9
$QTEXTMODE
 70
     0
  9
$MIRRTEXT
 70
     1
  9
$LTSCALE
 40
5.7
  9
$ATTMODE
 70
     1
  9
$TEXTSIZE
 40
2.5
  9
$TRACEWID
 40
1.0
  9
$TEXTSTYLE
  7
Standard
  9
$CLAYER
  8
0
  9
$CELTYPE
  6
ByLayer
  9
$CECOLOR
 62
   256
  9
$CELTSCALE
 40
1.0
  9
$DISPSILH
 70
     0
  9
$DIMSCALE
 40
1.0
  9
$DIMASZ
 40
2.5
  9
$DIMEXO
 40
0.625
  9
$DIMDLI
 40
3.75
  9
$DIMRND
 40
0.0
  9
$DIMDLE
 40
0.0
  9
$DIMEXE
 40
1.25
  9
$DIMTP
 40
0.0
  9
$DIMTM
 40
0.0
  9
$DIMTXT
 40
2.5
  9
$DIMCEN
 40
2.5
  9
$DIMTSZ
 40
0.0
  9
$DIMTOL
 70
     0
  9
$DIMLIM
 70
     0
  9
$DIMTIH
 70
     0
  9
$DIMTOH
 70
     0
  9
$DIMSE1
 70
     0
  9
$DIMSE2
 70
     0
  9
$DIMTAD
 70
     1
  9
$DIMZIN
 70
     8
  9
$DIMBLK
  1

  9
$DIMASO
 70
     1
  9
$DIMSHO
 70
     1
  9
$DIMPOST
  1

  9
$DIMAPOST
  1

  9
$DIMALT
 70
     0
  9
$DIMALTD
 70
     3
  9
$DIMALTF
 40
0.03937007874016
  9
$DIMLFAC
 40
1.0
  9
$DIMTOFL
 70
     1
  9
$DIMTVP
 40
0.0
  9
$DIMTIX
 70
     0
  9
$DIMSOXD
 70
     0
  9
$DIMSAH
 70
     0
  9
$DIMBLK1
  1

  9
$DIMBLK2
  1

  9
$DIMSTYLE
  2
ISO-25
  9
$DIMCLRD
 70
     0
  9
$DIMCLRE
 70
     0
  9
$DIMCLRT
 70
     0
  9
$DIMTFAC
 40
1.0
  9
$DIMGAP
 40
0.625
  9
$DIMJUST
 70
     0
  9
$DIMSD1
 70
     0
  9
$DIMSD2
 70
     0
  9
$DIMTOLJ
 70
     0
  9
$DIMTZIN
 70
     8
  9
$DIMALTZ
 70
     0
  9
$DIMALTTZ
 70
     0
  9
$DIMUPT
 70
     0
  9
$DIMDEC
 70
     2
  9
$DIMTDEC
 70
     2
  9
$DIMALTU
 70
     2
  9
$DIMALTTD
 70
     3
  9
$DIMTXSTY
  7
Standard
  9
$DIMAUNIT
 70
     0
  9
$DIMADEC
 70
     0
  9
$DIMALTRND
 40
0.0
  9
$DIMAZIN
 70
     0
  9
$DIMDSEP
 70
    44
  9
$DIMATFIT
 70
     3
  9
$DIMFRAC
 70
     0
  9
$DIMLDRBLK
  1

  9
$DIMLUNIT
 70
     2
  9
$DIMLWD
 70
    -2
  9
$DIMLWE
 70
    -2
  9
$DIMTMOVE
 70
     0
  9
$LUNITS
 70
     2
  9
$LUPREC
 70
     4
  9
$SKETCHINC
 40
1.0
  9
$FILLETRAD
 40
10.0
  9
$AUNITS
 70
     0
  9
$AUPREC
 70
     0
  9
$MENU
  1
.
  9
$ELEVATION
 40
0.0
  9
$PELEVATION
 40
0.0
  9
$THICKNESS
 40
0.0
  9
$LIMCHECK
 70
     0
  9
$CHAMFERA
 40
10.0
  9
$CHAMFERB
 40
10.0
  9
$CHAMFERC
 40
20.0
  9
$CHAMFERD
 40
0.0
  9
$SKPOLY
 70
     0
  9
$TDCREATE
 40
2458899.458333333
  9
$TDUCREATE
 40
2458899.416666667
  9
$TDUPDATE
 40
2458899.461805556
  9
$TDUUPDATE
 40
2458899.420138889
  9
$TDINDWG
 40
0.0000000116
  9
$TDUSRTIMER
 40
0.0000000116
  9
$USRTIMER
 70
     1
  9
$ANGBASE
 50
0.0
  9
$ANGDIR
 70
     0
  9
$PDMODE
 70
     0
  9
$PDSIZE
 40
0.0
  9
$PLINEWID
 40
0.0
  9
$SPLFRAME
 70
     0
  9
$SPLINETYPE
 70
     6
  9
$SPLINESEGS
 70
     8
  9
$HANDSEED
  5
C99
  9
$SURFTAB1
 70
     6
  9
$SURFTAB2
 70
     6
  9
$SURFTYPE
 70
     6
  9
$SURFU
 70
     6
  9
$SURFV
 70
     6
  9
$UCSBASE
  2

  9
$UCSNAME
  2

  9
$UCSORG
 10
0.0
 20
0.0
 30
0.0
  9
$UCSXDIR
 10
1.0
 20
0.0
 30
0.0
  9
$UCSYDIR
 10
0.0
 20
1.0
 30
0.0
  9
$UCSORTHOREF
  2

  9
$UCSORTHOVIEW
 70
     0
  9
$UCSORGTOP
 10
0.0
 20
0.0
 30
0.0
  9
$UCSORGBOTTOM
 10
0.0
 20
0.0
 30
0.0
  9
$UCSORGLEFT
 10
0.0
 20
0.0
 30
0.0
  9
$UCSORGRIGHT
 10
0.0
 20
0.0
 30
0.0
  9
$UCSORGFRONT
 10
0.0
 20
0.0
 30
0.0
  9
$UCSORGBACK
 10
0.0
 20
0.0
 30
0.0
  9
$PUCSBASE
  2

  9
$PUCSNAME
  2

  9
$PUCSORG
 10
0.0
 20
0.0
 30
0.0
  9
$PUCSXDIR
 10
1.0
 20
0.0
 30
0.0
  9
$PUCSYDIR
 10
0.0
 20
1.0
 30
0.0
  9
$PUCSORTHOREF
  2

  9
$PUCSORTHOVIEW
 70
     0
  9
$PUCSORGTOP
 10
0.0
 20
0.0
 30
0.0
  9
$PUCSORGBOTTOM
 10
0.0
 20
0.0
 30
0.0
  9
$PUCSORGLEFT
 10
0.0
 20
0.0
 30
0.0
  9
$PUCSORGRIGHT
 10
0.0
 20
0.0
 30
0.0
  9
$PUCSORGFRONT
 10
0.0
 20
0.0
 30
0.0
  9
$PUCSORGBACK
 10
0.0
 20
0.0
 30
0.0
  9
$USERI1
 70
     0
  9
$USERI2
 70
     0
  9
$USERI3
 70
     0
  9
$USERI4
 70
     0
  9
$USERI5
 70
     0
  9
$USERR1
 40
0.0
  9
$USERR2
 40
0.0
  9
$USERR3
 40
0.0
  9
$USERR4
 40
0.0
  9
$USERR5
 40
0.0
  9
$WORLDVIEW
 70
     1
  9
$SHADEDGE
 70
     3
  9
$SHADEDIF
 70
    70
  9
$TILEMODE
 70
     1
  9
$MAXACTVP
 70
    64
  9
$PINSBASE
 10
0.0
 20
0.0
 30
0.0
  9
$PLIMCHECK
 70
     0
  9
$PEXTMIN
 10
1.000000000000000E+20
 20
1.000000000000000E+20
 30
1.000000000000000E+20
  9
$PEXTMAX
 10
-1.000000000000000E+20
 20
-1.000000000000000E+20
 30
-1.000000000000000E+20
  9
$PLIMMIN
 10
0.0
 20
0.0
  9
$PLIMMAX
 10
420.0
 20
297.0
  9
$UNITMODE
 70
     0
  9
$VISRETAIN
 70
     1
  9
$PLINEGEN
 70
     0
  9
$PSLTSCALE
 70
     1
  9
$TREEDEPTH
 70
  3020
  9
$CMLSTYLE
  2
Standard
  9
$CMLJUST
 70
     0
  9
$CMLSCALE
 40
20.0
  9
$PROXYGRAPHICS
 70
     1
  9
$MEASUREMENT
 70
     1
  9
$CELWEIGHT
370
    -1
  9
$ENDCAPS
280
     0
  9
$JOINSTYLE
280
     0
  9
$LWDISPLAY
290
     0
  9
$INSUNITS
 70
     4
  9
$HYPERLINKBASE
  1

  9
$STYLESHEET
  1

  9
$XEDIT
290
     1
  9
$CEPSNTYPE
380
     0
  9
$PSTYLEMODE
290
     1
  9
$FINGERPRINTGUID
  2
{505219AE-B471-4D11-9061-3C59A855728C}
  9
$VERSIONGUID
  2
{FAEB1C32-E019-11D5-929B-00C0DF256EC4}
  9
$EXTNAMES
290
     1
  9
$PSVPSCALE
 40
0.0
  9
$OLESTARTUP
290
     0
  0
ENDSEC
  0
SECTION
  2
CLASSES
  0
CLASS
  1
ACDBDICTIONARYWDFLT
  2
AcDbDictionaryWithDefault
  3
ObjectDBX Classes
 90
        0
280
     0
281
     0
  0
CLASS
  1
VISUALSTYLE
  2
AcDbVisualStyle
  3
ObjectDBX Classes
 90
     4095
280
     0
281
     0
  0
CLASS
  1
MATERIAL
  2
AcDbMaterial
  3
ObjectDBX Classes
 90
     1153
280
     0
281
     0
  0
CLASS
  1
SCALE
  2
AcDbScale
  3
ObjectDBX Classes
 90
     1153
280
     0
281
     0
  0
CLASS
  1
DICTIONARYVAR
  2
AcDbDictionaryVar
  3
ObjectDBX Classes
 90
        0
280
     0
281
     0
  0
CLASS
  1
ACDBPLACEHOLDER
  2
AcDbPlaceHolder
  3
ObjectDBX Classes
 90
        0
280
     0
281
     0
  0
CLASS
  1
LAYOUT
  2
AcDbLayout
  3
ObjectDBX Classes
 90
        0
280
     0
281
     0
  0
ENDSEC
  0
SECTION
  2
TABLES
  0
TABLE
  2
VPORT
  5
8
330
0
100
AcDbSymbolTable
 70
     1
  0
VPORT
  5
29
330
8
100
AcDbSymbolTableRecord
100
AcDbViewportTableRecord
  2
*Active
 70
     0
 10
0.0
 20
0.0
 11
1.0
 21
1.0
 12
11.26
 22
4.5
 13
0.0
 23
0.0
 14
10.0
 24
10.0
 15
10.0
 25
10.0
 16
0.0
 26
0.0
 36
1.0
 17
0.0
 27
0.0
 37
0.0
 40
9.0
 41
2.503333333333333
 42
50.0
 43
0.0
 44
0.0
 50
0.0
 51
0.0
 71
     0
 72
   100
 73
     1
 74
     3
 75
     0
 76
     0
 77
     0
 78
     0
281
     0
 65
     1
110
0.0
120
0.0
130
0.0
111
1.0
121
0.0
131
0.0
112
0.0
122
1.0
132
0.0
 79
     0
146
0.0
  0
ENDTAB
  0
TABLE
  2
LTYPE
  5
5
330
0
100
AcDbSymbolTable
 70
    10
  0
LTYPE
  5
14
330
5
100
AcDbSymbolTableRecord
100
AcDbLinetypeTableRecord
  2
ByBlock
 70
     0
  3

 72
    65
 73
     0
 40
0.0
  0
LTYPE
  5
15
330
5
100
AcDbSymbolTableRecord
100
AcDbLinetypeTableRecord
  2
ByLayer
 70
     0
  3

 72
    65
 73
     0
 40
0.0
  0
LTYPE
  5
16
330
5
100
AcDbSymbolTableRecord
100
AcDbLinetypeTableRecord
  2
Continuous
 70
     0
  3
Solid line
 72
    65
 73
     0
 40
0.0
  0
LTYPE
  5
45
330
5
100
AcDbSymbolTableRecord
100
AcDbLinetypeTableRecord
  2
phl_thick
 70
     0
  3
THICK
 72
    65
 73
     0
 40
0.0
  0
LTYPE
  5
3B5
330
5
100
AcDbSymbolTableRecord
100
AcDbLinetypeTableRecord
  2
CUT
 70
     0
  3
THICK
 72
    65
 73
     0
 40
0.0
  0
LTYPE
  5
3BD
330
5
100
AcDbSymbolTableRecord
100
AcDbLinetypeTableRecord
  2
NOCUT
 70
     0
  3
THICK
 72
    65
 73
     0
 40
0.0
  0
LTYPE
  5
3C7
330
5
100
AcDbSymbolTableRecord
100
AcDbLinetypeTableRecord
  2
SK1
 70
     0
  3
THICK
 72
    65
 73
     0
 40
0.0
  0
LTYPE
  5
3CF
330
5
100
AcDbSymbolTableRecord
100
AcDbLinetypeTableRecord
  2
ls_SK2
 70
     0
  3
THIN
 72
    65
 73
     0
 40
0.0
  0
LTYPE
  5
47B
330
5
100
AcDbSymbolTableRecord
100
AcDbLinetypeTableRecord
  2
ls_2
 70
     0
  3
THIN
 72
    65
 73
     0
 40
0.0
  0
LTYPE
  5
62E
330
5
100
AcDbSymbolTableRecord
100
AcDbLinetypeTableRecord
  2
ls_SK1
 70
     0
  3
THICK
 72
    65
 73
     0
 40
0.0
  0
LTYPE
  5
668
330
5
100
AcDbSymbolTableRecord
100
AcDbLinetypeTableRecord
  2
LONGDASH_DASH
 70
     0
  3
THIN_DASHDOT
 72
    65
 73
     4
 40
0.85
 49
0.4
 74
     0
 49
-0.2
 74
     0
 49
0.05
 74
     0
 49
-0.2
 74
     0
  0
LTYPE
  5
66D
330
5
100
AcDbSymbolTableRecord
100
AcDbLinetypeTableRecord
  2
INFTOTAL
 70
     0
  3
THIN
 72
    65
 73
     0
 40
0.0
  0
ENDTAB
  0
TABLE
  2
LAYER
  5
2
330
0
100
AcDbSymbolTable
 70
    10
  0
LAYER
  5
10
330
2
100
AcDbSymbolTableRecord
100
AcDbLayerTableRecord
  2
0
 70
     0
 62
     7
  6
Continuous
370
    -3
390
F
  0
LAYER
  5
44
330
2
100
AcDbSymbolTableRecord
100
AcDbLayerTableRecord
  2
1
 70
     0
 62
4
  6
CONTINUOUS
370
50
370
    -3
390
F
  0
LAYER
  5
3B4
330
2
100
AcDbSymbolTableRecord
100
AcDbLayerTableRecord
  2
CUT
 70
     0
 62
1
  6
CONTINUOUS
370
25
370
    -3
390
F
  0
LAYER
  5
3BC
330
2
100
AcDbSymbolTableRecord
100
AcDbLayerTableRecord
  2
NOCUT
 70
     0
 62
7
  6
CONTINUOUS
370
25
370
    -3
390
F
  0
LAYER
  5
3C6
330
2
100
AcDbSymbolTableRecord
100
AcDbLayerTableRecord
  2
SK1
 70
     0
 62
4
  6
CONTINUOUS
370
50
370
    -3
390
F
  0
LAYER
  5
3CE
330
2
100
AcDbSymbolTableRecord
100
AcDbLayerTableRecord
  2
SK2
 70
     0
 62
7
  6
CONTINUOUS
370
25
370
    -3
390
F
  0
LAYER
  5
47A
330
2
100
AcDbSymbolTableRecord
100
AcDbLayerTableRecord
  2
2
 70
     0
 62
7
  6
CONTINUOUS
370
25
370
    -3
390
F
  0
LAYER
  5
667
330
2
100
AcDbSymbolTableRecord
100
AcDbLayerTableRecord
  2
4
 70
     0
 62
2
  6
LONGDASH_DASH
370
25
370
    -3
390
F
  0
LAYER
  5
66A
330
2
100
AcDbSymbolTableRecord
100
AcDbLayerTableRecord
  2
SK4
 70
     0
 62
2
  6
LONGDASH_DASH
370
25
370
    -3
390
F
  0
LAYER
  5
66C
330
2
100
AcDbSymbolTableRecord
100
AcDbLayerTableRecord
  2
INFTOTAL
 70
     0
 62
9
  6
CONTINUOUS
370
18
370
    -3
390
F
  0
ENDTAB
  0
TABLE
  2
STYLE
  5
3
330
0
100
AcDbSymbolTable
 70
     1
  0
STYLE
  5
11
330
3
100
AcDbSymbolTableRecord
100
AcDbTextStyleTableRecord
  2
Standard
 70
     0
 40
0.0
 41
1.0
 50
0.0
 71
     0
 42
2.5
  3
Monospac821 BT
  4

  0
ENDTAB
  0
TABLE
  2
VIEW
  5
6
330
0
100
AcDbSymbolTable
 70
     0
  0
ENDTAB
  0
TABLE
  2
UCS
  5
7
330
0
100
AcDbSymbolTable
 70
     0
  0
ENDTAB
  0
TABLE
  2
APPID
  5
9
330
0
100
AcDbSymbolTable
 70
     2
  0
APPID
  5
12
330
9
100
AcDbSymbolTableRecord
100
AcDbRegAppTableRecord
  2
ACAD
 70
     0
  0
APPID
  5
3F
330
9
100
AcDbSymbolTableRecord
100
AcDbRegAppTableRecord
  2
ccLab
 70
     0
  0
ENDTAB
  0
TABLE
  2
DIMSTYLE
  5
A
330
0
100
AcDbSymbolTable
 70
     1
100
AcDbDimStyleTable
  0
DIMSTYLE
105
27
330
A
100
AcDbSymbolTableRecord
100
AcDbDimStyleTableRecord
  2
ISO-25
 70
     0
 41
2.5
 42
0.625
 43
3.75
 44
1.25
 73
     0
 74
     0
 77
     1
 78
     8
140
2.5
141
2.5
143
0.03937007874016
147
0.625
171
     3
172
     1
271
     2
272
     2
274
     3
278
    44
283
     0
284
     8
340
11
  0
ENDTAB
  0
TABLE
  2
BLOCK_RECORD
  5
1
330
0
100
AcDbSymbolTable
 70
     2
  0
BLOCK_RECORD
  5
1F
330
1
100
AcDbSymbolTableRecord
100
AcDbBlockTableRecord
  2
*Model_Space
340
22
  0
BLOCK_RECORD
  5
1B
330
1
100
AcDbSymbolTableRecord
100
AcDbBlockTableRecord
  2
*Paper_Space
340
1E
  0
BLOCK_RECORD
  5
23
330
1
100
AcDbSymbolTableRecord
100
AcDbBlockTableRecord
  2
*Paper_Space0
340
26
  0
ENDTAB
  0
ENDSEC
  0
SECTION
  2
BLOCKS
  0
BLOCK
  5
20
330
1F
100
AcDbEntity
  8
0
100
AcDbBlockBegin
  2
*Model_Space
 70
     0
 10
0.0
 20
0.0
 30
0.0
  3
*Model_Space
  1

  0
ENDBLK
  5
21
330
1F
100
AcDbEntity
  8
0
100
AcDbBlockEnd
  0
BLOCK
  5
1C
330
1B
100
AcDbEntity
 67
     1
  8
0
100
AcDbBlockBegin
  2
*Paper_Space
 70
     0
 10
0.0
 20
0.0
 30
0.0
  3
*Paper_Space
  1

  0
ENDBLK
  5
1D
330
1B
100
AcDbEntity
 67
     1
  8
0
100
AcDbBlockEnd
  0
BLOCK
  5
24
330
23
100
AcDbEntity
  8
0
100
AcDbBlockBegin
  2
*Paper_Space0
 70
     0
 10
0.0
 20
0.0
 30
0.0
  3
*Paper_Space0
  1

  0
ENDBLK
  5
25
330
23
100
AcDbEntity
  8
0
100
AcDbBlockEnd
  0
ENDSEC
  0
SECTION
  2
ENTITIES
  0
LINE
  5
671
330
1F
100
AcDbEntity
  8
1
  6
CONTINUOUS
370
50
 62
4
100
AcDbLine
 10
6.959633999999999
 20
-0.031639
 30
0.0
 11
6.959623
 21
-0.02981
 31
0.0
  0
LINE
  5
672
330
1F
100
AcDbEntity
  8
1
  6
CONTINUOUS
370
50
 62
4
100
AcDbLine
 10
6.958791
 20
-0.06305
 30
0.0
 11
6.958759
 21
-0.058412
 31
0.0
  0
LINE
  5
673
330
1F
100
AcDbEntity
  8
1
  6
CONTINUOUS
370
50
 62
4
100
AcDbLine
 10
6.805579
 20
0.025511
 30
0.0
 11
6.805561
 21
0.028012
 31
0.0
  0
LINE
  5
674
330
1F
100
AcDbEntity
  8
1
  6
CONTINUOUS
370
50
 62
4
100
AcDbLine
 10
6.805578
 20
0.025704
 30
0.0
 11
6.805562
 21
0.02788
 31
0.0
  0
LINE
  5
675
330
1F
100
AcDbEntity
  8
1
  6
CONTINUOUS
370
50
 62
4
100
AcDbLine
 10
6.926352
 20
0.085568
 30
0.0
 11
6.92634
 21
0.087134
 31
0.0
  0
LINE
  5
676
330
1F
100
AcDbEntity
  8
1
  6
CONTINUOUS
370
50
 62
4
100
AcDbLine
 10
6.976999999999999
 20
0.09999
 30
0.0
 11
6.976966999999999
 21
0.101795
 31
0.0
  0
LINE
  5
677
330
1F
100
AcDbEntity
  8
1
  6
CONTINUOUS
370
50
 62
4
100
AcDbLine
 10
6.805562
 20
0.02788
 30
0.0
 11
6.80552
 21
0.030085
 31
0.0
  0
LINE
  5
678
330
1F
100
AcDbEntity
  8
1
  6
CONTINUOUS
370
50
 62
4
100
AcDbLine
 10
6.805561
 20
0.028012
 30
0.0
 11
6.80551
 21
0.030549
 31
0.0
  0
LINE
  5
679
330
1F
100
AcDbEntity
  8
1
  6
CONTINUOUS
370
50
 62
4
100
AcDbLine
 10
6.958886
 20
-0.067683
 30
0.0
 11
6.958791
 21
-0.06305
 31
0.0
  0
LINE
  5
67A
330
1F
100
AcDbEntity
  8
1
  6
CONTINUOUS
370
50
 62
4
100
AcDbLine
 10
6.959623
 20
-0.02981
 30
0.0
 11
6.959585
 21
-0.027984
 31
0.0
  0
LINE
  5
67B
330
1F
100
AcDbEntity
  8
1
  6
CONTINUOUS
370
50
 62
4
100
AcDbLine
 10
6.80552
 20
0.030085
 30
0.0
 11
6.805454
 21
0.032314
 31
0.0
  0
LINE
  5
67C
330
1F
100
AcDbEntity
  8
1
  6
CONTINUOUS
370
50
 62
4
100
AcDbLine
 10
6.926358
 20
0.010428
 30
0.0
 11
6.926299999999999
 21
0.012277
 31
0.0
  0
LINE
  5
67D
330
1F
100
AcDbEntity
  8
1
  6
CONTINUOUS
370
50
 62
4
100
AcDbLine
 10
6.80551
 20
0.030549
 30
0.0
 11
6.805426
 21
0.033113
 31
0.0
  0
LINE
  5
67E
330
1F
100
AcDbEntity
  8
1
  6
CONTINUOUS
370
50
 62
4
100
AcDbLine
 10
6.959585
 20
-0.027984
 30
0.0
 11
6.959523
 21
-0.026165
 31
0.0
  0
LINE
  5
67F
330
1F
100
AcDbEntity
  8
1
  6
CONTINUOUS
370
50
 62
4
100
AcDbLine
 10
6.959044
 20
-0.072306
 30
0.0
 11
6.958886
 21
-0.067683
 31
0.0
  0
LINE
  5
680
330
1F
100
AcDbEntity
  8
1
  6
CONTINUOUS
370
50
 62
4
100
AcDbLine
 10
6.805454
 20
0.032314
 30
0.0
 11
6.805365
 21
0.034562
 31
0.0
  0
LINE
  5
681
330
1F
100
AcDbEntity
  8
1
  6
CONTINUOUS
370
50
 62
4
100
AcDbLine
 10
6.805426
 20
0.033113
 30
0.0
 11
6.805312
 21
0.035697
 31
0.0
  0
LINE
  5
682
330
1F
100
AcDbEntity
  8
1
  6
CONTINUOUS
370
50
 62
4
100
AcDbLine
 10
6.959523
 20
-0.026165
 30
0.0
 11
6.959435
 21
-0.024353
 31
0.0
  0
LINE
  5
683
330
1F
100
AcDbEntity
  8
1
  6
CONTINUOUS
370
50
 62
4
100
AcDbLine
 10
6.959268
 20
-0.076914
 30
0.0
 11
6.959044
 21
-0.072306
 31
0.0
  0
LINE
  5
684
330
1F
100
AcDbEntity
  8
1
  6
CONTINUOUS
370
50
 62
4
100
AcDbLine
 10
6.805365
 20
0.034562
 30
0.0
 11
6.805251999999999
 21
0.036824
 31
0.0
  0
LINE
  5
685
330
1F
100
AcDbEntity
  8
1
  6
CONTINUOUS
370
50
 62
4
100
AcDbLine
 10
6.976999999999999
 20
0.001431
 30
0.0
 11
6.976966999999999
 21
0.002052
 31
0.0
  0
LINE
  5
686
330
1F
100
AcDbEntity
  8
1
  6
CONTINUOUS
370
50
 62
4
100
AcDbLine
 10
6.805312
 20
0.035697
 30
0.0
 11
6.805168999999999
 21
0.038294
 31
0.0
  0
LINE
  5
687
330
1F
100
AcDbEntity
  8
1
  6
CONTINUOUS
370
50
 62
4
100
AcDbLine
 10
6.976966999999999
 20
0.101795
 30
0.0
 11
6.976865999999999
 21
0.103619
 31
0.0
  0
LINE
  5
688
330
1F
100
AcDbEntity
  8
1
  6
CONTINUOUS
370
50
 62
4
100
AcDbLine
 10
6.704876
 20
0.057587
 30
0.0
 11
6.704758
 21
0.059633
 31
0.0
  0
LINE
  5
689
330
1F
100
AcDbEntity
  8
1
  6
CONTINUOUS
370
50
 62
4
100
AcDbLine
 10
6.805251999999999
 20
0.036824
 30
0.0
 11
6.805117999999999
 21
0.039096
 31
0.0
  0
LINE
  5
68A
330
1F
100
AcDbEntity
  8
1
  6
CONTINUOUS
370
50
 62
4
100
AcDbLine
 10
6.959435
 20
-0.024353
 30
0.0
 11
6.959324
 21
-0.022553
 31
0.0
  0
LINE
  5
68B
330
1F
100
AcDbEntity
  8
1
  6
CONTINUOUS
370
50
 62
4
100
AcDbLine
 10
6.959555
 20
-0.081487
 30
0.0
 11
6.959268
 21
-0.076914
 31
0.0
  0
LINE
  5
68C
330
1F
100
AcDbEntity
  8
1
  6
CONTINUOUS
370
50
 62
4
100
AcDbLine
 10
6.805168999999999
 20
0.038294
 30
0.0
 11
6.804999
 21
0.040896
 31
0.0
  0
LINE
  5
68D
330
1F
100
AcDbEntity
  8
1
  6
CONTINUOUS
370
50
 62
4
100
AcDbLine
 10
6.92634
 20
0.087134
 30
0.0
 11
6.926228999999999
 21
0.088793
 31
0.0
  0
LINE
  5
68E
330
1F
100
AcDbEntity
  8
1
  6
CONTINUOUS
370
50
 62
4
100
AcDbLine
 10
6.805117999999999
 20
0.039096
 30
0.0
 11
6.804964
 21
0.041369
 31
0.0
  0
LINE
  5
68F
330
1F
100
AcDbEntity
  8
1
  6
CONTINUOUS
370
50
 62
4
100
AcDbLine
 10
6.804999
 20
0.040896
 30
0.0
 11
6.804803
 21
0.043493
 31
0.0
  0
LINE
  5
690
330
1F
100
AcDbEntity
  8
1
  6
CONTINUOUS
370
50
 62
4
100
AcDbLine
 10
6.804964
 20
0.041369
 30
0.0
 11
6.804791
 21
0.043629
 31
0.0
  0
LINE
  5
691
330
1F
100
AcDbEntity
  8
1
  6
CONTINUOUS
370
50
 62
4
100
AcDbLine
 10
6.959905
 20
-0.086
 30
0.0
 11
6.959555
 21
-0.081487
 31
0.0
  0
LINE
  5
692
330
1F
100
AcDbEntity
  8
1
  6
CONTINUOUS
370
50
 62
4
100
AcDbLine
 10
6.926299999999999
 20
0.012277
 30
0.0
 11
6.926153999999999
 21
0.014056
 31
0.0
  0
LINE
  5
693
330
1F
100
AcDbEntity
  8
1
  6
CONTINUOUS
370
50
 62
4
100
AcDbLine
 10
6.804803
 20
0.043493
 30
0.0
 11
6.804584999999999
 21
0.046068
 31
0.0
  0
LINE
  5
694
330
1F
100
AcDbEntity
  8
1
  6
CONTINUOUS
370
50
 62
4
100
AcDbLine
 10
6.804791
 20
0.043629
 30
0.0
 11
6.804601
 21
0.045872
 31
0.0
  0
LINE
  5
695
330
1F
100
AcDbEntity
  8
1
  6
CONTINUOUS
370
50
 62
4
100
AcDbLine
 10
6.804601
 20
0.045872
 30
0.0
 11
6.804397
 21
0.048093
 31
0.0
  0
LINE
  5
696
330
1F
100
AcDbEntity
  8
1
  6
CONTINUOUS
370
50
 62
4
100
AcDbLine
 10
6.960315
 20
-0.090449
 30
0.0
 11
6.959905
 21
-0.086
 31
0.0
  0
LINE
  5
697
330
1F
100
AcDbEntity
  8
1
  6
CONTINUOUS
370
50
 62
4
100
AcDbLine
 10
6.976865999999999
 20
0.103619
 30
0.0
 11
6.976696
 21
0.105457
 31
0.0
  0
LINE
  5
698
330
1F
100
AcDbEntity
  8
1
  6
CONTINUOUS
370
50
 62
4
100
AcDbLine
 10
6.804584999999999
 20
0.046068
 30
0.0
 11
6.804348
 21
0.048612
 31
0.0
  0
LINE
  5
699
330
1F
100
AcDbEntity
  8
1
  6
CONTINUOUS
370
50
 62
4
100
AcDbLine
 10
6.804397
 20
0.048093
 30
0.0
 11
6.804177999999999
 21
0.050288
 31
0.0
  0
LINE
  5
69A
330
1F
100
AcDbEntity
  8
1
  6
CONTINUOUS
370
50
 62
4
100
AcDbLine
 10
6.804348
 20
0.048612
 30
0.0
 11
6.804093
 21
0.051118
 31
0.0
  0
LINE
  5
69B
330
1F
100
AcDbEntity
  8
1
  6
CONTINUOUS
370
50
 62
4
100
AcDbLine
 10
6.804177999999999
 20
0.050288
 30
0.0
 11
6.803946
 21
0.052453
 31
0.0
  0
LINE
  5
69C
330
1F
100
AcDbEntity
  8
1
  6
CONTINUOUS
370
50
 62
4
100
AcDbLine
 10
6.960786
 20
-0.09483
 30
0.0
 11
6.960315
 21
-0.090449
 31
0.0
  0
LINE
  5
69D
330
1F
100
AcDbEntity
  8
1
  6
CONTINUOUS
370
50
 62
4
100
AcDbLine
 10
6.804093
 20
0.051118
 30
0.0
 11
6.803821999999999
 21
0.053582
 31
0.0
  0
LINE
  5
69E
330
1F
100
AcDbEntity
  8
1
  6
CONTINUOUS
370
50
 62
4
100
AcDbLine
 10
6.803946
 20
0.052453
 30
0.0
 11
6.803704
 21
0.054584
 31
0.0
  0
LINE
  5
69F
330
1F
100
AcDbEntity
  8
1
  6
CONTINUOUS
370
50
 62
4
100
AcDbLine
 10
6.926228999999999
 20
0.088793
 30
0.0
 11
6.926025
 21
0.090534
 31
0.0
  0
LINE
  5
6A0
330
1F
100
AcDbEntity
  8
1
  6
CONTINUOUS
370
50
 62
4
100
AcDbLine
 10
6.803821999999999
 20
0.053582
 30
0.0
 11
6.803537
 21
0.055997
 31
0.0
  0
LINE
  5
6A1
330
1F
100
AcDbEntity
  8
1
  6
CONTINUOUS
370
50
 62
4
100
AcDbLine
 10
6.803704
 20
0.054584
 30
0.0
 11
6.803452
 21
0.056675
 31
0.0
  0
LINE
  5
6A2
330
1F
100
AcDbEntity
  8
1
  6
CONTINUOUS
370
50
 62
4
100
AcDbLine
 10
6.961316999999999
 20
-0.099138
 30
0.0
 11
6.960786
 21
-0.09483
 31
0.0
  0
LINE
  5
6A3
330
1F
100
AcDbEntity
  8
1
  6
CONTINUOUS
370
50
 62
4
100
AcDbLine
 10
6.803537
 20
0.055997
 30
0.0
 11
6.803241
 21
0.058357
 31
0.0
  0
LINE
  5
6A4
330
1F
100
AcDbEntity
  8
1
  6
CONTINUOUS
370
50
 62
4
100
AcDbLine
 10
6.803452
 20
0.056675
 30
0.0
 11
6.803191
 21
0.05872
 31
0.0
  0
LINE
  5
6A5
330
1F
100
AcDbEntity
  8
1
  6
CONTINUOUS
370
50
 62
4
100
AcDbLine
 10
6.976696
 20
0.105457
 30
0.0
 11
6.976456
 21
0.107297
 31
0.0
  0
LINE
  5
6A6
330
1F
100
AcDbEntity
  8
1
  6
CONTINUOUS
370
50
 62
4
100
AcDbLine
 10
6.803241
 20
0.058357
 30
0.0
 11
6.802935
 21
0.060654
 31
0.0
  0
LINE
  5
6A7
330
1F
100
AcDbEntity
  8
1
  6
CONTINUOUS
370
50
 62
4
100
AcDbLine
 10
6.803191
 20
0.05872
 30
0.0
 11
6.802924
 21
0.060716
 31
0.0
  0
LINE
  5
6A8
330
1F
100
AcDbEntity
  8
1
  6
CONTINUOUS
370
50
 62
4
100
AcDbLine
 10
6.926153999999999
 20
0.014056
 30
0.0
 11
6.925923
 21
0.015763
 31
0.0
  0
LINE
  5
6A9
330
1F
100
AcDbEntity
  8
1
  6
CONTINUOUS
370
50
 62
4
100
AcDbLine
 10
6.961906
 20
-0.103368
 30
0.0
 11
6.961316999999999
 21
-0.099138
 31
0.0
  0
LINE
  5
6AA
330
1F
100
AcDbEntity
  8
1
  6
CONTINUOUS
370
50
 62
4
100
AcDbLine
 10
6.802924
 20
0.060716
 30
0.0
 11
6.80265
 21
0.062659
 31
0.0
  0
LINE
  5
6AB
330
1F
100
AcDbEntity
  8
1
  6
CONTINUOUS
370
50
 62
4
100
AcDbLine
 10
6.802935
 20
0.060654
 30
0.0
 11
6.802620999999999
 21
0.06288
 31
0.0
  0
LINE
  5
6AC
330
1F
100
AcDbEntity
  8
1
  6
CONTINUOUS
370
50
 62
4
100
AcDbLine
 10
6.80265
 20
0.062659
 30
0.0
 11
6.802371
 21
0.064546
 31
0.0
  0
LINE
  5
6AD
330
1F
100
AcDbEntity
  8
1
  6
CONTINUOUS
370
50
 62
4
100
AcDbLine
 10
6.802620999999999
 20
0.06288
 30
0.0
 11
6.8023
 21
0.065031
 31
0.0
  0
LINE
  5
6AE
330
1F
100
AcDbEntity
  8
1
  6
CONTINUOUS
370
50
 62
4
100
AcDbLine
 10
6.802371
 20
0.064546
 30
0.0
 11
6.802086999999999
 21
0.066374
 31
0.0
  0
LINE
  5
6AF
330
1F
100
AcDbEntity
  8
1
  6
CONTINUOUS
370
50
 62
4
100
AcDbLine
 10
6.962553
 20
-0.107515
 30
0.0
 11
6.961906
 21
-0.103368
 31
0.0
  0
LINE
  5
6B0
330
1F
100
AcDbEntity
  8
1
  6
CONTINUOUS
370
50
 62
4
100
AcDbLine
 10
6.8023
 20
0.065031
 30
0.0
 11
6.801975
 21
0.067102
 31
0.0
  0
LINE
  5
6B1
330
1F
100
AcDbEntity
  8
1
  6
CONTINUOUS
370
50
 62
4
100
AcDbLine
 10
6.926025
 20
0.090534
 30
0.0
 11
6.925732
 21
0.09235
 31
0.0
  0
LINE
  5
6B2
330
1F
100
AcDbEntity
  8
1
  6
CONTINUOUS
370
50
 62
4
100
AcDbLine
 10
6.802086999999999
 20
0.066374
 30
0.0
 11
6.801800999999999
 21
0.068138
 31
0.0
  0
LINE
  5
6B3
330
1F
100
AcDbEntity
  8
1
  6
CONTINUOUS
370
50
 62
4
100
AcDbLine
 10
6.801975
 20
0.067102
 30
0.0
 11
6.801645
 21
0.069089
 31
0.0
  0
LINE
  5
6B4
330
1F
100
AcDbEntity
  8
1
  6
CONTINUOUS
370
50
 62
4
100
AcDbLine
 10
6.976456
 20
0.107297
 30
0.0
 11
6.976144
 21
0.109138
 31
0.0
  0
LINE
  5
6B5
330
1F
100
AcDbEntity
  8
1
  6
CONTINUOUS
370
50
 62
4
100
AcDbLine
 10
6.801800999999999
 20
0.068138
 30
0.0
 11
6.801512
 21
0.069836
 31
0.0
  0
LINE
  5
6B6
330
1F
100
AcDbEntity
  8
1
  6
CONTINUOUS
370
50
 62
4
100
AcDbLine
 10
6.705223999999999
 20
0.055553
 30
0.0
 11
6.704876
 21
0.057587
 31
0.0
  0
LINE
  5
6B7
330
1F
100
AcDbEntity
  8
1
  6
CONTINUOUS
370
50
 62
4
100
AcDbLine
 10
6.963255999999999
 20
-0.111576
 30
0.0
 11
6.962553
 21
-0.107515
 31
0.0
  0
LINE
  5
6B8
330
1F
100
AcDbEntity
  8
1
  6
CONTINUOUS
370
50
 62
4
100
AcDbLine
 10
6.801645
 20
0.069089
 30
0.0
 11
6.801311
 21
0.070987
 31
0.0
  0
LINE
  5
6B9
330
1F
100
AcDbEntity
  8
1
  6
CONTINUOUS
370
50
 62
4
100
AcDbLine
 10
6.976966999999999
 20
0.002052
 30
0.0
 11
6.976865999999999
 21
0.002619
 31
0.0
  0
LINE
  5
6BA
330
1F
100
AcDbEntity
  8
1
  6
CONTINUOUS
370
50
 62
4
100
AcDbLine
 10
6.801512
 20
0.069836
 30
0.0
 11
6.801221
 21
0.071464
 31
0.0
  0
LINE
  5
6BB
330
1F
100
AcDbEntity
  8
1
  6
CONTINUOUS
370
50
 62
4
100
AcDbLine
 10
6.801311
 20
0.070987
 30
0.0
 11
6.800975999999999
 21
0.072793
 31
0.0
  0
LINE
  5
6BC
330
1F
100
AcDbEntity
  8
1
  6
CONTINUOUS
370
50
 62
4
100
AcDbLine
 10
6.801221
 20
0.071464
 30
0.0
 11
6.800929
 21
0.073021
 31
0.0
  0
LINE
  5
6BD
330
1F
100
AcDbEntity
  8
1
  6
CONTINUOUS
370
50
 62
4
100
AcDbLine
 10
6.925923
 20
0.015763
 30
0.0
 11
6.925612
 21
0.017396
 31
0.0
  0
LINE
  5
6BE
330
1F
100
AcDbEntity
  8
1
  6
CONTINUOUS
370
50
 62
4
100
AcDbLine
 10
6.964015
 20
-0.115545
 30
0.0
 11
6.963255999999999
 21
-0.111576
 31
0.0
  0
LINE
  5
6BF
330
1F
100
AcDbEntity
  8
1
  6
CONTINUOUS
370
50
 62
4
100
AcDbLine
 10
6.800975999999999
 20
0.072793
 30
0.0
 11
6.80064
 21
0.074502
 31
0.0
  0
LINE
  5
6C0
330
1F
100
AcDbEntity
  8
1
  6
CONTINUOUS
370
50
 62
4
100
AcDbLine
 10
6.800929
 20
0.073021
 30
0.0
 11
6.800635
 21
0.074503
 31
0.0
  0
LINE
  5
6C1
330
1F
100
AcDbEntity
  8
1
  6
CONTINUOUS
370
50
 62
4
100
AcDbLine
 10
6.925732
 20
0.09235
 30
0.0
 11
6.925351999999999
 21
0.094242
 31
0.0
  0
LINE
  5
6C2
330
1F
100
AcDbEntity
  8
1
  6
CONTINUOUS
370
50
 62
4
100
AcDbLine
 10
6.800635
 20
0.074503
 30
0.0
 11
6.800116
 21
0.077062
 31
0.0
  0
LINE
  5
6C3
330
1F
100
AcDbEntity
  8
1
  6
CONTINUOUS
370
50
 62
4
100
AcDbLine
 10
6.80064
 20
0.074502
 30
0.0
 11
6.80012
 21
0.077065
 31
0.0
  0
LINE
  5
6C4
330
1F
100
AcDbEntity
  8
1
  6
CONTINUOUS
370
50
 62
4
100
AcDbLine
 10
6.7996
 20
0.079627
 30
0.0
 11
6.79908
 21
0.08219
 31
0.0
  0
LINE
  5
6C5
330
1F
100
AcDbEntity
  8
1
  6
CONTINUOUS
370
50
 62
4
100
AcDbLine
 10
6.800116
 20
0.077062
 30
0.0
 11
6.799596999999999
 21
0.07962
 31
0.0
  0
LINE
  5
6C6
330
1F
100
AcDbEntity
  8
1
  6
CONTINUOUS
370
50
 62
4
100
AcDbLine
 10
6.80012
 20
0.077065
 30
0.0
 11
6.7996
 21
0.079627
 31
0.0
  0
LINE
  5
6C7
330
1F
100
AcDbEntity
  8
1
  6
CONTINUOUS
370
50
 62
4
100
AcDbLine
 10
6.79908
 20
0.08219
 30
0.0
 11
6.79752
 21
0.089876
 31
0.0
  0
LINE
  5
6C8
330
1F
100
AcDbEntity
  8
1
  6
CONTINUOUS
370
50
 62
4
100
AcDbLine
 10
6.799596999999999
 20
0.07962
 30
0.0
 11
6.799078
 21
0.082177
 31
0.0
  0
LINE
  5
6C9
330
1F
100
AcDbEntity
  8
1
  6
CONTINUOUS
370
50
 62
4
100
AcDbLine
 10
6.798558
 20
0.084735
 30
0.0
 11
6.79752
 21
0.089849
 31
0.0
  0
LINE
  5
6CA
330
1F
100
AcDbEntity
  8
1
  6
CONTINUOUS
370
50
 62
4
100
AcDbLine
 10
6.79752
 20
0.089876
 30
0.0
 11
6.797
 21
0.092437
 31
0.0
  0
LINE
  5
6CB
330
1F
100
AcDbEntity
  8
1
  6
CONTINUOUS
370
50
 62
4
100
AcDbLine
 10
6.799078
 20
0.082177
 30
0.0
 11
6.798558
 21
0.084735
 31
0.0
  0
LINE
  5
6CC
330
1F
100
AcDbEntity
  8
1
  6
CONTINUOUS
370
50
 62
4
100
AcDbLine
 10
6.79752
 20
0.089849
 30
0.0
 11
6.797
 21
0.092405
 31
0.0
  0
LINE
  5
6CD
330
1F
100
AcDbEntity
  8
1
  6
CONTINUOUS
370
50
 62
4
100
AcDbLine
 10
6.976144
 20
0.109138
 30
0.0
 11
6.975760999999999
 21
0.110976
 31
0.0
  0
LINE
  5
6CE
330
1F
100
AcDbEntity
  8
1
  6
CONTINUOUS
370
50
 62
4
100
AcDbLine
 10
6.964828
 20
-0.119407
 30
0.0
 11
6.964015
 21
-0.115545
 31
0.0
  0
LINE
  5
6CF
330
1F
100
AcDbEntity
  8
1
  6
CONTINUOUS
370
50
 62
4
100
AcDbLine
 10
6.925351999999999
 20
0.094242
 30
0.0
 11
6.924886
 21
0.096212
 31
0.0
  0
LINE
  5
6D0
330
1F
100
AcDbEntity
  8
1
  6
CONTINUOUS
370
50
 62
4
100
AcDbLine
 10
6.975760999999999
 20
0.110976
 30
0.0
 11
6.975306
 21
0.112809
 31
0.0
  0
LINE
  5
6D1
330
1F
100
AcDbEntity
  8
1
  6
CONTINUOUS
370
50
 62
4
100
AcDbLine
 10
6.925612
 20
0.017396
 30
0.0
 11
6.925222
 21
0.018965
 31
0.0
  0
LINE
  5
6D2
330
1F
100
AcDbEntity
  8
1
  6
CONTINUOUS
370
50
 62
4
100
AcDbLine
 10
6.924886
 20
0.096212
 30
0.0
 11
6.924335999999999
 21
0.098255
 31
0.0
  0
LINE
  5
6D3
330
1F
100
AcDbEntity
  8
1
  6
CONTINUOUS
370
50
 62
4
100
AcDbLine
 10
6.705069
 20
-0.128122
 30
0.0
 11
6.704787
 21
-0.127087
 31
0.0
  0
LINE
  5
6D4
330
1F
100
AcDbEntity
  8
1
  6
CONTINUOUS
370
50
 62
4
100
AcDbLine
 10
6.705782
 20
0.053548
 30
0.0
 11
6.705223999999999
 21
0.055553
 31
0.0
  0
LINE
  5
6D5
330
1F
100
AcDbEntity
  8
1
  6
CONTINUOUS
370
50
 62
4
100
AcDbLine
 10
6.924335999999999
 20
0.098255
 30
0.0
 11
6.923704
 21
0.100365
 31
0.0
  0
LINE
  5
6D6
330
1F
100
AcDbEntity
  8
1
  6
CONTINUOUS
370
50
 62
4
100
AcDbLine
 10
6.975306
 20
0.112809
 30
0.0
 11
6.974425999999999
 21
0.115718
 31
0.0
  0
LINE
  5
6D7
330
1F
100
AcDbEntity
  8
1
  6
CONTINUOUS
370
50
 62
4
100
AcDbLine
 10
6.925222
 20
0.018965
 30
0.0
 11
6.924754
 21
0.02047
 31
0.0
  0
LINE
  5
6D8
330
1F
100
AcDbEntity
  8
1
  6
CONTINUOUS
370
50
 62
4
100
AcDbLine
 10
6.976973
 20
0.020504
 30
0.0
 11
6.976901
 21
0.020727
 31
0.0
  0
LINE
  5
6D9
330
1F
100
AcDbEntity
  8
1
  6
CONTINUOUS
370
50
 62
4
100
AcDbLine
 10
6.976993999999999
 20
0.020439
 30
0.0
 11
6.976973
 21
0.020504
 31
0.0
  0
LINE
  5
6DA
330
1F
100
AcDbEntity
  8
1
  6
CONTINUOUS
370
50
 62
4
100
AcDbLine
 10
6.959091
 20
0.075538
 30
0.0
 11
6.958907
 21
0.076107
 31
0.0
  0
LINE
  5
6DB
330
1F
100
AcDbEntity
  8
1
  6
CONTINUOUS
370
50
 62
4
100
AcDbLine
 10
6.976769
 20
0.02113
 30
0.0
 11
6.976588
 21
0.021689
 31
0.0
  0
LINE
  5
6DC
330
1F
100
AcDbEntity
  8
1
  6
CONTINUOUS
370
50
 62
4
100
AcDbLine
 10
6.959683
 20
0.073716
 30
0.0
 11
6.959351
 21
0.07474
 31
0.0
  0
LINE
  5
6DD
330
1F
100
AcDbEntity
  8
1
  6
CONTINUOUS
370
50
 62
4
100
AcDbLine
 10
6.97262
 20
0.033899
 30
0.0
 11
6.972150999999999
 21
0.035345
 31
0.0
  0
LINE
  5
6DE
330
1F
100
AcDbEntity
  8
1
  6
CONTINUOUS
370
50
 62
4
100
AcDbLine
 10
6.969306
 20
0.044098
 30
0.0
 11
6.968833
 21
0.045556
 31
0.0
  0
LINE
  5
6DF
330
1F
100
AcDbEntity
  8
1
  6
CONTINUOUS
370
50
 62
4
100
AcDbLine
 10
6.973948999999999
 20
0.029809
 30
0.0
 11
6.973523999999999
 21
0.031119
 31
0.0
  0
LINE
  5
6E0
330
1F
100
AcDbEntity
  8
1
  6
CONTINUOUS
370
50
 62
4
100
AcDbLine
 10
6.970713
 20
0.039769
 30
0.0
 11
6.970237999999999
 21
0.041233
 31
0.0
  0
LINE
  5
6E1
330
1F
100
AcDbEntity
  8
1
  6
CONTINUOUS
370
50
 62
4
100
AcDbLine
 10
6.966861
 20
0.051624
 30
0.0
 11
6.966355999999999
 21
0.05318
 31
0.0
  0
LINE
  5
6E2
330
1F
100
AcDbEntity
  8
1
  6
CONTINUOUS
370
50
 62
4
100
AcDbLine
 10
6.958796
 20
0.076446
 30
0.0
 11
6.958759
 21
0.07656
 31
0.0
  0
LINE
  5
6E3
330
1F
100
AcDbEntity
  8
1
  6
CONTINUOUS
370
50
 62
4
100
AcDbLine
 10
6.965847
 20
0.054744
 30
0.0
 11
6.965338
 21
0.056312
 31
0.0
  0
LINE
  5
6E4
330
1F
100
AcDbEntity
  8
1
  6
CONTINUOUS
370
50
 62
4
100
AcDbLine
 10
6.963954999999999
 20
0.060568
 30
0.0
 11
6.963145
 21
0.063063
 31
0.0
  0
LINE
  5
6E5
330
1F
100
AcDbEntity
  8
1
  6
CONTINUOUS
370
50
 62
4
100
AcDbLine
 10
6.961719
 20
0.06745
 30
0.0
 11
6.961106999999999
 21
0.069335
 31
0.0
  0
LINE
  5
6E6
330
1F
100
AcDbEntity
  8
1
  6
CONTINUOUS
370
50
 62
4
100
AcDbLine
 10
6.976114
 20
0.023146
 30
0.0
 11
6.975814
 21
0.02407
 31
0.0
  0
LINE
  5
6E7
330
1F
100
AcDbEntity
  8
1
  6
CONTINUOUS
370
50
 62
4
100
AcDbLine
 10
6.975814
 20
0.02407
 30
0.0
 11
6.975474999999999
 21
0.025114
 31
0.0
  0
LINE
  5
6E8
330
1F
100
AcDbEntity
  8
1
  6
CONTINUOUS
370
50
 62
4
100
AcDbLine
 10
6.96835
 20
0.047042
 30
0.0
 11
6.96786
 21
0.048551
 31
0.0
  0
LINE
  5
6E9
330
1F
100
AcDbEntity
  8
1
  6
CONTINUOUS
370
50
 62
4
100
AcDbLine
 10
6.975474999999999
 20
0.025114
 30
0.0
 11
6.97511
 21
0.026238
 31
0.0
  0
LINE
  5
6EA
330
1F
100
AcDbEntity
  8
1
  6
CONTINUOUS
370
50
 62
4
100
AcDbLine
 10
6.960087
 20
0.072472
 30
0.0
 11
6.959683
 21
0.073716
 31
0.0
  0
LINE
  5
6EB
330
1F
100
AcDbEntity
  8
1
  6
CONTINUOUS
370
50
 62
4
100
AcDbLine
 10
6.971673
 20
0.036814
 30
0.0
 11
6.971193
 21
0.038292
 31
0.0
  0
LINE
  5
6EC
330
1F
100
AcDbEntity
  8
1
  6
CONTINUOUS
370
50
 62
4
100
AcDbLine
 10
6.973523999999999
 20
0.031119
 30
0.0
 11
6.97308
 21
0.032486
 31
0.0
  0
LINE
  5
6ED
330
1F
100
AcDbEntity
  8
1
  6
CONTINUOUS
370
50
 62
4
100
AcDbLine
 10
6.965338
 20
0.056312
 30
0.0
 11
6.964829
 21
0.057879
 31
0.0
  0
LINE
  5
6EE
330
1F
100
AcDbEntity
  8
1
  6
CONTINUOUS
370
50
 62
4
100
AcDbLine
 10
6.960561999999999
 20
0.07101
 30
0.0
 11
6.960087
 21
0.072472
 31
0.0
  0
LINE
  5
6EF
330
1F
100
AcDbEntity
  8
1
  6
CONTINUOUS
370
50
 62
4
100
AcDbLine
 10
6.971193
 20
0.038292
 30
0.0
 11
6.970713
 21
0.039769
 31
0.0
  0
LINE
  5
6F0
330
1F
100
AcDbEntity
  8
1
  6
CONTINUOUS
370
50
 62
4
100
AcDbLine
 10
6.976588
 20
0.021689
 30
0.0
 11
6.976367
 21
0.022369
 31
0.0
  0
LINE
  5
6F1
330
1F
100
AcDbEntity
  8
1
  6
CONTINUOUS
370
50
 62
4
100
AcDbLine
 10
6.97511
 20
0.026238
 30
0.0
 11
6.974733
 21
0.027398
 31
0.0
  0
LINE
  5
6F2
330
1F
100
AcDbEntity
  8
1
  6
CONTINUOUS
370
50
 62
4
100
AcDbLine
 10
6.974352
 20
0.028569
 30
0.0
 11
6.973948999999999
 21
0.029809
 31
0.0
  0
LINE
  5
6F3
330
1F
100
AcDbEntity
  8
1
  6
CONTINUOUS
370
50
 62
4
100
AcDbLine
 10
6.968833
 20
0.045556
 30
0.0
 11
6.96835
 21
0.047042
 31
0.0
  0
LINE
  5
6F4
330
1F
100
AcDbEntity
  8
1
  6
CONTINUOUS
370
50
 62
4
100
AcDbLine
 10
6.962399
 20
0.065358
 30
0.0
 11
6.961719
 21
0.06745
 31
0.0
  0
LINE
  5
6F5
330
1F
100
AcDbEntity
  8
1
  6
CONTINUOUS
370
50
 62
4
100
AcDbLine
 10
6.96786
 20
0.048551
 30
0.0
 11
6.967363
 21
0.05008
 31
0.0
  0
LINE
  5
6F6
330
1F
100
AcDbEntity
  8
1
  6
CONTINUOUS
370
50
 62
4
100
AcDbLine
 10
6.963145
 20
0.063063
 30
0.0
 11
6.962399
 21
0.065358
 31
0.0
  0
LINE
  5
6F7
330
1F
100
AcDbEntity
  8
1
  6
CONTINUOUS
370
50
 62
4
100
AcDbLine
 10
6.967363
 20
0.05008
 30
0.0
 11
6.966861
 21
0.051624
 31
0.0
  0
LINE
  5
6F8
330
1F
100
AcDbEntity
  8
1
  6
CONTINUOUS
370
50
 62
4
100
AcDbLine
 10
6.964828
 20
0.057883
 30
0.0
 11
6.963954999999999
 21
0.060568
 31
0.0
  0
LINE
  5
6F9
330
1F
100
AcDbEntity
  8
1
  6
CONTINUOUS
370
50
 62
4
100
AcDbLine
 10
6.96977
 20
0.042671
 30
0.0
 11
6.969306
 21
0.044098
 31
0.0
  0
LINE
  5
6FA
330
1F
100
AcDbEntity
  8
1
  6
CONTINUOUS
370
50
 62
4
100
AcDbLine
 10
6.974733
 20
0.027398
 30
0.0
 11
6.974352
 21
0.028569
 31
0.0
  0
LINE
  5
6FB
330
1F
100
AcDbEntity
  8
1
  6
CONTINUOUS
370
50
 62
4
100
AcDbLine
 10
6.961106999999999
 20
0.069335
 30
0.0
 11
6.960561999999999
 21
0.07101
 31
0.0
  0
LINE
  5
6FC
330
1F
100
AcDbEntity
  8
1
  6
CONTINUOUS
370
50
 62
4
100
AcDbLine
 10
6.972150999999999
 20
0.035345
 30
0.0
 11
6.971673
 21
0.036814
 31
0.0
  0
LINE
  5
6FD
330
1F
100
AcDbEntity
  8
1
  6
CONTINUOUS
370
50
 62
4
100
AcDbLine
 10
6.966355999999999
 20
0.05318
 30
0.0
 11
6.965847
 21
0.054744
 31
0.0
  0
LINE
  5
6FE
330
1F
100
AcDbEntity
  8
1
  6
CONTINUOUS
370
50
 62
4
100
AcDbLine
 10
6.970237999999999
 20
0.041233
 30
0.0
 11
6.96977
 21
0.042671
 31
0.0
  0
LINE
  5
6FF
330
1F
100
AcDbEntity
  8
1
  6
CONTINUOUS
370
50
 62
4
100
AcDbLine
 10
6.97308
 20
0.032486
 30
0.0
 11
6.97262
 21
0.033899
 31
0.0
  0
LINE
  5
700
330
1F
100
AcDbEntity
  8
1
  6
CONTINUOUS
370
50
 62
4
100
AcDbLine
 10
6.976367
 20
0.022369
 30
0.0
 11
6.976114
 21
0.023146
 31
0.0
  0
LINE
  5
701
330
1F
100
AcDbEntity
  8
1
  6
CONTINUOUS
370
50
 62
4
100
AcDbLine
 10
6.959351
 20
0.07474
 30
0.0
 11
6.959091
 21
0.075538
 31
0.0
  0
LINE
  5
702
330
1F
100
AcDbEntity
  8
1
  6
CONTINUOUS
370
50
 62
4
100
AcDbLine
 10
6.958907
 20
0.076107
 30
0.0
 11
6.958796
 21
0.076446
 31
0.0
  0
LINE
  5
703
330
1F
100
AcDbEntity
  8
1
  6
CONTINUOUS
370
50
 62
4
100
AcDbLine
 10
6.976901
 20
0.020727
 30
0.0
 11
6.976769
 21
0.02113
 31
0.0
  0
LINE
  5
704
330
1F
100
AcDbEntity
  8
1
  6
CONTINUOUS
370
50
 62
4
100
AcDbLine
 10
6.923704
 20
0.100365
 30
0.0
 11
6.922992
 21
0.102537
 31
0.0
  0
LINE
  5
705
330
1F
100
AcDbEntity
  8
1
  6
CONTINUOUS
370
50
 62
4
100
AcDbLine
 10
6.976865999999999
 20
0.002619
 30
0.0
 11
6.976696
 21
0.003132
 31
0.0
  0
LINE
  5
706
330
1F
100
AcDbEntity
  8
1
  6
CONTINUOUS
370
50
 62
4
100
AcDbLine
 10
6.922992
 20
0.102537
 30
0.0
 11
6.922200999999999
 21
0.104767
 31
0.0
  0
LINE
  5
707
330
1F
100
AcDbEntity
  8
1
  6
CONTINUOUS
370
50
 62
4
100
AcDbLine
 10
6.974425999999999
 20
0.115718
 30
0.0
 11
6.973376
 21
0.118545
 31
0.0
  0
LINE
  5
708
330
1F
100
AcDbEntity
  8
1
  6
CONTINUOUS
370
50
 62
4
100
AcDbLine
 10
6.924754
 20
0.02047
 30
0.0
 11
6.924208999999999
 21
0.021907
 31
0.0
  0
LINE
  5
709
330
1F
100
AcDbEntity
  8
1
  6
CONTINUOUS
370
50
 62
4
100
AcDbLine
 10
6.922200999999999
 20
0.104767
 30
0.0
 11
6.921333
 21
0.10705
 31
0.0
  0
LINE
  5
70A
330
1F
100
AcDbEntity
  8
1
  6
CONTINUOUS
370
50
 62
4
100
AcDbLine
 10
6.706531
 20
0.05158
 30
0.0
 11
6.705782
 21
0.053548
 31
0.0
  0
LINE
  5
70B
330
1F
100
AcDbEntity
  8
1
  6
CONTINUOUS
370
50
 62
4
100
AcDbLine
 10
6.921333
 20
0.10705
 30
0.0
 11
6.920389999999999
 21
0.10938
 31
0.0
  0
LINE
  5
70C
330
1F
100
AcDbEntity
  8
1
  6
CONTINUOUS
370
50
 62
4
100
AcDbLine
 10
6.919556999999999
 20
0.111386
 30
0.0
 11
6.919391999999999
 21
0.111787
 31
0.0
  0
LINE
  5
70D
330
1F
100
AcDbEntity
  8
1
  6
CONTINUOUS
370
50
 62
4
100
AcDbLine
 10
6.919889
 20
0.110584
 30
0.0
 11
6.919556999999999
 21
0.111386
 31
0.0
  0
LINE
  5
70E
330
1F
100
AcDbEntity
  8
1
  6
CONTINUOUS
370
50
 62
4
100
AcDbLine
 10
6.920056
 20
0.110182
 30
0.0
 11
6.919889
 21
0.110584
 31
0.0
  0
LINE
  5
70F
330
1F
100
AcDbEntity
  8
1
  6
CONTINUOUS
370
50
 62
4
100
AcDbLine
 10
6.920389999999999
 20
0.10938
 30
0.0
 11
6.920056
 21
0.110182
 31
0.0
  0
LINE
  5
710
330
1F
100
AcDbEntity
  8
1
  6
CONTINUOUS
370
50
 62
4
100
AcDbLine
 10
6.973376
 20
0.118545
 30
0.0
 11
6.972162
 21
0.121282
 31
0.0
  0
LINE
  5
711
330
1F
100
AcDbEntity
  8
1
  6
CONTINUOUS
370
50
 62
4
100
AcDbLine
 10
6.924208999999999
 20
0.021907
 30
0.0
 11
6.923589
 21
0.023274
 31
0.0
  0
LINE
  5
712
330
1F
100
AcDbEntity
  8
1
  6
CONTINUOUS
370
50
 62
4
100
AcDbLine
 10
6.70745
 20
0.049652
 30
0.0
 11
6.706531
 21
0.05158
 31
0.0
  0
LINE
  5
713
330
1F
100
AcDbEntity
  8
1
  6
CONTINUOUS
370
50
 62
4
100
AcDbLine
 10
6.934707
 20
0.082069
 30
0.0
 11
6.919391999999999
 21
0.111787
 31
0.0
  0
LINE
  5
714
330
1F
100
AcDbEntity
  8
1
  6
CONTINUOUS
370
50
 62
4
100
AcDbLine
 10
6.972162
 20
0.121282
 30
0.0
 11
6.970787
 21
0.123922
 31
0.0
  0
LINE
  5
715
330
1F
100
AcDbEntity
  8
1
  6
CONTINUOUS
370
50
 62
4
100
AcDbLine
 10
6.976696
 20
0.003132
 30
0.0
 11
6.976456
 21
0.003592
 31
0.0
  0
LINE
  5
716
330
1F
100
AcDbEntity
  8
1
  6
CONTINUOUS
370
50
 62
4
100
AcDbLine
 10
6.923589
 20
0.023274
 30
0.0
 11
6.922895
 21
0.02457
 31
0.0
  0
LINE
  5
717
330
1F
100
AcDbEntity
  8
1
  6
CONTINUOUS
370
50
 62
4
100
AcDbLine
 10
6.705625
 20
-0.129094
 30
0.0
 11
6.705069
 21
-0.128122
 31
0.0
  0
LINE
  5
718
330
1F
100
AcDbEntity
  8
1
  6
CONTINUOUS
370
50
 62
4
100
AcDbLine
 10
6.970787
 20
0.123922
 30
0.0
 11
6.969262
 21
0.126452
 31
0.0
  0
LINE
  5
719
330
1F
100
AcDbEntity
  8
1
  6
CONTINUOUS
370
50
 62
4
100
AcDbLine
 10
6.729481
 20
0.014475
 30
0.0
 11
6.725097
 21
0.021697
 31
0.0
  0
LINE
  5
71A
330
1F
100
AcDbEntity
  8
1
  6
CONTINUOUS
370
50
 62
4
100
AcDbLine
 10
6.733905
 20
0.007212
 30
0.0
 11
6.729481
 21
0.014475
 31
0.0
  0
LINE
  5
71B
330
1F
100
AcDbEntity
  8
1
  6
CONTINUOUS
370
50
 62
4
100
AcDbLine
 10
6.725097
 20
0.021697
 30
0.0
 11
6.720734999999999
 21
0.02884
 31
0.0
  0
LINE
  5
71C
330
1F
100
AcDbEntity
  8
1
  6
CONTINUOUS
370
50
 62
4
100
AcDbLine
 10
6.738352
 20
0.0
 30
0.0
 11
6.733905
 21
0.007212
 31
0.0
  0
LINE
  5
71D
330
1F
100
AcDbEntity
  8
1
  6
CONTINUOUS
370
50
 62
4
100
AcDbLine
 10
6.720734999999999
 20
0.02884
 30
0.0
 11
6.716361999999999
 21
0.035889
 31
0.0
  0
LINE
  5
71E
330
1F
100
AcDbEntity
  8
1
  6
CONTINUOUS
370
50
 62
4
100
AcDbLine
 10
6.922895
 20
0.02457
 30
0.0
 11
6.92213
 21
0.02579
 31
0.0
  0
LINE
  5
71F
330
1F
100
AcDbEntity
  8
1
  6
CONTINUOUS
370
50
 62
4
100
AcDbLine
 10
6.742782999999999
 20
-0.007032
 30
0.0
 11
6.738352
 21
0.0
 31
0.0
  0
LINE
  5
720
330
1F
100
AcDbEntity
  8
1
  6
CONTINUOUS
370
50
 62
4
100
AcDbLine
 10
6.716361999999999
 20
0.035889
 30
0.0
 11
6.711944
 21
0.042831
 31
0.0
  0
LINE
  5
721
330
1F
100
AcDbEntity
  8
1
  6
CONTINUOUS
370
50
 62
4
100
AcDbLine
 10
6.747293
 20
-0.01398
 30
0.0
 11
6.742782999999999
 21
-0.007032
 31
0.0
  0
LINE
  5
722
330
1F
100
AcDbEntity
  8
1
  6
CONTINUOUS
370
50
 62
4
100
AcDbLine
 10
6.711944
 20
0.042831
 30
0.0
 11
6.70745
 21
0.049652
 31
0.0
  0
LINE
  5
723
330
1F
100
AcDbEntity
  8
1
  6
CONTINUOUS
370
50
 62
4
100
AcDbLine
 10
6.751914999999999
 20
-0.020832
 30
0.0
 11
6.747293
 21
-0.01398
 31
0.0
  0
LINE
  5
724
330
1F
100
AcDbEntity
  8
1
  6
CONTINUOUS
370
50
 62
4
100
AcDbLine
 10
6.969262
 20
0.126452
 30
0.0
 11
6.967601999999999
 21
0.128852
 31
0.0
  0
LINE
  5
725
330
1F
100
AcDbEntity
  8
1
  6
CONTINUOUS
370
50
 62
4
100
AcDbLine
 10
6.756677
 20
-0.027575
 30
0.0
 11
6.751914999999999
 21
-0.020832
 31
0.0
  0
LINE
  5
726
330
1F
100
AcDbEntity
  8
1
  6
CONTINUOUS
370
50
 62
4
100
AcDbLine
 10
6.92213
 20
0.02579
 30
0.0
 11
6.921294
 21
0.026933
 31
0.0
  0
LINE
  5
727
330
1F
100
AcDbEntity
  8
1
  6
CONTINUOUS
370
50
 62
4
100
AcDbLine
 10
6.761612
 20
-0.034196
 30
0.0
 11
6.756677
 21
-0.027575
 31
0.0
  0
LINE
  5
728
330
1F
100
AcDbEntity
  8
1
  6
CONTINUOUS
370
50
 62
4
100
AcDbLine
 10
6.976456
 20
0.003592
 30
0.0
 11
6.976144
 21
0.004003
 31
0.0
  0
LINE
  5
729
330
1F
100
AcDbEntity
  8
1
  6
CONTINUOUS
370
50
 62
4
100
AcDbLine
 10
6.967601999999999
 20
0.128852
 30
0.0
 11
6.965815
 21
0.131117
 31
0.0
  0
LINE
  5
72A
330
1F
100
AcDbEntity
  8
1
  6
CONTINUOUS
370
50
 62
4
100
AcDbLine
 10
6.766753
 20
-0.040686
 30
0.0
 11
6.761612
 21
-0.034196
 31
0.0
  0
LINE
  5
72B
330
1F
100
AcDbEntity
  8
1
  6
CONTINUOUS
370
50
 62
4
100
AcDbLine
 10
6.772141
 20
-0.047039
 30
0.0
 11
6.766753
 21
-0.040686
 31
0.0
  0
LINE
  5
72C
330
1F
100
AcDbEntity
  8
1
  6
CONTINUOUS
370
50
 62
4
100
AcDbLine
 10
6.921294
 20
0.026933
 30
0.0
 11
6.920389999999999
 21
0.027997
 31
0.0
  0
LINE
  5
72D
330
1F
100
AcDbEntity
  8
1
  6
CONTINUOUS
370
50
 62
4
100
AcDbLine
 10
6.706428
 20
-0.130002
 30
0.0
 11
6.705625
 21
-0.129094
 31
0.0
  0
LINE
  5
72E
330
1F
100
AcDbEntity
  8
1
  6
CONTINUOUS
370
50
 62
4
100
AcDbLine
 10
6.919556999999999
 20
0.028914
 30
0.0
 11
6.919391999999999
 21
0.029099
 31
0.0
  0
LINE
  5
72F
330
1F
100
AcDbEntity
  8
1
  6
CONTINUOUS
370
50
 62
4
100
AcDbLine
 10
6.965815
 20
0.131117
 30
0.0
 11
6.963907
 21
0.133244
 31
0.0
  0
LINE
  5
730
330
1F
100
AcDbEntity
  8
1
  6
CONTINUOUS
370
50
 62
4
100
AcDbLine
 10
6.919889
 20
0.028546
 30
0.0
 11
6.919556999999999
 21
0.028914
 31
0.0
  0
LINE
  5
731
330
1F
100
AcDbEntity
  8
1
  6
CONTINUOUS
370
50
 62
4
100
AcDbLine
 10
6.920056
 20
0.028362
 30
0.0
 11
6.919889
 21
0.028546
 31
0.0
  0
LINE
  5
732
330
1F
100
AcDbEntity
  8
1
  6
CONTINUOUS
370
50
 62
4
100
AcDbLine
 10
6.920223
 20
0.028179
 30
0.0
 11
6.920056
 21
0.028362
 31
0.0
  0
LINE
  5
733
330
1F
100
AcDbEntity
  8
1
  6
CONTINUOUS
370
50
 62
4
100
AcDbLine
 10
6.777818
 20
-0.053243
 30
0.0
 11
6.772141
 21
-0.047039
 31
0.0
  0
LINE
  5
734
330
1F
100
AcDbEntity
  8
1
  6
CONTINUOUS
370
50
 62
4
100
AcDbLine
 10
6.920389999999999
 20
0.027997
 30
0.0
 11
6.920223
 21
0.028179
 31
0.0
  0
LINE
  5
735
330
1F
100
AcDbEntity
  8
1
  6
CONTINUOUS
370
50
 62
4
100
AcDbLine
 10
6.783825999999999
 20
-0.05929
 30
0.0
 11
6.777818
 21
-0.053243
 31
0.0
  0
LINE
  5
736
330
1F
100
AcDbEntity
  8
1
  6
CONTINUOUS
370
50
 62
4
100
AcDbLine
 10
6.963907
 20
0.133244
 30
0.0
 11
6.961886
 21
0.135229
 31
0.0
  0
LINE
  5
737
330
1F
100
AcDbEntity
  8
1
  6
CONTINUOUS
370
50
 62
4
100
AcDbLine
 10
6.976144
 20
0.004003
 30
0.0
 11
6.975760999999999
 21
0.004366
 31
0.0
  0
LINE
  5
738
330
1F
100
AcDbEntity
  8
1
  6
CONTINUOUS
370
50
 62
4
100
AcDbLine
 10
6.790206
 20
-0.065169
 30
0.0
 11
6.783825999999999
 21
-0.05929
 31
0.0
  0
LINE
  5
739
330
1F
100
AcDbEntity
  8
1
  6
CONTINUOUS
370
50
 62
4
100
AcDbLine
 10
6.961886
 20
0.135229
 30
0.0
 11
6.959762
 21
0.137064
 31
0.0
  0
LINE
  5
73A
330
1F
100
AcDbEntity
  8
1
  6
CONTINUOUS
370
50
 62
4
100
AcDbLine
 10
6.797
 20
-0.070871
 30
0.0
 11
6.790206
 21
-0.065169
 31
0.0
  0
LINE
  5
73B
330
1F
100
AcDbEntity
  8
1
  6
CONTINUOUS
370
50
 62
4
100
AcDbLine
 10
6.803426
 20
-0.096042
 30
0.0
 11
6.80277
 21
-0.0955
 31
0.0
  0
LINE
  5
73C
330
1F
100
AcDbEntity
  8
1
  6
CONTINUOUS
370
50
 62
4
100
AcDbLine
 10
6.70745
 20
-0.130846
 30
0.0
 11
6.706428
 21
-0.130002
 31
0.0
  0
LINE
  5
73D
330
1F
100
AcDbEntity
  8
1
  6
CONTINUOUS
370
50
 62
4
100
AcDbLine
 10
6.804113
 20
-0.096579
 30
0.0
 11
6.803426
 21
-0.096042
 31
0.0
  0
LINE
  5
73E
330
1F
100
AcDbEntity
  8
1
  6
CONTINUOUS
370
50
 62
4
100
AcDbLine
 10
6.959762
 20
0.137064
 30
0.0
 11
6.957552
 21
0.13874
 31
0.0
  0
LINE
  5
73F
330
1F
100
AcDbEntity
  8
1
  6
CONTINUOUS
370
50
 62
4
100
AcDbLine
 10
6.804823
 20
-0.097106
 30
0.0
 11
6.804113
 21
-0.096579
 31
0.0
  0
LINE
  5
740
330
1F
100
AcDbEntity
  8
1
  6
CONTINUOUS
370
50
 62
4
100
AcDbLine
 10
6.805546
 20
-0.097621
 30
0.0
 11
6.804823
 21
-0.097106
 31
0.0
  0
LINE
  5
741
330
1F
100
AcDbEntity
  8
1
  6
CONTINUOUS
370
50
 62
4
100
AcDbLine
 10
6.975760999999999
 20
0.004366
 30
0.0
 11
6.975306
 21
0.004686
 31
0.0
  0
LINE
  5
742
330
1F
100
AcDbEntity
  8
1
  6
CONTINUOUS
370
50
 62
4
100
AcDbLine
 10
6.803426
 20
0.115097
 30
0.0
 11
6.80277
 21
0.115547
 31
0.0
  0
LINE
  5
743
330
1F
100
AcDbEntity
  8
1
  6
CONTINUOUS
370
50
 62
4
100
AcDbLine
 10
6.806274999999999
 20
-0.09812
 30
0.0
 11
6.805546
 21
-0.097621
 31
0.0
  0
LINE
  5
744
330
1F
100
AcDbEntity
  8
1
  6
CONTINUOUS
370
50
 62
4
100
AcDbLine
 10
6.957552
 20
0.13874
 30
0.0
 11
6.955264
 21
0.140255
 31
0.0
  0
LINE
  5
745
330
1F
100
AcDbEntity
  8
1
  6
CONTINUOUS
370
50
 62
4
100
AcDbLine
 10
6.806999999999999
 20
-0.0986
 30
0.0
 11
6.806274999999999
 21
-0.09812
 31
0.0
  0
LINE
  5
746
330
1F
100
AcDbEntity
  8
1
  6
CONTINUOUS
370
50
 62
4
100
AcDbLine
 10
6.797952
 20
-0.092447
 30
0.0
 11
6.797
 21
-0.091817
 31
0.0
  0
LINE
  5
747
330
1F
100
AcDbEntity
  8
1
  6
CONTINUOUS
370
50
 62
4
100
AcDbLine
 10
6.804113
 20
0.114648
 30
0.0
 11
6.803426
 21
0.115097
 31
0.0
  0
LINE
  5
748
330
1F
100
AcDbEntity
  8
1
  6
CONTINUOUS
370
50
 62
4
100
AcDbLine
 10
6.798907
 20
-0.09307
 30
0.0
 11
6.797952
 21
-0.092447
 31
0.0
  0
LINE
  5
749
330
1F
100
AcDbEntity
  8
1
  6
CONTINUOUS
370
50
 62
4
100
AcDbLine
 10
6.799867
 20
-0.093687
 30
0.0
 11
6.798907
 21
-0.09307
 31
0.0
  0
LINE
  5
74A
330
1F
100
AcDbEntity
  8
1
  6
CONTINUOUS
370
50
 62
4
100
AcDbLine
 10
6.800831
 20
-0.094298
 30
0.0
 11
6.799867
 21
-0.093687
 31
0.0
  0
LINE
  5
74B
330
1F
100
AcDbEntity
  8
1
  6
CONTINUOUS
370
50
 62
4
100
AcDbLine
 10
6.804823
 20
0.114202
 30
0.0
 11
6.804113
 21
0.114648
 31
0.0
  0
LINE
  5
74C
330
1F
100
AcDbEntity
  8
1
  6
CONTINUOUS
370
50
 62
4
100
AcDbLine
 10
6.801798
 20
-0.094902
 30
0.0
 11
6.800831
 21
-0.094298
 31
0.0
  0
LINE
  5
74D
330
1F
100
AcDbEntity
  8
1
  6
CONTINUOUS
370
50
 62
4
100
AcDbLine
 10
6.952903
 20
0.018151
 30
0.0
 11
6.950477999999999
 21
0.019647
 31
0.0
  0
LINE
  5
74E
330
1F
100
AcDbEntity
  8
1
  6
CONTINUOUS
370
50
 62
4
100
AcDbLine
 10
6.950477999999999
 20
0.019647
 30
0.0
 11
6.947995
 21
0.021178
 31
0.0
  0
LINE
  5
74F
330
1F
100
AcDbEntity
  8
1
  6
CONTINUOUS
370
50
 62
4
100
AcDbLine
 10
6.955264
 20
0.016697
 30
0.0
 11
6.952903
 21
0.018151
 31
0.0
  0
LINE
  5
750
330
1F
100
AcDbEntity
  8
1
  6
CONTINUOUS
370
50
 62
4
100
AcDbLine
 10
6.947995
 20
0.021178
 30
0.0
 11
6.945465
 21
0.022735
 31
0.0
  0
LINE
  5
751
330
1F
100
AcDbEntity
  8
1
  6
CONTINUOUS
370
50
 62
4
100
AcDbLine
 10
6.80277
 20
-0.0955
 30
0.0
 11
6.801798
 21
-0.094902
 31
0.0
  0
LINE
  5
752
330
1F
100
AcDbEntity
  8
1
  6
CONTINUOUS
370
50
 62
4
100
AcDbLine
 10
6.957552
 20
0.015291
 30
0.0
 11
6.955264
 21
0.016697
 31
0.0
  0
LINE
  5
753
330
1F
100
AcDbEntity
  8
1
  6
CONTINUOUS
370
50
 62
4
100
AcDbLine
 10
6.945465
 20
0.022735
 30
0.0
 11
6.942895999999999
 21
0.02431
 31
0.0
  0
LINE
  5
754
330
1F
100
AcDbEntity
  8
1
  6
CONTINUOUS
370
50
 62
4
100
AcDbLine
 10
6.959762
 20
0.013938
 30
0.0
 11
6.957552
 21
0.015291
 31
0.0
  0
LINE
  5
755
330
1F
100
AcDbEntity
  8
1
  6
CONTINUOUS
370
50
 62
4
100
AcDbLine
 10
6.942895999999999
 20
0.02431
 30
0.0
 11
6.940295
 21
0.025896
 31
0.0
  0
LINE
  5
756
330
1F
100
AcDbEntity
  8
1
  6
CONTINUOUS
370
50
 62
4
100
AcDbLine
 10
6.961886
 20
0.012646
 30
0.0
 11
6.959762
 21
0.013938
 31
0.0
  0
LINE
  5
757
330
1F
100
AcDbEntity
  8
1
  6
CONTINUOUS
370
50
 62
4
100
AcDbLine
 10
6.805546
 20
0.113764
 30
0.0
 11
6.804823
 21
0.114202
 31
0.0
  0
LINE
  5
758
330
1F
100
AcDbEntity
  8
1
  6
CONTINUOUS
370
50
 62
4
100
AcDbLine
 10
6.940295
 20
0.025896
 30
0.0
 11
6.937666
 21
0.027485
 31
0.0
  0
LINE
  5
759
330
1F
100
AcDbEntity
  8
1
  6
CONTINUOUS
370
50
 62
4
100
AcDbLine
 10
6.963907
 20
0.011426
 30
0.0
 11
6.961886
 21
0.012646
 31
0.0
  0
LINE
  5
75A
330
1F
100
AcDbEntity
  8
1
  6
CONTINUOUS
370
50
 62
4
100
AcDbLine
 10
6.965815
 20
0.010282
 30
0.0
 11
6.963907
 21
0.011426
 31
0.0
  0
LINE
  5
75B
330
1F
100
AcDbEntity
  8
1
  6
CONTINUOUS
370
50
 62
4
100
AcDbLine
 10
6.937666
 20
0.027485
 30
0.0
 11
6.935016
 21
0.029071
 31
0.0
  0
LINE
  5
75C
330
1F
100
AcDbEntity
  8
1
  6
CONTINUOUS
370
50
 62
4
100
AcDbLine
 10
6.975306
 20
0.004686
 30
0.0
 11
6.974425999999999
 21
0.005211
 31
0.0
  0
LINE
  5
75D
330
1F
100
AcDbEntity
  8
1
  6
CONTINUOUS
370
50
 62
4
100
AcDbLine
 10
6.967601999999999
 20
0.009217
 30
0.0
 11
6.965815
 21
0.010282
 31
0.0
  0
LINE
  5
75E
330
1F
100
AcDbEntity
  8
1
  6
CONTINUOUS
370
50
 62
4
100
AcDbLine
 10
6.969262
 20
0.008235
 30
0.0
 11
6.967601999999999
 21
0.009217
 31
0.0
  0
LINE
  5
75F
330
1F
100
AcDbEntity
  8
1
  6
CONTINUOUS
370
50
 62
4
100
AcDbLine
 10
6.935016
 20
0.029071
 30
0.0
 11
6.932351
 21
0.030646
 31
0.0
  0
LINE
  5
760
330
1F
100
AcDbEntity
  8
1
  6
CONTINUOUS
370
50
 62
4
100
AcDbLine
 10
6.806274999999999
 20
0.113334
 30
0.0
 11
6.805546
 21
0.113764
 31
0.0
  0
LINE
  5
761
330
1F
100
AcDbEntity
  8
1
  6
CONTINUOUS
370
50
 62
4
100
AcDbLine
 10
6.974425999999999
 20
0.005211
 30
0.0
 11
6.973376
 21
0.005828
 31
0.0
  0
LINE
  5
762
330
1F
100
AcDbEntity
  8
1
  6
CONTINUOUS
370
50
 62
4
100
AcDbLine
 10
6.970787
 20
0.00734
 30
0.0
 11
6.969262
 21
0.008235
 31
0.0
  0
LINE
  5
763
330
1F
100
AcDbEntity
  8
1
  6
CONTINUOUS
370
50
 62
4
100
AcDbLine
 10
6.973376
 20
0.005828
 30
0.0
 11
6.972162
 21
0.006537
 31
0.0
  0
LINE
  5
764
330
1F
100
AcDbEntity
  8
1
  6
CONTINUOUS
370
50
 62
4
100
AcDbLine
 10
6.972162
 20
0.006537
 30
0.0
 11
6.970787
 21
0.00734
 31
0.0
  0
LINE
  5
765
330
1F
100
AcDbEntity
  8
1
  6
CONTINUOUS
370
50
 62
4
100
AcDbLine
 10
6.932351
 20
0.030646
 30
0.0
 11
6.929677
 21
0.032202
 31
0.0
  0
LINE
  5
766
330
1F
100
AcDbEntity
  8
1
  6
CONTINUOUS
370
50
 62
4
100
AcDbLine
 10
6.806999999999999
 20
0.112918
 30
0.0
 11
6.806274999999999
 21
0.113334
 31
0.0
  0
LINE
  5
767
330
1F
100
AcDbEntity
  8
1
  6
CONTINUOUS
370
50
 62
4
100
AcDbLine
 10
6.955264
 20
0.140255
 30
0.0
 11
6.952903
 21
0.141609
 31
0.0
  0
LINE
  5
768
330
1F
100
AcDbEntity
  8
1
  6
CONTINUOUS
370
50
 62
4
100
AcDbLine
 10
6.929677
 20
0.032202
 30
0.0
 11
6.927
 21
0.033732
 31
0.0
  0
LINE
  5
769
330
1F
100
AcDbEntity
  8
1
  6
CONTINUOUS
370
50
 62
4
100
AcDbLine
 10
6.927
 20
0.033732
 30
0.0
 11
6.909951
 21
0.043425
 31
0.0
  0
LINE
  5
76A
330
1F
100
AcDbEntity
  8
1
  6
CONTINUOUS
370
50
 62
4
100
AcDbLine
 10
6.909951
 20
0.043425
 30
0.0
 11
6.893314999999999
 21
0.052841
 31
0.0
  0
LINE
  5
76B
330
1F
100
AcDbEntity
  8
1
  6
CONTINUOUS
370
50
 62
4
100
AcDbLine
 10
6.893314999999999
 20
0.052841
 30
0.0
 11
6.876608999999999
 21
0.062036
 31
0.0
  0
LINE
  5
76C
330
1F
100
AcDbEntity
  8
1
  6
CONTINUOUS
370
50
 62
4
100
AcDbLine
 10
6.927
 20
0.056923
 30
0.0
 11
6.911054999999999
 21
0.065446
 31
0.0
  0
LINE
  5
76D
330
1F
100
AcDbEntity
  8
1
  6
CONTINUOUS
370
50
 62
4
100
AcDbLine
 10
6.712623
 20
-0.133569
 30
0.0
 11
6.70745
 21
-0.130846
 31
0.0
  0
LINE
  5
76E
330
1F
100
AcDbEntity
  8
1
  6
CONTINUOUS
370
50
 62
4
100
AcDbLine
 10
6.876608999999999
 20
0.062036
 30
0.0
 11
6.85941
 21
0.071048
 31
0.0
  0
LINE
  5
76F
330
1F
100
AcDbEntity
  8
1
  6
CONTINUOUS
370
50
 62
4
100
AcDbLine
 10
6.911054999999999
 20
0.065446
 30
0.0
 11
6.894883
 21
0.073899
 31
0.0
  0
LINE
  5
770
330
1F
100
AcDbEntity
  8
1
  6
CONTINUOUS
370
50
 62
4
100
AcDbLine
 10
6.928516
 20
0.056139
 30
0.0
 11
6.927
 21
0.056923
 31
0.0
  0
LINE
  5
771
330
1F
100
AcDbEntity
  8
1
  6
CONTINUOUS
370
50
 62
4
100
AcDbLine
 10
6.797952
 20
0.117999
 30
0.0
 11
6.797
 21
0.118489
 31
0.0
  0
LINE
  5
772
330
1F
100
AcDbEntity
  8
1
  6
CONTINUOUS
370
50
 62
4
100
AcDbLine
 10
6.798907
 20
0.117509
 30
0.0
 11
6.797952
 21
0.117999
 31
0.0
  0
LINE
  5
773
330
1F
100
AcDbEntity
  8
1
  6
CONTINUOUS
370
50
 62
4
100
AcDbLine
 10
6.799867
 20
0.117019
 30
0.0
 11
6.798907
 21
0.117509
 31
0.0
  0
LINE
  5
774
330
1F
100
AcDbEntity
  8
1
  6
CONTINUOUS
370
50
 62
4
100
AcDbLine
 10
6.800831
 20
0.116528
 30
0.0
 11
6.799867
 21
0.117019
 31
0.0
  0
LINE
  5
775
330
1F
100
AcDbEntity
  8
1
  6
CONTINUOUS
370
50
 62
4
100
AcDbLine
 10
6.924952999999999
 20
0.026273
 30
0.0
 11
6.923573999999999
 21
0.026974
 31
0.0
  0
LINE
  5
776
330
1F
100
AcDbEntity
  8
1
  6
CONTINUOUS
370
50
 62
4
100
AcDbLine
 10
6.923573999999999
 20
0.026974
 30
0.0
 11
6.922187
 21
0.027679
 31
0.0
  0
LINE
  5
777
330
1F
100
AcDbEntity
  8
1
  6
CONTINUOUS
370
50
 62
4
100
AcDbLine
 10
6.920793
 20
0.028387
 30
0.0
 11
6.919391999999999
 21
0.029099
 31
0.0
  0
LINE
  5
778
330
1F
100
AcDbEntity
  8
1
  6
CONTINUOUS
370
50
 62
4
100
AcDbLine
 10
6.92768
 20
0.024888
 30
0.0
 11
6.926322
 21
0.025578
 31
0.0
  0
LINE
  5
779
330
1F
100
AcDbEntity
  8
1
  6
CONTINUOUS
370
50
 62
4
100
AcDbLine
 10
6.955743
 20
0.010633
 30
0.0
 11
6.948665
 21
0.014229
 31
0.0
  0
LINE
  5
77A
330
1F
100
AcDbEntity
  8
1
  6
CONTINUOUS
370
50
 62
4
100
AcDbLine
 10
6.934616999999999
 20
0.021364
 30
0.0
 11
6.92768
 21
0.024888
 31
0.0
  0
LINE
  5
77B
330
1F
100
AcDbEntity
  8
1
  6
CONTINUOUS
370
50
 62
4
100
AcDbLine
 10
6.948665
 20
0.014229
 30
0.0
 11
6.941617
 21
0.017809
 31
0.0
  0
LINE
  5
77C
330
1F
100
AcDbEntity
  8
1
  6
CONTINUOUS
370
50
 62
4
100
AcDbLine
 10
6.976999999999999
 20
-0.000163
 30
0.0
 11
6.969927999999999
 21
0.003429
 31
0.0
  0
LINE
  5
77D
330
1F
100
AcDbEntity
  8
1
  6
CONTINUOUS
370
50
 62
4
100
AcDbLine
 10
6.962836999999999
 20
0.00703
 30
0.0
 11
6.955743
 21
0.010633
 31
0.0
  0
LINE
  5
77E
330
1F
100
AcDbEntity
  8
1
  6
CONTINUOUS
370
50
 62
4
100
AcDbLine
 10
6.922187
 20
0.027679
 30
0.0
 11
6.920793
 21
0.028387
 31
0.0
  0
LINE
  5
77F
330
1F
100
AcDbEntity
  8
1
  6
CONTINUOUS
370
50
 62
4
100
AcDbLine
 10
6.941617
 20
0.017809
 30
0.0
 11
6.934616999999999
 21
0.021364
 31
0.0
  0
LINE
  5
780
330
1F
100
AcDbEntity
  8
1
  6
CONTINUOUS
370
50
 62
4
100
AcDbLine
 10
6.969927999999999
 20
0.003429
 30
0.0
 11
6.962836999999999
 21
0.00703
 31
0.0
  0
LINE
  5
781
330
1F
100
AcDbEntity
  8
1
  6
CONTINUOUS
370
50
 62
4
100
AcDbLine
 10
6.926322
 20
0.025578
 30
0.0
 11
6.924952999999999
 21
0.026273
 31
0.0
  0
LINE
  5
782
330
1F
100
AcDbEntity
  8
1
  6
CONTINUOUS
370
50
 62
4
100
AcDbLine
 10
6.801798
 20
0.116038
 30
0.0
 11
6.800831
 21
0.116528
 31
0.0
  0
LINE
  5
783
330
1F
100
AcDbEntity
  8
1
  6
CONTINUOUS
370
50
 62
4
100
AcDbLine
 10
6.80277
 20
0.115547
 30
0.0
 11
6.801798
 21
0.116038
 31
0.0
  0
LINE
  5
784
330
1F
100
AcDbEntity
  8
1
  6
CONTINUOUS
370
50
 62
4
100
AcDbLine
 10
6.894883
 20
0.073899
 30
0.0
 11
6.878381999999999
 21
0.082229
 31
0.0
  0
LINE
  5
785
330
1F
100
AcDbEntity
  8
1
  6
CONTINUOUS
370
50
 62
4
100
AcDbLine
 10
6.85941
 20
0.071048
 30
0.0
 11
6.841978999999999
 21
0.079698
 31
0.0
  0
LINE
  5
786
330
1F
100
AcDbEntity
  8
1
  6
CONTINUOUS
370
50
 62
4
100
AcDbLine
 10
6.952903
 20
0.141609
 30
0.0
 11
6.950477999999999
 21
0.1428
 31
0.0
  0
LINE
  5
787
330
1F
100
AcDbEntity
  8
1
  6
CONTINUOUS
370
50
 62
4
100
AcDbLine
 10
6.878381999999999
 20
0.082229
 30
0.0
 11
6.861447
 21
0.090381
 31
0.0
  0
LINE
  5
788
330
1F
100
AcDbEntity
  8
1
  6
CONTINUOUS
370
50
 62
4
100
AcDbLine
 10
6.930067999999999
 20
0.055401
 30
0.0
 11
6.928516
 21
0.056139
 31
0.0
  0
LINE
  5
789
330
1F
100
AcDbEntity
  8
1
  6
CONTINUOUS
370
50
 62
4
100
AcDbLine
 10
6.841978999999999
 20
0.079698
 30
0.0
 11
6.824488
 21
0.087921
 31
0.0
  0
LINE
  5
78A
330
1F
100
AcDbEntity
  8
1
  6
CONTINUOUS
370
50
 62
4
100
AcDbLine
 10
6.795521
 20
0.121372
 30
0.0
 11
6.79479
 21
0.121715
 31
0.0
  0
LINE
  5
78B
330
1F
100
AcDbEntity
  8
1
  6
CONTINUOUS
370
50
 62
4
100
AcDbLine
 10
6.797
 20
0.120679
 30
0.0
 11
6.796258
 21
0.121027
 31
0.0
  0
LINE
  5
78C
330
1F
100
AcDbEntity
  8
1
  6
CONTINUOUS
370
50
 62
4
100
AcDbLine
 10
6.796258
 20
0.121027
 30
0.0
 11
6.795521
 21
0.121372
 31
0.0
  0
LINE
  5
78D
330
1F
100
AcDbEntity
  8
1
  6
CONTINUOUS
370
50
 62
4
100
AcDbLine
 10
6.79479
 20
0.121715
 30
0.0
 11
6.794063
 21
0.122055
 31
0.0
  0
LINE
  5
78E
330
1F
100
AcDbEntity
  8
1
  6
CONTINUOUS
370
50
 62
4
100
AcDbLine
 10
6.793341
 20
0.122392
 30
0.0
 11
6.792624
 21
0.122727
 31
0.0
  0
LINE
  5
78F
330
1F
100
AcDbEntity
  8
1
  6
CONTINUOUS
370
50
 62
4
100
AcDbLine
 10
6.794063
 20
0.122055
 30
0.0
 11
6.793341
 21
0.122392
 31
0.0
  0
LINE
  5
790
330
1F
100
AcDbEntity
  8
1
  6
CONTINUOUS
370
50
 62
4
100
AcDbLine
 10
6.793483999999999
 20
0.122326
 30
0.0
 11
6.792624
 21
0.122727
 31
0.0
  0
LINE
  5
791
330
1F
100
AcDbEntity
  8
1
  6
CONTINUOUS
370
50
 62
4
100
AcDbLine
 10
6.794344
 20
0.121926
 30
0.0
 11
6.793483999999999
 21
0.122326
 31
0.0
  0
LINE
  5
792
330
1F
100
AcDbEntity
  8
1
  6
CONTINUOUS
370
50
 62
4
100
AcDbLine
 10
6.795204999999999
 20
0.121526
 30
0.0
 11
6.794344
 21
0.121926
 31
0.0
  0
LINE
  5
793
330
1F
100
AcDbEntity
  8
1
  6
CONTINUOUS
370
50
 62
4
100
AcDbLine
 10
6.797785999999999
 20
0.120329
 30
0.0
 11
6.796926
 21
0.120728
 31
0.0
  0
LINE
  5
794
330
1F
100
AcDbEntity
  8
1
  6
CONTINUOUS
370
50
 62
4
100
AcDbLine
 10
6.796065
 20
0.121127
 30
0.0
 11
6.795204999999999
 21
0.121526
 31
0.0
  0
LINE
  5
795
330
1F
100
AcDbEntity
  8
1
  6
CONTINUOUS
370
50
 62
4
100
AcDbLine
 10
6.796926
 20
0.120728
 30
0.0
 11
6.796065
 21
0.121127
 31
0.0
  0
LINE
  5
796
330
1F
100
AcDbEntity
  8
1
  6
CONTINUOUS
370
50
 62
4
100
AcDbLine
 10
6.799061999999999
 20
0.11974
 30
0.0
 11
6.797781
 21
0.120332
 31
0.0
  0
LINE
  5
797
330
1F
100
AcDbEntity
  8
1
  6
CONTINUOUS
370
50
 62
4
100
AcDbLine
 10
6.800344
 20
0.119148
 30
0.0
 11
6.799061999999999
 21
0.11974
 31
0.0
  0
LINE
  5
798
330
1F
100
AcDbEntity
  8
1
  6
CONTINUOUS
370
50
 62
4
100
AcDbLine
 10
6.792624
 20
0.122727
 30
0.0
 11
6.785816
 21
0.125867
 31
0.0
  0
LINE
  5
799
330
1F
100
AcDbEntity
  8
1
  6
CONTINUOUS
370
50
 62
4
100
AcDbLine
 10
6.801912
 20
0.118426
 30
0.0
 11
6.800344
 21
0.119148
 31
0.0
  0
LINE
  5
79A
330
1F
100
AcDbEntity
  8
1
  6
CONTINUOUS
370
50
 62
4
100
AcDbLine
 10
6.803669999999999
 20
0.117618
 30
0.0
 11
6.801912
 21
0.118426
 31
0.0
  0
LINE
  5
79B
330
1F
100
AcDbEntity
  8
1
  6
CONTINUOUS
370
50
 62
4
100
AcDbLine
 10
6.805334999999999
 20
0.116856
 30
0.0
 11
6.803669999999999
 21
0.117618
 31
0.0
  0
LINE
  5
79C
330
1F
100
AcDbEntity
  8
1
  6
CONTINUOUS
370
50
 62
4
100
AcDbLine
 10
6.806999999999999
 20
0.116095
 30
0.0
 11
6.805334999999999
 21
0.116856
 31
0.0
  0
LINE
  5
79D
330
1F
100
AcDbEntity
  8
1
  6
CONTINUOUS
370
50
 62
4
100
AcDbLine
 10
6.861447
 20
0.090381
 30
0.0
 11
6.843973999999999
 21
0.098302
 31
0.0
  0
LINE
  5
79E
330
1F
100
AcDbEntity
  8
1
  6
CONTINUOUS
370
50
 62
4
100
AcDbLine
 10
6.785816
 20
0.125867
 30
0.0
 11
6.779427999999999
 21
0.128725
 31
0.0
  0
LINE
  5
79F
330
1F
100
AcDbEntity
  8
1
  6
CONTINUOUS
370
50
 62
4
100
AcDbLine
 10
6.824488
 20
0.087921
 30
0.0
 11
6.806999999999999
 21
0.095699
 31
0.0
  0
LINE
  5
7A0
330
1F
100
AcDbEntity
  8
1
  6
CONTINUOUS
370
50
 62
4
100
AcDbLine
 10
6.717701
 20
-0.13582
 30
0.0
 11
6.712623
 21
-0.133569
 31
0.0
  0
LINE
  5
7A1
330
1F
100
AcDbEntity
  8
1
  6
CONTINUOUS
370
50
 62
4
100
AcDbLine
 10
6.931653
 20
0.054716
 30
0.0
 11
6.930067999999999
 21
0.055401
 31
0.0
  0
LINE
  5
7A2
330
1F
100
AcDbEntity
  8
1
  6
CONTINUOUS
370
50
 62
4
100
AcDbLine
 10
6.920389999999999
 20
0.028015
 30
0.0
 11
6.901491
 21
0.03609
 31
0.0
  0
LINE
  5
7A3
330
1F
100
AcDbEntity
  8
1
  6
CONTINUOUS
370
50
 62
4
100
AcDbLine
 10
6.779427999999999
 20
0.128725
 30
0.0
 11
6.773413
 21
0.131286
 31
0.0
  0
LINE
  5
7A4
330
1F
100
AcDbEntity
  8
1
  6
CONTINUOUS
370
50
 62
4
100
AcDbLine
 10
6.935618
 20
0.021541
 30
0.0
 11
6.92768
 21
0.024913
 31
0.0
  0
LINE
  5
7A5
330
1F
100
AcDbEntity
  8
1
  6
CONTINUOUS
370
50
 62
4
100
AcDbLine
 10
6.975306
 20
0.004711
 30
0.0
 11
6.967368
 21
0.00808
 31
0.0
  0
LINE
  5
7A6
330
1F
100
AcDbEntity
  8
1
  6
CONTINUOUS
370
50
 62
4
100
AcDbLine
 10
6.901491
 20
0.03609
 30
0.0
 11
6.882593
 21
0.044107
 31
0.0
  0
LINE
  5
7A7
330
1F
100
AcDbEntity
  8
1
  6
CONTINUOUS
370
50
 62
4
100
AcDbLine
 10
6.943556
 20
0.018174
 30
0.0
 11
6.935618
 21
0.021541
 31
0.0
  0
LINE
  5
7A8
330
1F
100
AcDbEntity
  8
1
  6
CONTINUOUS
370
50
 62
4
100
AcDbLine
 10
6.967368
 20
0.00808
 30
0.0
 11
6.959430999999999
 21
0.011445
 31
0.0
  0
LINE
  5
7A9
330
1F
100
AcDbEntity
  8
1
  6
CONTINUOUS
370
50
 62
4
100
AcDbLine
 10
6.951492999999999
 20
0.014809
 30
0.0
 11
6.943556
 21
0.018174
 31
0.0
  0
LINE
  5
7AA
330
1F
100
AcDbEntity
  8
1
  6
CONTINUOUS
370
50
 62
4
100
AcDbLine
 10
6.959430999999999
 20
0.011445
 30
0.0
 11
6.951492999999999
 21
0.014809
 31
0.0
  0
LINE
  5
7AB
330
1F
100
AcDbEntity
  8
1
  6
CONTINUOUS
370
50
 62
4
100
AcDbLine
 10
6.843973999999999
 20
0.098302
 30
0.0
 11
6.82586
 21
0.105935
 31
0.0
  0
LINE
  5
7AC
330
1F
100
AcDbEntity
  8
1
  6
CONTINUOUS
370
50
 62
4
100
AcDbLine
 10
6.82586
 20
-0.10609
 30
0.0
 11
6.806999999999999
 21
-0.098243
 31
0.0
  0
LINE
  5
7AD
330
1F
100
AcDbEntity
  8
1
  6
CONTINUOUS
370
50
 62
4
100
AcDbLine
 10
6.950477999999999
 20
0.1428
 30
0.0
 11
6.947995
 21
0.143828
 31
0.0
  0
LINE
  5
7AE
330
1F
100
AcDbEntity
  8
1
  6
CONTINUOUS
370
50
 62
4
100
AcDbLine
 10
6.882593
 20
0.044107
 30
0.0
 11
6.863694
 21
0.051771
 31
0.0
  0
LINE
  5
7AF
330
1F
100
AcDbEntity
  8
1
  6
CONTINUOUS
370
50
 62
4
100
AcDbLine
 10
6.773413
 20
0.131286
 30
0.0
 11
6.767725
 21
0.13354
 31
0.0
  0
LINE
  5
7B0
330
1F
100
AcDbEntity
  8
1
  6
CONTINUOUS
370
50
 62
4
100
AcDbLine
 10
6.843973999999999
 20
-0.113223
 30
0.0
 11
6.82586
 21
-0.10609
 31
0.0
  0
LINE
  5
7B1
330
1F
100
AcDbEntity
  8
1
  6
CONTINUOUS
370
50
 62
4
100
AcDbLine
 10
6.933266
 20
0.05409
 30
0.0
 11
6.931653
 21
0.054716
 31
0.0
  0
LINE
  5
7B2
330
1F
100
AcDbEntity
  8
1
  6
CONTINUOUS
370
50
 62
4
100
AcDbLine
 10
6.82586
 20
0.105935
 30
0.0
 11
6.806999999999999
 21
0.113229
 31
0.0
  0
LINE
  5
7B3
330
1F
100
AcDbEntity
  8
1
  6
CONTINUOUS
370
50
 62
4
100
AcDbLine
 10
6.863694
 20
0.051771
 30
0.0
 11
6.844796
 21
0.059054
 31
0.0
  0
LINE
  5
7B4
330
1F
100
AcDbEntity
  8
1
  6
CONTINUOUS
370
50
 62
4
100
AcDbLine
 10
6.861447
 20
-0.119658
 30
0.0
 11
6.843973999999999
 21
-0.113223
 31
0.0
  0
LINE
  5
7B5
330
1F
100
AcDbEntity
  8
1
  6
CONTINUOUS
370
50
 62
4
100
AcDbLine
 10
6.844796
 20
0.059054
 30
0.0
 11
6.825896999999999
 21
0.065943
 31
0.0
  0
LINE
  5
7B6
330
1F
100
AcDbEntity
  8
1
  6
CONTINUOUS
370
50
 62
4
100
AcDbLine
 10
6.767725
 20
0.13354
 30
0.0
 11
6.762315
 21
0.135475
 31
0.0
  0
LINE
  5
7B7
330
1F
100
AcDbEntity
  8
1
  6
CONTINUOUS
370
50
 62
4
100
AcDbLine
 10
6.722733
 20
-0.137593
 30
0.0
 11
6.717701
 21
-0.13582
 31
0.0
  0
LINE
  5
7B8
330
1F
100
AcDbEntity
  8
1
  6
CONTINUOUS
370
50
 62
4
100
AcDbLine
 10
6.824488
 20
-0.121434
 30
0.0
 11
6.806999999999999
 21
-0.115386
 31
0.0
  0
LINE
  5
7B9
330
1F
100
AcDbEntity
  8
1
  6
CONTINUOUS
370
50
 62
4
100
AcDbLine
 10
6.825896999999999
 20
0.065943
 30
0.0
 11
6.806998999999999
 21
0.072421
 31
0.0
  0
LINE
  5
7BA
330
1F
100
AcDbEntity
  8
1
  6
CONTINUOUS
370
50
 62
4
100
AcDbLine
 10
6.934898
 20
0.053532
 30
0.0
 11
6.933266
 21
0.05409
 31
0.0
  0
LINE
  5
7BB
330
1F
100
AcDbEntity
  8
1
  6
CONTINUOUS
370
50
 62
4
100
AcDbLine
 10
6.947995
 20
0.143828
 30
0.0
 11
6.945465
 21
0.14469
 31
0.0
  0
LINE
  5
7BC
330
1F
100
AcDbEntity
  8
1
  6
CONTINUOUS
370
50
 62
4
100
AcDbLine
 10
6.878381999999999
 20
-0.125413
 30
0.0
 11
6.861447
 21
-0.119658
 31
0.0
  0
LINE
  5
7BD
330
1F
100
AcDbEntity
  8
1
  6
CONTINUOUS
370
50
 62
4
100
AcDbLine
 10
6.797785999999999
 20
0.120329
 30
0.0
 11
6.797651999999999
 21
0.120374
 31
0.0
  0
LINE
  5
7BE
330
1F
100
AcDbEntity
  8
1
  6
CONTINUOUS
370
50
 62
4
100
AcDbLine
 10
6.797781
 20
0.120332
 30
0.0
 11
6.797647
 21
0.120377
 31
0.0
  0
LINE
  5
7BF
330
1F
100
AcDbEntity
  8
1
  6
CONTINUOUS
370
50
 62
4
100
AcDbLine
 10
6.903189999999999
 20
-0.018479
 30
0.0
 11
6.884409
 21
-0.012397
 31
0.0
  0
LINE
  5
7C0
330
1F
100
AcDbEntity
  8
1
  6
CONTINUOUS
370
50
 62
4
100
AcDbLine
 10
6.884409
 20
-0.012397
 30
0.0
 11
6.865628
 21
-0.006324
 31
0.0
  0
LINE
  5
7C1
330
1F
100
AcDbEntity
  8
1
  6
CONTINUOUS
370
50
 62
4
100
AcDbLine
 10
6.902544
 20
-0.018241
 30
0.0
 11
6.884287
 21
-0.012342
 31
0.0
  0
LINE
  5
7C2
330
1F
100
AcDbEntity
  8
1
  6
CONTINUOUS
370
50
 62
4
100
AcDbLine
 10
6.865628
 20
-0.006324
 30
0.0
 11
6.846845
 21
-0.000293
 31
0.0
  0
LINE
  5
7C3
330
1F
100
AcDbEntity
  8
1
  6
CONTINUOUS
370
50
 62
4
100
AcDbLine
 10
6.884287
 20
-0.012342
 30
0.0
 11
6.865605
 21
-0.006368
 31
0.0
  0
LINE
  5
7C4
330
1F
100
AcDbEntity
  8
1
  6
CONTINUOUS
370
50
 62
4
100
AcDbLine
 10
6.846845
 20
-0.000293
 30
0.0
 11
6.840205999999999
 21
0.001825
 31
0.0
  0
LINE
  5
7C5
330
1F
100
AcDbEntity
  8
1
  6
CONTINUOUS
370
50
 62
4
100
AcDbLine
 10
6.841978999999999
 20
-0.126999
 30
0.0
 11
6.824488
 21
-0.121434
 31
0.0
  0
LINE
  5
7C6
330
1F
100
AcDbEntity
  8
1
  6
CONTINUOUS
370
50
 62
4
100
AcDbLine
 10
6.840205999999999
 20
0.001825
 30
0.0
 11
6.833567
 21
0.003934
 31
0.0
  0
LINE
  5
7C7
330
1F
100
AcDbEntity
  8
1
  6
CONTINUOUS
370
50
 62
4
100
AcDbLine
 10
6.833567
 20
0.003934
 30
0.0
 11
6.826928
 21
0.006034
 31
0.0
  0
LINE
  5
7C8
330
1F
100
AcDbEntity
  8
1
  6
CONTINUOUS
370
50
 62
4
100
AcDbLine
 10
6.865605
 20
-0.006368
 30
0.0
 11
6.846827999999999
 21
-0.000447
 31
0.0
  0
LINE
  5
7C9
330
1F
100
AcDbEntity
  8
1
  6
CONTINUOUS
370
50
 62
4
100
AcDbLine
 10
6.826928
 20
0.006034
 30
0.0
 11
6.820288
 21
0.008123
 31
0.0
  0
LINE
  5
7CA
330
1F
100
AcDbEntity
  8
1
  6
CONTINUOUS
370
50
 62
4
100
AcDbLine
 10
6.820288
 20
0.008123
 30
0.0
 11
6.813649
 21
0.010202
 31
0.0
  0
LINE
  5
7CB
330
1F
100
AcDbEntity
  8
1
  6
CONTINUOUS
370
50
 62
4
100
AcDbLine
 10
6.921327
 20
-0.024121
 30
0.0
 11
6.902544
 21
-0.018241
 31
0.0
  0
LINE
  5
7CC
330
1F
100
AcDbEntity
  8
1
  6
CONTINUOUS
370
50
 62
4
100
AcDbLine
 10
6.921971999999999
 20
-0.024348
 30
0.0
 11
6.903189999999999
 21
-0.018479
 31
0.0
  0
LINE
  5
7CD
330
1F
100
AcDbEntity
  8
1
  6
CONTINUOUS
370
50
 62
4
100
AcDbLine
 10
6.813649
 20
0.010202
 30
0.0
 11
6.807009
 21
0.012268
 31
0.0
  0
LINE
  5
7CE
330
1F
100
AcDbEntity
  8
1
  6
CONTINUOUS
370
50
 62
4
100
AcDbLine
 10
6.762315
 20
0.135475
 30
0.0
 11
6.757136
 21
0.137078
 31
0.0
  0
LINE
  5
7CF
330
1F
100
AcDbEntity
  8
1
  6
CONTINUOUS
370
50
 62
4
100
AcDbLine
 10
6.894883
 20
-0.130507
 30
0.0
 11
6.878381999999999
 21
-0.125413
 31
0.0
  0
LINE
  5
7D0
330
1F
100
AcDbEntity
  8
1
  6
CONTINUOUS
370
50
 62
4
100
AcDbLine
 10
6.976999999999999
 20
0.096171
 30
0.0
 11
6.969927999999999
 21
0.098338
 31
0.0
  0
LINE
  5
7D1
330
1F
100
AcDbEntity
  8
1
  6
CONTINUOUS
370
50
 62
4
100
AcDbLine
 10
6.969927999999999
 20
0.098338
 30
0.0
 11
6.962836999999999
 21
0.100458
 31
0.0
  0
LINE
  5
7D2
330
1F
100
AcDbEntity
  8
1
  6
CONTINUOUS
370
50
 62
4
100
AcDbLine
 10
6.940754999999999
 20
-0.029959
 30
0.0
 11
6.921971999999999
 21
-0.024348
 31
0.0
  0
LINE
  5
7D3
330
1F
100
AcDbEntity
  8
1
  6
CONTINUOUS
370
50
 62
4
100
AcDbLine
 10
6.940404
 20
-0.029816
 30
0.0
 11
6.921327
 21
-0.024121
 31
0.0
  0
LINE
  5
7D4
330
1F
100
AcDbEntity
  8
1
  6
CONTINUOUS
370
50
 62
4
100
AcDbLine
 10
6.936538
 20
0.05305
 30
0.0
 11
6.934898
 21
0.053532
 31
0.0
  0
LINE
  5
7D5
330
1F
100
AcDbEntity
  8
1
  6
CONTINUOUS
370
50
 62
4
100
AcDbLine
 10
6.962836999999999
 20
0.100458
 30
0.0
 11
6.955743
 21
0.102524
 31
0.0
  0
LINE
  5
7D6
330
1F
100
AcDbEntity
  8
1
  6
CONTINUOUS
370
50
 62
4
100
AcDbLine
 10
6.85941
 20
-0.132048
 30
0.0
 11
6.841978999999999
 21
-0.126999
 31
0.0
  0
LINE
  5
7D7
330
1F
100
AcDbEntity
  8
1
  6
CONTINUOUS
370
50
 62
4
100
AcDbLine
 10
6.476999999999999
 20
0.13995
 30
0.0
 11
-0.01
 21
1.99995
 31
0.0
  0
LINE
  5
7D8
330
1F
100
AcDbEntity
  8
1
  6
CONTINUOUS
370
50
 62
4
100
AcDbLine
 10
6.95954
 20
-0.035334
 30
0.0
 11
6.940754999999999
 21
-0.029959
 31
0.0
  0
LINE
  5
7D9
330
1F
100
AcDbEntity
  8
1
  6
CONTINUOUS
370
50
 62
4
100
AcDbLine
 10
6.959581999999999
 20
-0.035288
 30
0.0
 11
6.940404
 21
-0.029816
 31
0.0
  0
LINE
  5
7DA
330
1F
100
AcDbEntity
  8
1
  6
CONTINUOUS
370
50
 62
4
100
AcDbLine
 10
6.955743
 20
0.102524
 30
0.0
 11
6.948665
 21
0.104531
 31
0.0
  0
LINE
  5
7DB
330
1F
100
AcDbEntity
  8
1
  6
CONTINUOUS
370
50
 62
4
100
AcDbLine
 10
6.948665
 20
0.104531
 30
0.0
 11
6.941617
 21
0.106472
 31
0.0
  0
LINE
  5
7DC
330
1F
100
AcDbEntity
  8
1
  6
CONTINUOUS
370
50
 62
4
100
AcDbLine
 10
6.911054999999999
 20
-0.134957
 30
0.0
 11
6.894883
 21
-0.130507
 31
0.0
  0
LINE
  5
7DD
330
1F
100
AcDbEntity
  8
1
  6
CONTINUOUS
370
50
 62
4
100
AcDbLine
 10
6.880452
 20
0.096153
 30
0.0
 11
6.863588999999999
 21
0.100734
 31
0.0
  0
LINE
  5
7DE
330
1F
100
AcDbEntity
  8
1
  6
CONTINUOUS
370
50
 62
4
100
AcDbLine
 10
6.885915
 20
0.094669
 30
0.0
 11
6.880452
 21
0.096153
 31
0.0
  0
LINE
  5
7DF
330
1F
100
AcDbEntity
  8
1
  6
CONTINUOUS
370
50
 62
4
100
AcDbLine
 10
6.863588999999999
 20
0.100734
 30
0.0
 11
6.846457
 21
0.105384
 31
0.0
  0
LINE
  5
7E0
330
1F
100
AcDbEntity
  8
1
  6
CONTINUOUS
370
50
 62
4
100
AcDbLine
 10
6.945465
 20
0.14469
 30
0.0
 11
6.942895999999999
 21
0.145387
 31
0.0
  0
LINE
  5
7E1
330
1F
100
AcDbEntity
  8
1
  6
CONTINUOUS
370
50
 62
4
100
AcDbLine
 10
6.846457
 20
0.105384
 30
0.0
 11
6.837172
 21
0.107901
 31
0.0
  0
LINE
  5
7E2
330
1F
100
AcDbEntity
  8
1
  6
CONTINUOUS
370
50
 62
4
100
AcDbLine
 10
6.837172
 20
0.107901
 30
0.0
 11
6.822125
 21
0.111978
 31
0.0
  0
LINE
  5
7E3
330
1F
100
AcDbEntity
  8
1
  6
CONTINUOUS
370
50
 62
4
100
AcDbLine
 10
6.822125
 20
0.111978
 30
0.0
 11
6.806998
 21
0.116076
 31
0.0
  0
LINE
  5
7E4
330
1F
100
AcDbEntity
  8
1
  6
CONTINUOUS
370
50
 62
4
100
AcDbLine
 10
6.904154
 20
0.08974
 30
0.0
 11
6.885915
 21
0.094669
 31
0.0
  0
LINE
  5
7E5
330
1F
100
AcDbEntity
  8
1
  6
CONTINUOUS
370
50
 62
4
100
AcDbLine
 10
6.941617
 20
0.106472
 30
0.0
 11
6.934616999999999
 21
0.10834
 31
0.0
  0
LINE
  5
7E6
330
1F
100
AcDbEntity
  8
1
  6
CONTINUOUS
370
50
 62
4
100
AcDbLine
 10
6.876608999999999
 20
-0.136532
 30
0.0
 11
6.85941
 21
-0.132048
 31
0.0
  0
LINE
  5
7E7
330
1F
100
AcDbEntity
  8
1
  6
CONTINUOUS
370
50
 62
4
100
AcDbLine
 10
6.934616999999999
 20
0.10834
 30
0.0
 11
6.92768
 21
0.11013
 31
0.0
  0
LINE
  5
7E8
330
1F
100
AcDbEntity
  8
1
  6
CONTINUOUS
370
50
 62
4
100
AcDbLine
 10
6.922676999999999
 20
0.084989
 30
0.0
 11
6.904154
 21
0.08974
 31
0.0
  0
LINE
  5
7E9
330
1F
100
AcDbEntity
  8
1
  6
CONTINUOUS
370
50
 62
4
100
AcDbLine
 10
6.727772
 20
-0.138878
 30
0.0
 11
6.722733
 21
-0.137593
 31
0.0
  0
LINE
  5
7EA
330
1F
100
AcDbEntity
  8
1
  6
CONTINUOUS
370
50
 62
4
100
AcDbLine
 10
6.926095999999999
 20
-0.014293
 30
0.0
 11
6.92038
 21
-0.012842
 31
0.0
  0
LINE
  5
7EB
330
1F
100
AcDbEntity
  8
1
  6
CONTINUOUS
370
50
 62
4
100
AcDbLine
 10
6.757136
 20
0.137078
 30
0.0
 11
6.752148
 21
0.138339
 31
0.0
  0
LINE
  5
7EC
330
1F
100
AcDbEntity
  8
1
  6
CONTINUOUS
370
50
 62
4
100
AcDbLine
 10
6.931732999999999
 20
-0.015715
 30
0.0
 11
6.926095999999999
 21
-0.014293
 31
0.0
  0
LINE
  5
7ED
330
1F
100
AcDbEntity
  8
1
  6
CONTINUOUS
370
50
 62
4
100
AcDbLine
 10
6.937278
 20
-0.017106
 30
0.0
 11
6.931732999999999
 21
-0.015715
 31
0.0
  0
LINE
  5
7EE
330
1F
100
AcDbEntity
  8
1
  6
CONTINUOUS
370
50
 62
4
100
AcDbLine
 10
6.942793
 20
-0.018481
 30
0.0
 11
6.937278
 21
-0.017106
 31
0.0
  0
LINE
  5
7EF
330
1F
100
AcDbEntity
  8
1
  6
CONTINUOUS
370
50
 62
4
100
AcDbLine
 10
6.948306
 20
-0.019847
 30
0.0
 11
6.942793
 21
-0.018481
 31
0.0
  0
LINE
  5
7F0
330
1F
100
AcDbEntity
  8
1
  6
CONTINUOUS
370
50
 62
4
100
AcDbLine
 10
6.925367
 20
0.084324
 30
0.0
 11
6.922676999999999
 21
0.084989
 31
0.0
  0
LINE
  5
7F1
330
1F
100
AcDbEntity
  8
1
  6
CONTINUOUS
370
50
 62
4
100
AcDbLine
 10
6.938183
 20
0.052644
 30
0.0
 11
6.936538
 21
0.05305
 31
0.0
  0
LINE
  5
7F2
330
1F
100
AcDbEntity
  8
1
  6
CONTINUOUS
370
50
 62
4
100
AcDbLine
 10
6.953816
 20
-0.021205
 30
0.0
 11
6.948306
 21
-0.019847
 31
0.0
  0
LINE
  5
7F3
330
1F
100
AcDbEntity
  8
1
  6
CONTINUOUS
370
50
 62
4
100
AcDbLine
 10
6.959324
 20
-0.022553
 30
0.0
 11
6.953816
 21
-0.021205
 31
0.0
  0
LINE
  5
7F4
330
1F
100
AcDbEntity
  8
1
  6
CONTINUOUS
370
50
 62
4
100
AcDbLine
 10
6.92768
 20
0.11013
 30
0.0
 11
6.926322
 21
0.110461
 31
0.0
  0
LINE
  5
7F5
330
1F
100
AcDbEntity
  8
1
  6
CONTINUOUS
370
50
 62
4
100
AcDbLine
 10
6.927
 20
-0.13878
 30
0.0
 11
6.911054999999999
 21
-0.134957
 31
0.0
  0
LINE
  5
7F6
330
1F
100
AcDbEntity
  8
1
  6
CONTINUOUS
370
50
 62
4
100
AcDbLine
 10
6.941961
 20
0.080356
 30
0.0
 11
6.925367
 21
0.084324
 31
0.0
  0
LINE
  5
7F7
330
1F
100
AcDbEntity
  8
1
  6
CONTINUOUS
370
50
 62
4
100
AcDbLine
 10
6.893314999999999
 20
-0.140369
 30
0.0
 11
6.876608999999999
 21
-0.136532
 31
0.0
  0
LINE
  5
7F8
330
1F
100
AcDbEntity
  8
1
  6
CONTINUOUS
370
50
 62
4
100
AcDbLine
 10
6.958759
 20
0.076559
 30
0.0
 11
6.941961
 21
0.080356
 31
0.0
  0
LINE
  5
7F9
330
1F
100
AcDbEntity
  8
1
  6
CONTINUOUS
370
50
 62
4
100
AcDbLine
 10
6.926322
 20
0.110461
 30
0.0
 11
6.924952999999999
 21
0.11077
 31
0.0
  0
LINE
  5
7FA
330
1F
100
AcDbEntity
  8
1
  6
CONTINUOUS
370
50
 62
4
100
AcDbLine
 10
6.924952999999999
 20
0.11077
 30
0.0
 11
6.923573999999999
 21
0.111056
 31
0.0
  0
LINE
  5
7FB
330
1F
100
AcDbEntity
  8
1
  6
CONTINUOUS
370
50
 62
4
100
AcDbLine
 10
6.942895999999999
 20
0.145387
 30
0.0
 11
6.940295
 21
0.14592
 31
0.0
  0
LINE
  5
7FC
330
1F
100
AcDbEntity
  8
1
  6
CONTINUOUS
370
50
 62
4
100
AcDbLine
 10
6.939832999999999
 20
0.052317
 30
0.0
 11
6.938183
 21
0.052644
 31
0.0
  0
LINE
  5
7FD
330
1F
100
AcDbEntity
  8
1
  6
CONTINUOUS
370
50
 62
4
100
AcDbLine
 10
6.928516
 20
-0.139074
 30
0.0
 11
6.927
 21
-0.13878
 31
0.0
  0
LINE
  5
7FE
330
1F
100
AcDbEntity
  8
1
  6
CONTINUOUS
370
50
 62
4
100
AcDbLine
 10
6.909951
 20
-0.14357
 30
0.0
 11
6.893314999999999
 21
-0.140369
 31
0.0
  0
LINE
  5
7FF
330
1F
100
AcDbEntity
  8
1
  6
CONTINUOUS
370
50
 62
4
100
AcDbLine
 10
6.923573999999999
 20
0.111056
 30
0.0
 11
6.922187
 21
0.11132
 31
0.0
  0
LINE
  5
800
330
1F
100
AcDbEntity
  8
1
  6
CONTINUOUS
370
50
 62
4
100
AcDbLine
 10
6.752148
 20
0.138339
 30
0.0
 11
6.747315
 21
0.139246
 31
0.0
  0
LINE
  5
801
330
1F
100
AcDbEntity
  8
1
  6
CONTINUOUS
370
50
 62
4
100
AcDbLine
 10
6.922187
 20
0.11132
 30
0.0
 11
6.920793
 21
0.111564
 31
0.0
  0
LINE
  5
802
330
1F
100
AcDbEntity
  8
1
  6
CONTINUOUS
370
50
 62
4
100
AcDbLine
 10
6.965338
 20
-0.119423
 30
0.0
 11
6.964829
 21
-0.119339
 31
0.0
  0
LINE
  5
803
330
1F
100
AcDbEntity
  8
1
  6
CONTINUOUS
370
50
 62
4
100
AcDbLine
 10
6.920793
 20
0.111564
 30
0.0
 11
6.919391999999999
 21
0.111786
 31
0.0
  0
LINE
  5
804
330
1F
100
AcDbEntity
  8
1
  6
CONTINUOUS
370
50
 62
4
100
AcDbLine
 10
6.732858999999999
 20
-0.139665
 30
0.0
 11
6.727772
 21
-0.138878
 31
0.0
  0
LINE
  5
805
330
1F
100
AcDbEntity
  8
1
  6
CONTINUOUS
370
50
 62
4
100
AcDbLine
 10
6.927
 20
-0.146158
 30
0.0
 11
6.909951
 21
-0.14357
 31
0.0
  0
LINE
  5
806
330
1F
100
AcDbEntity
  8
1
  6
CONTINUOUS
370
50
 62
4
100
AcDbLine
 10
6.941487
 20
0.05207
 30
0.0
 11
6.939832999999999
 21
0.052317
 31
0.0
  0
LINE
  5
807
330
1F
100
AcDbEntity
  8
1
  6
CONTINUOUS
370
50
 62
4
100
AcDbLine
 10
6.930067999999999
 20
-0.139293
 30
0.0
 11
6.928516
 21
-0.139074
 31
0.0
  0
LINE
  5
808
330
1F
100
AcDbEntity
  8
1
  6
CONTINUOUS
370
50
 62
4
100
AcDbLine
 10
6.940295
 20
0.14592
 30
0.0
 11
6.937666
 21
0.14629
 31
0.0
  0
LINE
  5
809
330
1F
100
AcDbEntity
  8
1
  6
CONTINUOUS
370
50
 62
4
100
AcDbLine
 10
6.747315
 20
0.139246
 30
0.0
 11
6.742604999999999
 21
0.139787
 31
0.0
  0
LINE
  5
80A
330
1F
100
AcDbEntity
  8
1
  6
CONTINUOUS
370
50
 62
4
100
AcDbLine
 10
6.929677
 20
-0.146429
 30
0.0
 11
6.927
 21
-0.146158
 31
0.0
  0
LINE
  5
80B
330
1F
100
AcDbEntity
  8
1
  6
CONTINUOUS
370
50
 62
4
100
AcDbLine
 10
6.94313
 20
0.051908
 30
0.0
 11
6.941487
 21
0.05207
 31
0.0
  0
LINE
  5
80C
330
1F
100
AcDbEntity
  8
1
  6
CONTINUOUS
370
50
 62
4
100
AcDbLine
 10
6.965847
 20
-0.119471
 30
0.0
 11
6.965338
 21
-0.119423
 31
0.0
  0
LINE
  5
80D
330
1F
100
AcDbEntity
  8
1
  6
CONTINUOUS
370
50
 62
4
100
AcDbLine
 10
6.931653
 20
-0.139432
 30
0.0
 11
6.930067999999999
 21
-0.139293
 31
0.0
  0
LINE
  5
80E
330
1F
100
AcDbEntity
  8
1
  6
CONTINUOUS
370
50
 62
4
100
AcDbLine
 10
6.937666
 20
0.14629
 30
0.0
 11
6.935016
 21
0.146497
 31
0.0
  0
LINE
  5
80F
330
1F
100
AcDbEntity
  8
1
  6
CONTINUOUS
370
50
 62
4
100
AcDbLine
 10
6.797647
 20
0.120377
 30
0.0
 11
6.797515
 21
0.120387
 31
0.0
  0
LINE
  5
810
330
1F
100
AcDbEntity
  8
1
  6
CONTINUOUS
370
50
 62
4
100
AcDbLine
 10
6.797651999999999
 20
0.120374
 30
0.0
 11
6.797518999999999
 21
0.120383
 31
0.0
  0
LINE
  5
811
330
1F
100
AcDbEntity
  8
1
  6
CONTINUOUS
370
50
 62
4
100
AcDbLine
 10
6.737979999999999
 20
-0.139949
 30
0.0
 11
6.732858999999999
 21
-0.139665
 31
0.0
  0
LINE
  5
812
330
1F
100
AcDbEntity
  8
1
  6
CONTINUOUS
370
50
 62
4
100
AcDbLine
 10
6.944739999999999
 20
0.051828
 30
0.0
 11
6.94313
 21
0.051908
 31
0.0
  0
LINE
  5
813
330
1F
100
AcDbEntity
  8
1
  6
CONTINUOUS
370
50
 62
4
100
AcDbLine
 10
6.932351
 20
-0.146543
 30
0.0
 11
6.929677
 21
-0.146429
 31
0.0
  0
LINE
  5
814
330
1F
100
AcDbEntity
  8
1
  6
CONTINUOUS
370
50
 62
4
100
AcDbLine
 10
6.742604999999999
 20
0.139787
 30
0.0
 11
6.737979999999999
 21
0.139949
 31
0.0
  0
LINE
  5
815
330
1F
100
AcDbEntity
  8
1
  6
CONTINUOUS
370
50
 62
4
100
AcDbLine
 10
6.933266
 20
-0.139485
 30
0.0
 11
6.931653
 21
-0.139432
 31
0.0
  0
LINE
  5
816
330
1F
100
AcDbEntity
  8
1
  6
CONTINUOUS
370
50
 62
4
100
AcDbLine
 10
6.966355999999999
 20
-0.119482
 30
0.0
 11
6.965847
 21
-0.119471
 31
0.0
  0
LINE
  5
817
330
1F
100
AcDbEntity
  8
1
  6
CONTINUOUS
370
50
 62
4
100
AcDbLine
 10
6.935016
 20
0.146497
 30
0.0
 11
6.932351
 21
0.146543
 31
0.0
  0
LINE
  5
818
330
1F
100
AcDbEntity
  8
1
  6
CONTINUOUS
370
50
 62
4
100
AcDbLine
 10
6.476999999999999
 20
-0.13995
 30
0.0
 11
6.738354999999999
 21
-0.13995
 31
0.0
  0
LINE
  5
819
330
1F
100
AcDbEntity
  8
1
  6
CONTINUOUS
370
50
 62
4
100
AcDbLine
 10
6.944739999999999
 20
0.051828
 30
0.0
 11
6.946314999999999
 21
0.051828
 31
0.0
  0
LINE
  5
81A
330
1F
100
AcDbEntity
  8
1
  6
CONTINUOUS
370
50
 62
4
100
AcDbLine
 10
6.476999999999999
 20
0.13995
 30
0.0
 11
6.738354999999999
 21
0.13995
 31
0.0
  0
LINE
  5
81B
330
1F
100
AcDbEntity
  8
1
  6
CONTINUOUS
370
50
 62
4
100
AcDbLine
 10
6.805333
 20
-0.115367
 30
0.0
 11
6.806999999999999
 21
-0.115349
 31
0.0
  0
LINE
  5
81C
330
1F
100
AcDbEntity
  8
1
  6
CONTINUOUS
370
50
 62
4
100
AcDbLine
 10
6.800332999999999
 20
-0.115424
 30
0.0
 11
6.803667
 21
-0.115386
 31
0.0
  0
LINE
  5
81D
330
1F
100
AcDbEntity
  8
1
  6
CONTINUOUS
370
50
 62
4
100
AcDbLine
 10
6.803667
 20
-0.115386
 30
0.0
 11
6.805333
 21
-0.115367
 31
0.0
  0
LINE
  5
81E
330
1F
100
AcDbEntity
  8
1
  6
CONTINUOUS
370
50
 62
4
100
AcDbLine
 10
6.792219999999999
 20
-0.107856
 30
0.0
 11
6.797
 21
-0.107799
 31
0.0
  0
LINE
  5
81F
330
1F
100
AcDbEntity
  8
1
  6
CONTINUOUS
370
50
 62
4
100
AcDbLine
 10
6.798666
 20
-0.115444
 30
0.0
 11
6.800332999999999
 21
-0.115424
 31
0.0
  0
LINE
  5
820
330
1F
100
AcDbEntity
  8
1
  6
CONTINUOUS
370
50
 62
4
100
AcDbLine
 10
6.797
 20
-0.115464
 30
0.0
 11
6.798666
 21
-0.115444
 31
0.0
  0
LINE
  5
821
330
1F
100
AcDbEntity
  8
1
  6
CONTINUOUS
370
50
 62
4
100
AcDbLine
 10
6.787439999999999
 20
-0.107914
 30
0.0
 11
6.792219999999999
 21
-0.107856
 31
0.0
  0
LINE
  5
822
330
1F
100
AcDbEntity
  8
1
  6
CONTINUOUS
370
50
 62
4
100
AcDbLine
 10
6.782661
 20
-0.107974
 30
0.0
 11
6.787439999999999
 21
-0.107914
 31
0.0
  0
LINE
  5
823
330
1F
100
AcDbEntity
  8
1
  6
CONTINUOUS
370
50
 62
4
100
AcDbLine
 10
6.777881
 20
-0.108036
 30
0.0
 11
6.782661
 21
-0.107974
 31
0.0
  0
LINE
  5
824
330
1F
100
AcDbEntity
  8
1
  6
CONTINUOUS
370
50
 62
4
100
AcDbLine
 10
6.773102
 20
-0.1081
 30
0.0
 11
6.777881
 21
-0.108036
 31
0.0
  0
LINE
  5
825
330
1F
100
AcDbEntity
  8
1
  6
CONTINUOUS
370
50
 62
4
100
AcDbLine
 10
6.768322
 20
-0.108166
 30
0.0
 11
6.773102
 21
-0.1081
 31
0.0
  0
LINE
  5
826
330
1F
100
AcDbEntity
  8
1
  6
CONTINUOUS
370
50
 62
4
100
AcDbLine
 10
6.763542999999999
 20
-0.108233
 30
0.0
 11
6.768322
 21
-0.108166
 31
0.0
  0
LINE
  5
827
330
1F
100
AcDbEntity
  8
1
  6
CONTINUOUS
370
50
 62
4
100
AcDbLine
 10
6.805333
 20
0.09572
 30
0.0
 11
6.806999999999999
 21
0.095744
 31
0.0
  0
LINE
  5
828
330
1F
100
AcDbEntity
  8
1
  6
CONTINUOUS
370
50
 62
4
100
AcDbLine
 10
6.792219999999999
 20
0.08918
 30
0.0
 11
6.797
 21
0.089249
 31
0.0
  0
LINE
  5
829
330
1F
100
AcDbEntity
  8
1
  6
CONTINUOUS
370
50
 62
4
100
AcDbLine
 10
6.787439999999999
 20
0.08911
 30
0.0
 11
6.792219999999999
 21
0.08918
 31
0.0
  0
LINE
  5
82A
330
1F
100
AcDbEntity
  8
1
  6
CONTINUOUS
370
50
 62
4
100
AcDbLine
 10
6.798666
 20
0.09562
 30
0.0
 11
6.803667
 21
0.095695
 31
0.0
  0
LINE
  5
82B
330
1F
100
AcDbEntity
  8
1
  6
CONTINUOUS
370
50
 62
4
100
AcDbLine
 10
6.803667
 20
0.095695
 30
0.0
 11
6.805333
 21
0.09572
 31
0.0
  0
LINE
  5
82C
330
1F
100
AcDbEntity
  8
1
  6
CONTINUOUS
370
50
 62
4
100
AcDbLine
 10
6.782661
 20
0.089037
 30
0.0
 11
6.787439999999999
 21
0.08911
 31
0.0
  0
LINE
  5
82D
330
1F
100
AcDbEntity
  8
1
  6
CONTINUOUS
370
50
 62
4
100
AcDbLine
 10
6.797
 20
0.095594
 30
0.0
 11
6.798666
 21
0.09562
 31
0.0
  0
LINE
  5
82E
330
1F
100
AcDbEntity
  8
1
  6
CONTINUOUS
370
50
 62
4
100
AcDbLine
 10
6.777881
 20
0.088961
 30
0.0
 11
6.782661
 21
0.089037
 31
0.0
  0
LINE
  5
82F
330
1F
100
AcDbEntity
  8
1
  6
CONTINUOUS
370
50
 62
4
100
AcDbLine
 10
6.773102
 20
0.088884
 30
0.0
 11
6.777881
 21
0.088961
 31
0.0
  0
LINE
  5
830
330
1F
100
AcDbEntity
  8
1
  6
CONTINUOUS
370
50
 62
4
100
AcDbLine
 10
6.768322
 20
0.088804
 30
0.0
 11
6.773102
 21
0.088884
 31
0.0
  0
LINE
  5
831
330
1F
100
AcDbEntity
  8
1
  6
CONTINUOUS
370
50
 62
4
100
AcDbLine
 10
6.763542999999999
 20
0.088722
 30
0.0
 11
6.768322
 21
0.088804
 31
0.0
  0
LINE
  5
832
330
1F
100
AcDbEntity
  8
1
  6
CONTINUOUS
370
50
 62
4
100
AcDbLine
 10
6.932351
 20
-0.146543
 30
0.0
 11
6.935016
 21
-0.146497
 31
0.0
  0
LINE
  5
833
330
1F
100
AcDbEntity
  8
1
  6
CONTINUOUS
370
50
 62
4
100
AcDbLine
 10
6.933266
 20
-0.139485
 30
0.0
 11
6.934898
 21
-0.13945
 31
0.0
  0
LINE
  5
834
330
1F
100
AcDbEntity
  8
1
  6
CONTINUOUS
370
50
 62
4
100
AcDbLine
 10
6.760745999999999
 20
-0.108296
 30
0.0
 11
6.763542999999999
 21
-0.108233
 31
0.0
  0
LINE
  5
835
330
1F
100
AcDbEntity
  8
1
  6
CONTINUOUS
370
50
 62
4
100
AcDbLine
 10
6.967368
 20
0.112641
 30
0.0
 11
6.975306
 21
0.112823
 31
0.0
  0
LINE
  5
836
330
1F
100
AcDbEntity
  8
1
  6
CONTINUOUS
370
50
 62
4
100
AcDbLine
 10
6.760810999999999
 20
0.088648
 30
0.0
 11
6.763542999999999
 21
0.088722
 31
0.0
  0
LINE
  5
837
330
1F
100
AcDbEntity
  8
1
  6
CONTINUOUS
370
50
 62
4
100
AcDbLine
 10
6.737979999999999
 20
-0.139949
 30
0.0
 11
6.742604999999999
 21
-0.139787
 31
0.0
  0
LINE
  5
838
330
1F
100
AcDbEntity
  8
1
  6
CONTINUOUS
370
50
 62
4
100
AcDbLine
 10
6.959430999999999
 20
0.112357
 30
0.0
 11
6.967368
 21
0.112641
 31
0.0
  0
LINE
  5
839
330
1F
100
AcDbEntity
  8
1
  6
CONTINUOUS
370
50
 62
4
100
AcDbLine
 10
6.757943999999999
 20
-0.108407
 30
0.0
 11
6.760745999999999
 21
-0.108296
 31
0.0
  0
LINE
  5
83A
330
1F
100
AcDbEntity
  8
1
  6
CONTINUOUS
370
50
 62
4
100
AcDbLine
 10
6.929677
 20
0.146429
 30
0.0
 11
6.932351
 21
0.146543
 31
0.0
  0
LINE
  5
83B
330
1F
100
AcDbEntity
  8
1
  6
CONTINUOUS
370
50
 62
4
100
AcDbLine
 10
6.758077
 20
0.088519
 30
0.0
 11
6.760810999999999
 21
0.088648
 31
0.0
  0
LINE
  5
83C
330
1F
100
AcDbEntity
  8
1
  6
CONTINUOUS
370
50
 62
4
100
AcDbLine
 10
6.946314999999999
 20
0.051828
 30
0.0
 11
6.947854
 21
0.051901
 31
0.0
  0
LINE
  5
83D
330
1F
100
AcDbEntity
  8
1
  6
CONTINUOUS
370
50
 62
4
100
AcDbLine
 10
6.951492999999999
 20
0.111967
 30
0.0
 11
6.959430999999999
 21
0.112357
 31
0.0
  0
LINE
  5
83E
330
1F
100
AcDbEntity
  8
1
  6
CONTINUOUS
370
50
 62
4
100
AcDbLine
 10
6.966355999999999
 20
-0.119482
 30
0.0
 11
6.966861
 21
-0.119456
 31
0.0
  0
LINE
  5
83F
330
1F
100
AcDbEntity
  8
1
  6
CONTINUOUS
370
50
 62
4
100
AcDbLine
 10
6.755144
 20
-0.108564
 30
0.0
 11
6.757943999999999
 21
-0.108407
 31
0.0
  0
LINE
  5
840
330
1F
100
AcDbEntity
  8
1
  6
CONTINUOUS
370
50
 62
4
100
AcDbLine
 10
6.943556
 20
0.111472
 30
0.0
 11
6.951492999999999
 21
0.111967
 31
0.0
  0
LINE
  5
841
330
1F
100
AcDbEntity
  8
1
  6
CONTINUOUS
370
50
 62
4
100
AcDbLine
 10
6.755342
 20
0.088336
 30
0.0
 11
6.758077
 21
0.088519
 31
0.0
  0
LINE
  5
842
330
1F
100
AcDbEntity
  8
1
  6
CONTINUOUS
370
50
 62
4
100
AcDbLine
 10
6.752349
 20
-0.108767
 30
0.0
 11
6.755144
 21
-0.108564
 31
0.0
  0
LINE
  5
843
330
1F
100
AcDbEntity
  8
1
  6
CONTINUOUS
370
50
 62
4
100
AcDbLine
 10
6.935618
 20
0.110867
 30
0.0
 11
6.943556
 21
0.111472
 31
0.0
  0
LINE
  5
844
330
1F
100
AcDbEntity
  8
1
  6
CONTINUOUS
370
50
 62
4
100
AcDbLine
 10
6.934898
 20
-0.13945
 30
0.0
 11
6.936538
 21
-0.139324
 31
0.0
  0
LINE
  5
845
330
1F
100
AcDbEntity
  8
1
  6
CONTINUOUS
370
50
 62
4
100
AcDbLine
 10
6.935016
 20
-0.146497
 30
0.0
 11
6.937666
 21
-0.14629
 31
0.0
  0
LINE
  5
846
330
1F
100
AcDbEntity
  8
1
  6
CONTINUOUS
370
50
 62
4
100
AcDbLine
 10
6.752612999999999
 20
0.088096
 30
0.0
 11
6.755342
 21
0.088336
 31
0.0
  0
LINE
  5
847
330
1F
100
AcDbEntity
  8
1
  6
CONTINUOUS
370
50
 62
4
100
AcDbLine
 10
6.92768
 20
0.110152
 30
0.0
 11
6.935618
 21
0.110867
 31
0.0
  0
LINE
  5
848
330
1F
100
AcDbEntity
  8
1
  6
CONTINUOUS
370
50
 62
4
100
AcDbLine
 10
6.749566
 20
-0.109018
 30
0.0
 11
6.752349
 21
-0.108767
 31
0.0
  0
LINE
  5
849
330
1F
100
AcDbEntity
  8
1
  6
CONTINUOUS
370
50
 62
4
100
AcDbLine
 10
6.947854
 20
0.051901
 30
0.0
 11
6.949355
 21
0.052044
 31
0.0
  0
LINE
  5
84A
330
1F
100
AcDbEntity
  8
1
  6
CONTINUOUS
370
50
 62
4
100
AcDbLine
 10
6.927
 20
0.146158
 30
0.0
 11
6.929677
 21
0.146429
 31
0.0
  0
LINE
  5
84B
330
1F
100
AcDbEntity
  8
1
  6
CONTINUOUS
370
50
 62
4
100
AcDbLine
 10
6.746798
 20
-0.109315
 30
0.0
 11
6.749566
 21
-0.109018
 31
0.0
  0
LINE
  5
84C
330
1F
100
AcDbEntity
  8
1
  6
CONTINUOUS
370
50
 62
4
100
AcDbLine
 10
6.749893999999999
 20
0.087799
 30
0.0
 11
6.752612999999999
 21
0.088096
 31
0.0
  0
LINE
  5
84D
330
1F
100
AcDbEntity
  8
1
  6
CONTINUOUS
370
50
 62
4
100
AcDbLine
 10
6.742604999999999
 20
-0.139787
 30
0.0
 11
6.747315
 21
-0.139246
 31
0.0
  0
LINE
  5
84E
330
1F
100
AcDbEntity
  8
1
  6
CONTINUOUS
370
50
 62
4
100
AcDbLine
 10
6.911068999999999
 20
0.108287
 30
0.0
 11
6.920389999999999
 21
0.109395
 31
0.0
  0
LINE
  5
84F
330
1F
100
AcDbEntity
  8
1
  6
CONTINUOUS
370
50
 62
4
100
AcDbLine
 10
6.74405
 20
-0.109659
 30
0.0
 11
6.746798
 21
-0.109315
 31
0.0
  0
LINE
  5
850
330
1F
100
AcDbEntity
  8
1
  6
CONTINUOUS
370
50
 62
4
100
AcDbLine
 10
6.966861
 20
-0.119456
 30
0.0
 11
6.967363
 21
-0.119391
 31
0.0
  0
LINE
  5
851
330
1F
100
AcDbEntity
  8
1
  6
CONTINUOUS
370
50
 62
4
100
AcDbLine
 10
6.747189
 20
0.087445
 30
0.0
 11
6.749893999999999
 21
0.087799
 31
0.0
  0
LINE
  5
852
330
1F
100
AcDbEntity
  8
1
  6
CONTINUOUS
370
50
 62
4
100
AcDbLine
 10
6.936538
 20
-0.139324
 30
0.0
 11
6.938183
 21
-0.139106
 31
0.0
  0
LINE
  5
853
330
1F
100
AcDbEntity
  8
1
  6
CONTINUOUS
370
50
 62
4
100
AcDbLine
 10
6.901749
 20
0.107018
 30
0.0
 11
6.911068999999999
 21
0.108287
 31
0.0
  0
LINE
  5
854
330
1F
100
AcDbEntity
  8
1
  6
CONTINUOUS
370
50
 62
4
100
AcDbLine
 10
6.937666
 20
-0.14629
 30
0.0
 11
6.940295
 21
-0.14592
 31
0.0
  0
LINE
  5
855
330
1F
100
AcDbEntity
  8
1
  6
CONTINUOUS
370
50
 62
4
100
AcDbLine
 10
6.949355
 20
0.052044
 30
0.0
 11
6.950819
 21
0.052252
 31
0.0
  0
LINE
  5
856
330
1F
100
AcDbEntity
  8
1
  6
CONTINUOUS
370
50
 62
4
100
AcDbLine
 10
6.741327999999999
 20
-0.11005
 30
0.0
 11
6.74405
 21
-0.109659
 31
0.0
  0
LINE
  5
857
330
1F
100
AcDbEntity
  8
1
  6
CONTINUOUS
370
50
 62
4
100
AcDbLine
 10
6.892428
 20
0.105588
 30
0.0
 11
6.901749
 21
0.107018
 31
0.0
  0
LINE
  5
858
330
1F
100
AcDbEntity
  8
1
  6
CONTINUOUS
370
50
 62
4
100
AcDbLine
 10
6.744503
 20
0.087031
 30
0.0
 11
6.747189
 21
0.087445
 31
0.0
  0
LINE
  5
859
330
1F
100
AcDbEntity
  8
1
  6
CONTINUOUS
370
50
 62
4
100
AcDbLine
 10
6.907337999999999
 20
0.143111
 30
0.0
 11
6.927
 21
0.146158
 31
0.0
  0
LINE
  5
85A
330
1F
100
AcDbEntity
  8
1
  6
CONTINUOUS
370
50
 62
4
100
AcDbLine
 10
6.738636
 20
-0.110487
 30
0.0
 11
6.741327999999999
 21
-0.11005
 31
0.0
  0
LINE
  5
85B
330
1F
100
AcDbEntity
  8
1
  6
CONTINUOUS
370
50
 62
4
100
AcDbLine
 10
6.883107
 20
0.104021
 30
0.0
 11
6.892428
 21
0.105588
 31
0.0
  0
LINE
  5
85C
330
1F
100
AcDbEntity
  8
1
  6
CONTINUOUS
370
50
 62
4
100
AcDbLine
 10
6.74184
 20
0.086558
 30
0.0
 11
6.744503
 21
0.087031
 31
0.0
  0
LINE
  5
85D
330
1F
100
AcDbEntity
  8
1
  6
CONTINUOUS
370
50
 62
4
100
AcDbLine
 10
6.735999
 20
-0.110967
 30
0.0
 11
6.738636
 21
-0.110487
 31
0.0
  0
LINE
  5
85E
330
1F
100
AcDbEntity
  8
1
  6
CONTINUOUS
370
50
 62
4
100
AcDbLine
 10
6.873787
 20
0.102322
 30
0.0
 11
6.883107
 21
0.104021
 31
0.0
  0
LINE
  5
85F
330
1F
100
AcDbEntity
  8
1
  6
CONTINUOUS
370
50
 62
4
100
AcDbLine
 10
6.747315
 20
-0.139246
 30
0.0
 11
6.752148
 21
-0.138339
 31
0.0
  0
LINE
  5
860
330
1F
100
AcDbEntity
  8
1
  6
CONTINUOUS
370
50
 62
4
100
AcDbLine
 10
6.950819
 20
0.052252
 30
0.0
 11
6.952236
 21
0.052519
 31
0.0
  0
LINE
  5
861
330
1F
100
AcDbEntity
  8
1
  6
CONTINUOUS
370
50
 62
4
100
AcDbLine
 10
6.938183
 20
-0.139106
 30
0.0
 11
6.939832999999999
 21
-0.138793
 31
0.0
  0
LINE
  5
862
330
1F
100
AcDbEntity
  8
1
  6
CONTINUOUS
370
50
 62
4
100
AcDbLine
 10
6.864465999999999
 20
0.100497
 30
0.0
 11
6.873787
 21
0.102322
 31
0.0
  0
LINE
  5
863
330
1F
100
AcDbEntity
  8
1
  6
CONTINUOUS
370
50
 62
4
100
AcDbLine
 10
6.797388
 20
0.120357
 30
0.0
 11
6.797518999999999
 21
0.120383
 31
0.0
  0
LINE
  5
864
330
1F
100
AcDbEntity
  8
1
  6
CONTINUOUS
370
50
 62
4
100
AcDbLine
 10
6.797384999999999
 20
0.120361
 30
0.0
 11
6.797515
 21
0.120387
 31
0.0
  0
LINE
  5
865
330
1F
100
AcDbEntity
  8
1
  6
CONTINUOUS
370
50
 62
4
100
AcDbLine
 10
6.888127
 20
0.139239
 30
0.0
 11
6.907337999999999
 21
0.143111
 31
0.0
  0
LINE
  5
866
330
1F
100
AcDbEntity
  8
1
  6
CONTINUOUS
370
50
 62
4
100
AcDbLine
 10
6.733434
 20
-0.111485
 30
0.0
 11
6.735999
 21
-0.110967
 31
0.0
  0
LINE
  5
867
330
1F
100
AcDbEntity
  8
1
  6
CONTINUOUS
370
50
 62
4
100
AcDbLine
 10
6.739205
 20
0.086023
 30
0.0
 11
6.74184
 21
0.086558
 31
0.0
  0
LINE
  5
868
330
1F
100
AcDbEntity
  8
1
  6
CONTINUOUS
370
50
 62
4
100
AcDbLine
 10
6.940295
 20
-0.14592
 30
0.0
 11
6.942895999999999
 21
-0.145387
 31
0.0
  0
LINE
  5
869
330
1F
100
AcDbEntity
  8
1
  6
CONTINUOUS
370
50
 62
4
100
AcDbLine
 10
6.967363
 20
-0.119391
 30
0.0
 11
6.96786
 21
-0.119286
 31
0.0
  0
LINE
  5
86A
330
1F
100
AcDbEntity
  8
1
  6
CONTINUOUS
370
50
 62
4
100
AcDbLine
 10
6.730947
 20
-0.11204
 30
0.0
 11
6.733434
 21
-0.111485
 31
0.0
  0
LINE
  5
86B
330
1F
100
AcDbEntity
  8
1
  6
CONTINUOUS
370
50
 62
4
100
AcDbLine
 10
6.92038
 20
-0.012842
 30
0.0
 11
6.928216
 21
-0.011065
 31
0.0
  0
LINE
  5
86C
330
1F
100
AcDbEntity
  8
1
  6
CONTINUOUS
370
50
 62
4
100
AcDbLine
 10
6.928300999999999
 20
-0.011045
 30
0.0
 11
6.931999999999999
 21
-0.010206
 31
0.0
  0
LINE
  5
86D
330
1F
100
AcDbEntity
  8
1
  6
CONTINUOUS
370
50
 62
4
100
AcDbLine
 10
6.736616
 20
0.08543
 30
0.0
 11
6.739205
 21
0.086023
 31
0.0
  0
LINE
  5
86E
330
1F
100
AcDbEntity
  8
1
  6
CONTINUOUS
370
50
 62
4
100
AcDbLine
 10
6.952236
 20
0.052519
 30
0.0
 11
6.953603999999999
 21
0.052837
 31
0.0
  0
LINE
  5
86F
330
1F
100
AcDbEntity
  8
1
  6
CONTINUOUS
370
50
 62
4
100
AcDbLine
 10
6.86862
 20
0.134509
 30
0.0
 11
6.888127
 21
0.139239
 31
0.0
  0
LINE
  5
870
330
1F
100
AcDbEntity
  8
1
  6
CONTINUOUS
370
50
 62
4
100
AcDbLine
 10
6.72854
 20
-0.11263
 30
0.0
 11
6.730947
 21
-0.11204
 31
0.0
  0
LINE
  5
871
330
1F
100
AcDbEntity
  8
1
  6
CONTINUOUS
370
50
 62
4
100
AcDbLine
 10
6.939832999999999
 20
-0.138793
 30
0.0
 11
6.941487
 21
-0.138383
 31
0.0
  0
LINE
  5
872
330
1F
100
AcDbEntity
  8
1
  6
CONTINUOUS
370
50
 62
4
100
AcDbLine
 10
6.752148
 20
-0.138339
 30
0.0
 11
6.757136
 21
-0.137078
 31
0.0
  0
LINE
  5
873
330
1F
100
AcDbEntity
  8
1
  6
CONTINUOUS
370
50
 62
4
100
AcDbLine
 10
6.734093
 20
0.084781
 30
0.0
 11
6.736616
 21
0.08543
 31
0.0
  0
LINE
  5
874
330
1F
100
AcDbEntity
  8
1
  6
CONTINUOUS
370
50
 62
4
100
AcDbLine
 10
6.806998
 20
-0.116076
 30
0.0
 11
6.807181
 21
-0.116027
 31
0.0
  0
LINE
  5
875
330
1F
100
AcDbEntity
  8
1
  6
CONTINUOUS
370
50
 62
4
100
AcDbLine
 10
6.807548
 20
-0.115927
 30
0.0
 11
6.807731
 21
-0.115878
 31
0.0
  0
LINE
  5
876
330
1F
100
AcDbEntity
  8
1
  6
CONTINUOUS
370
50
 62
4
100
AcDbLine
 10
6.726221
 20
-0.113251
 30
0.0
 11
6.72854
 21
-0.11263
 31
0.0
  0
LINE
  5
877
330
1F
100
AcDbEntity
  8
1
  6
CONTINUOUS
370
50
 62
4
100
AcDbLine
 10
6.942895999999999
 20
-0.145387
 30
0.0
 11
6.945465
 21
-0.14469
 31
0.0
  0
LINE
  5
878
330
1F
100
AcDbEntity
  8
1
  6
CONTINUOUS
370
50
 62
4
100
AcDbLine
 10
6.807364
 20
-0.115977
 30
0.0
 11
6.807548
 21
-0.115927
 31
0.0
  0
LINE
  5
879
330
1F
100
AcDbEntity
  8
1
  6
CONTINUOUS
370
50
 62
4
100
AcDbLine
 10
6.807731
 20
-0.115878
 30
0.0
 11
6.807914999999999
 21
-0.115828
 31
0.0
  0
LINE
  5
87A
330
1F
100
AcDbEntity
  8
1
  6
CONTINUOUS
370
50
 62
4
100
AcDbLine
 10
6.807181
 20
-0.116027
 30
0.0
 11
6.807364
 21
-0.115977
 31
0.0
  0
LINE
  5
87B
330
1F
100
AcDbEntity
  8
1
  6
CONTINUOUS
370
50
 62
4
100
AcDbLine
 10
6.807914999999999
 20
-0.115828
 30
0.0
 11
6.808097999999999
 21
-0.115778
 31
0.0
  0
LINE
  5
87C
330
1F
100
AcDbEntity
  8
1
  6
CONTINUOUS
370
50
 62
4
100
AcDbLine
 10
6.848530999999999
 20
0.128956
 30
0.0
 11
6.86862
 21
0.134509
 31
0.0
  0
LINE
  5
87D
330
1F
100
AcDbEntity
  8
1
  6
CONTINUOUS
370
50
 62
4
100
AcDbLine
 10
6.953603999999999
 20
0.052837
 30
0.0
 11
6.954922
 21
0.053203
 31
0.0
  0
LINE
  5
87E
330
1F
100
AcDbEntity
  8
1
  6
CONTINUOUS
370
50
 62
4
100
AcDbLine
 10
-0.01
 20
-1.99995
 30
0.0
 11
6.476999999999999
 21
-0.13995
 31
0.0
  0
LINE
  5
87F
330
1F
100
AcDbEntity
  8
1
  6
CONTINUOUS
370
50
 62
4
100
AcDbLine
 10
6.731643
 20
0.084078
 30
0.0
 11
6.734093
 21
0.084781
 31
0.0
  0
LINE
  5
880
330
1F
100
AcDbEntity
  8
1
  6
CONTINUOUS
370
50
 62
4
100
AcDbLine
 10
6.723993999999999
 20
-0.113902
 30
0.0
 11
6.726221
 21
-0.113251
 31
0.0
  0
LINE
  5
881
330
1F
100
AcDbEntity
  8
1
  6
CONTINUOUS
370
50
 62
4
100
AcDbLine
 10
6.96786
 20
-0.119286
 30
0.0
 11
6.96835
 21
-0.11914
 31
0.0
  0
LINE
  5
882
330
1F
100
AcDbEntity
  8
1
  6
CONTINUOUS
370
50
 62
4
100
AcDbLine
 10
6.941487
 20
-0.138383
 30
0.0
 11
6.94313
 21
-0.137879
 31
0.0
  0
LINE
  5
883
330
1F
100
AcDbEntity
  8
1
  6
CONTINUOUS
370
50
 62
4
100
AcDbLine
 10
6.757136
 20
-0.137078
 30
0.0
 11
6.762315
 21
-0.135475
 31
0.0
  0
LINE
  5
884
330
1F
100
AcDbEntity
  8
1
  6
CONTINUOUS
370
50
 62
4
100
AcDbLine
 10
6.828321
 20
0.122696
 30
0.0
 11
6.848530999999999
 21
0.128956
 31
0.0
  0
LINE
  5
885
330
1F
100
AcDbEntity
  8
1
  6
CONTINUOUS
370
50
 62
4
100
AcDbLine
 10
6.721862
 20
-0.114581
 30
0.0
 11
6.723993999999999
 21
-0.113902
 31
0.0
  0
LINE
  5
886
330
1F
100
AcDbEntity
  8
1
  6
CONTINUOUS
370
50
 62
4
100
AcDbLine
 10
6.72927
 20
0.08332
 30
0.0
 11
6.731643
 21
0.084078
 31
0.0
  0
LINE
  5
887
330
1F
100
AcDbEntity
  8
1
  6
CONTINUOUS
370
50
 62
4
100
AcDbLine
 10
6.954922
 20
0.053203
 30
0.0
 11
6.956189999999999
 21
0.053609
 31
0.0
  0
LINE
  5
888
330
1F
100
AcDbEntity
  8
1
  6
CONTINUOUS
370
50
 62
4
100
AcDbLine
 10
6.945465
 20
-0.14469
 30
0.0
 11
6.947995
 21
-0.143828
 31
0.0
  0
LINE
  5
889
330
1F
100
AcDbEntity
  8
1
  6
CONTINUOUS
370
50
 62
4
100
AcDbLine
 10
6.808098999999999
 20
0.11578
 30
0.0
 11
6.828321
 21
0.122696
 31
0.0
  0
LINE
  5
88A
330
1F
100
AcDbEntity
  8
1
  6
CONTINUOUS
370
50
 62
4
100
AcDbLine
 10
6.719831999999999
 20
-0.115285
 30
0.0
 11
6.721862
 21
-0.114581
 31
0.0
  0
LINE
  5
88B
330
1F
100
AcDbEntity
  8
1
  6
CONTINUOUS
370
50
 62
4
100
AcDbLine
 10
6.726978
 20
0.082508
 30
0.0
 11
6.72927
 21
0.08332
 31
0.0
  0
LINE
  5
88C
330
1F
100
AcDbEntity
  8
1
  6
CONTINUOUS
370
50
 62
4
100
AcDbLine
 10
6.762315
 20
-0.135475
 30
0.0
 11
6.767725
 21
-0.13354
 31
0.0
  0
LINE
  5
88D
330
1F
100
AcDbEntity
  8
1
  6
CONTINUOUS
370
50
 62
4
100
AcDbLine
 10
6.956189999999999
 20
0.053609
 30
0.0
 11
6.957408
 21
0.054051
 31
0.0
  0
LINE
  5
88E
330
1F
100
AcDbEntity
  8
1
  6
CONTINUOUS
370
50
 62
4
100
AcDbLine
 10
6.94313
 20
-0.137879
 30
0.0
 11
6.944739999999999
 21
-0.13729
 31
0.0
  0
LINE
  5
88F
330
1F
100
AcDbEntity
  8
1
  6
CONTINUOUS
370
50
 62
4
100
AcDbLine
 10
6.717893999999999
 20
-0.116018
 30
0.0
 11
6.719831999999999
 21
-0.115285
 31
0.0
  0
LINE
  5
890
330
1F
100
AcDbEntity
  8
1
  6
CONTINUOUS
370
50
 62
4
100
AcDbLine
 10
6.96835
 20
-0.11914
 30
0.0
 11
6.968833
 21
-0.118952
 31
0.0
  0
LINE
  5
891
330
1F
100
AcDbEntity
  8
1
  6
CONTINUOUS
370
50
 62
4
100
AcDbLine
 10
6.724772
 20
0.081643
 30
0.0
 11
6.726978
 21
0.082508
 31
0.0
  0
LINE
  5
892
330
1F
100
AcDbEntity
  8
1
  6
CONTINUOUS
370
50
 62
4
100
AcDbLine
 10
6.767725
 20
-0.13354
 30
0.0
 11
6.773413
 21
-0.131286
 31
0.0
  0
LINE
  5
893
330
1F
100
AcDbEntity
  8
1
  6
CONTINUOUS
370
50
 62
4
100
AcDbLine
 10
6.957408
 20
0.054051
 30
0.0
 11
6.958576
 21
0.054522
 31
0.0
  0
LINE
  5
894
330
1F
100
AcDbEntity
  8
1
  6
CONTINUOUS
370
50
 62
4
100
AcDbLine
 10
6.716016
 20
-0.116795
 30
0.0
 11
6.717893999999999
 21
-0.116018
 31
0.0
  0
LINE
  5
895
330
1F
100
AcDbEntity
  8
1
  6
CONTINUOUS
370
50
 62
4
100
AcDbLine
 10
6.947995
 20
-0.143828
 30
0.0
 11
6.950477999999999
 21
-0.1428
 31
0.0
  0
LINE
  5
896
330
1F
100
AcDbEntity
  8
1
  6
CONTINUOUS
370
50
 62
4
100
AcDbLine
 10
6.773413
 20
-0.131286
 30
0.0
 11
6.779427999999999
 21
-0.128725
 31
0.0
  0
LINE
  5
897
330
1F
100
AcDbEntity
  8
1
  6
CONTINUOUS
370
50
 62
4
100
AcDbLine
 10
6.944739999999999
 20
-0.13729
 30
0.0
 11
6.946314999999999
 21
-0.136619
 31
0.0
  0
LINE
  5
898
330
1F
100
AcDbEntity
  8
1
  6
CONTINUOUS
370
50
 62
4
100
AcDbLine
 10
6.722656
 20
0.080726
 30
0.0
 11
6.724772
 21
0.081643
 31
0.0
  0
LINE
  5
899
330
1F
100
AcDbEntity
  8
1
  6
CONTINUOUS
370
50
 62
4
100
AcDbLine
 10
6.958576
 20
0.054522
 30
0.0
 11
6.959695
 21
0.055018
 31
0.0
  0
LINE
  5
89A
330
1F
100
AcDbEntity
  8
1
  6
CONTINUOUS
370
50
 62
4
100
AcDbLine
 10
6.779427999999999
 20
-0.128725
 30
0.0
 11
6.785816
 21
-0.125867
 31
0.0
  0
LINE
  5
89B
330
1F
100
AcDbEntity
  8
1
  6
CONTINUOUS
370
50
 62
4
100
AcDbLine
 10
6.797255
 20
0.120302
 30
0.0
 11
6.797384999999999
 21
0.120361
 31
0.0
  0
LINE
  5
89C
330
1F
100
AcDbEntity
  8
1
  6
CONTINUOUS
370
50
 62
4
100
AcDbLine
 10
6.714214999999999
 20
-0.117616
 30
0.0
 11
6.716016
 21
-0.116795
 31
0.0
  0
LINE
  5
89D
330
1F
100
AcDbEntity
  8
1
  6
CONTINUOUS
370
50
 62
4
100
AcDbLine
 10
6.805334999999999
 20
-0.116856
 30
0.0
 11
6.806999999999999
 21
-0.116095
 31
0.0
  0
LINE
  5
89E
330
1F
100
AcDbEntity
  8
1
  6
CONTINUOUS
370
50
 62
4
100
AcDbLine
 10
6.803669999999999
 20
-0.117618
 30
0.0
 11
6.805334999999999
 21
-0.116856
 31
0.0
  0
LINE
  5
89F
330
1F
100
AcDbEntity
  8
1
  6
CONTINUOUS
370
50
 62
4
100
AcDbLine
 10
6.801912
 20
-0.118426
 30
0.0
 11
6.803669999999999
 21
-0.117618
 31
0.0
  0
LINE
  5
8A0
330
1F
100
AcDbEntity
  8
1
  6
CONTINUOUS
370
50
 62
4
100
AcDbLine
 10
6.800344
 20
-0.119148
 30
0.0
 11
6.801912
 21
-0.118426
 31
0.0
  0
LINE
  5
8A1
330
1F
100
AcDbEntity
  8
1
  6
CONTINUOUS
370
50
 62
4
100
AcDbLine
 10
6.785816
 20
-0.125867
 30
0.0
 11
6.792624
 21
-0.122727
 31
0.0
  0
LINE
  5
8A2
330
1F
100
AcDbEntity
  8
1
  6
CONTINUOUS
370
50
 62
4
100
AcDbLine
 10
6.799061999999999
 20
-0.11974
 30
0.0
 11
6.800344
 21
-0.119148
 31
0.0
  0
LINE
  5
8A3
330
1F
100
AcDbEntity
  8
1
  6
CONTINUOUS
370
50
 62
4
100
AcDbLine
 10
6.797781
 20
-0.120332
 30
0.0
 11
6.799061999999999
 21
-0.11974
 31
0.0
  0
LINE
  5
8A4
330
1F
100
AcDbEntity
  8
1
  6
CONTINUOUS
370
50
 62
4
100
AcDbLine
 10
6.796065
 20
-0.121127
 30
0.0
 11
6.796926
 21
-0.120728
 31
0.0
  0
LINE
  5
8A5
330
1F
100
AcDbEntity
  8
1
  6
CONTINUOUS
370
50
 62
4
100
AcDbLine
 10
6.795204999999999
 20
-0.121526
 30
0.0
 11
6.796065
 21
-0.121127
 31
0.0
  0
LINE
  5
8A6
330
1F
100
AcDbEntity
  8
1
  6
CONTINUOUS
370
50
 62
4
100
AcDbLine
 10
6.796926
 20
-0.120728
 30
0.0
 11
6.797785999999999
 21
-0.120329
 31
0.0
  0
LINE
  5
8A7
330
1F
100
AcDbEntity
  8
1
  6
CONTINUOUS
370
50
 62
4
100
AcDbLine
 10
6.794344
 20
-0.121926
 30
0.0
 11
6.795204999999999
 21
-0.121526
 31
0.0
  0
LINE
  5
8A8
330
1F
100
AcDbEntity
  8
1
  6
CONTINUOUS
370
50
 62
4
100
AcDbLine
 10
6.793483999999999
 20
-0.122326
 30
0.0
 11
6.794344
 21
-0.121926
 31
0.0
  0
LINE
  5
8A9
330
1F
100
AcDbEntity
  8
1
  6
CONTINUOUS
370
50
 62
4
100
AcDbLine
 10
6.797257
 20
0.120296
 30
0.0
 11
6.797388
 21
0.120357
 31
0.0
  0
LINE
  5
8AA
330
1F
100
AcDbEntity
  8
1
  6
CONTINUOUS
370
50
 62
4
100
AcDbLine
 10
6.792624
 20
-0.122727
 30
0.0
 11
6.793483999999999
 21
-0.122326
 31
0.0
  0
LINE
  5
8AB
330
1F
100
AcDbEntity
  8
1
  6
CONTINUOUS
370
50
 62
4
100
AcDbLine
 10
6.720635
 20
0.079757
 30
0.0
 11
6.722656
 21
0.080726
 31
0.0
  0
LINE
  5
8AC
330
1F
100
AcDbEntity
  8
1
  6
CONTINUOUS
370
50
 62
4
100
AcDbLine
 10
6.959695
 20
0.055018
 30
0.0
 11
6.96078
 21
0.055541
 31
0.0
  0
LINE
  5
8AD
330
1F
100
AcDbEntity
  8
1
  6
CONTINUOUS
370
50
 62
4
100
AcDbLine
 10
6.946314999999999
 20
-0.136619
 30
0.0
 11
6.947854
 21
-0.135868
 31
0.0
  0
LINE
  5
8AE
330
1F
100
AcDbEntity
  8
1
  6
CONTINUOUS
370
50
 62
4
100
AcDbLine
 10
6.968833
 20
-0.118952
 30
0.0
 11
6.969306
 21
-0.118721
 31
0.0
  0
LINE
  5
8AF
330
1F
100
AcDbEntity
  8
1
  6
CONTINUOUS
370
50
 62
4
100
AcDbLine
 10
6.950477999999999
 20
-0.1428
 30
0.0
 11
6.952903
 21
-0.141609
 31
0.0
  0
LINE
  5
8B0
330
1F
100
AcDbEntity
  8
1
  6
CONTINUOUS
370
50
 62
4
100
AcDbLine
 10
6.712509
 20
-0.118476
 30
0.0
 11
6.714214999999999
 21
-0.117616
 31
0.0
  0
LINE
  5
8B1
330
1F
100
AcDbEntity
  8
1
  6
CONTINUOUS
370
50
 62
4
100
AcDbLine
 10
6.956163999999999
 20
-0.010419
 30
0.0
 11
6.961277
 21
-0.007823
 31
0.0
  0
LINE
  5
8B2
330
1F
100
AcDbEntity
  8
1
  6
CONTINUOUS
370
50
 62
4
100
AcDbLine
 10
6.966403
 20
-0.005219
 30
0.0
 11
6.971538
 21
-0.002611
 31
0.0
  0
LINE
  5
8B3
330
1F
100
AcDbEntity
  8
1
  6
CONTINUOUS
370
50
 62
4
100
AcDbLine
 10
6.946002999999999
 20
-0.01558
 30
0.0
 11
6.951071
 21
-0.013006
 31
0.0
  0
LINE
  5
8B4
330
1F
100
AcDbEntity
  8
1
  6
CONTINUOUS
370
50
 62
4
100
AcDbLine
 10
6.951071
 20
-0.013006
 30
0.0
 11
6.956163999999999
 21
-0.010419
 31
0.0
  0
LINE
  5
8B5
330
1F
100
AcDbEntity
  8
1
  6
CONTINUOUS
370
50
 62
4
100
AcDbLine
 10
6.971538
 20
-0.002611
 30
0.0
 11
6.976675999999999
 21
-0.000001
 31
0.0
  0
LINE
  5
8B6
330
1F
100
AcDbEntity
  8
1
  6
CONTINUOUS
370
50
 62
4
100
AcDbLine
 10
6.961277
 20
-0.007823
 30
0.0
 11
6.966403
 21
-0.005219
 31
0.0
  0
LINE
  5
8B7
330
1F
100
AcDbEntity
  8
1
  6
CONTINUOUS
370
50
 62
4
100
AcDbLine
 10
6.96078
 20
0.055541
 30
0.0
 11
6.961836
 21
0.056091
 31
0.0
  0
LINE
  5
8B8
330
1F
100
AcDbEntity
  8
1
  6
CONTINUOUS
370
50
 62
4
100
AcDbLine
 10
6.718711
 20
0.078735
 30
0.0
 11
6.720635
 21
0.079757
 31
0.0
  0
LINE
  5
8B9
330
1F
100
AcDbEntity
  8
1
  6
CONTINUOUS
370
50
 62
4
100
AcDbLine
 10
6.947854
 20
-0.135868
 30
0.0
 11
6.949355
 21
-0.135043
 31
0.0
  0
LINE
  5
8BA
330
1F
100
AcDbEntity
  8
1
  6
CONTINUOUS
370
50
 62
4
100
AcDbLine
 10
6.961836
 20
0.056091
 30
0.0
 11
6.962863
 21
0.056667
 31
0.0
  0
LINE
  5
8BB
330
1F
100
AcDbEntity
  8
1
  6
CONTINUOUS
370
50
 62
4
100
AcDbLine
 10
6.71077
 20
-0.119465
 30
0.0
 11
6.712509
 21
-0.118476
 31
0.0
  0
LINE
  5
8BC
330
1F
100
AcDbEntity
  8
1
  6
CONTINUOUS
370
50
 62
4
100
AcDbLine
 10
6.952903
 20
-0.141609
 30
0.0
 11
6.955264
 21
-0.140255
 31
0.0
  0
LINE
  5
8BD
330
1F
100
AcDbEntity
  8
1
  6
CONTINUOUS
370
50
 62
4
100
AcDbLine
 10
6.71685
 20
0.077637
 30
0.0
 11
6.718711
 21
0.078735
 31
0.0
  0
LINE
  5
8BE
330
1F
100
AcDbEntity
  8
1
  6
CONTINUOUS
370
50
 62
4
100
AcDbLine
 10
6.969306
 20
-0.118721
 30
0.0
 11
6.96977
 21
-0.118446
 31
0.0
  0
LINE
  5
8BF
330
1F
100
AcDbEntity
  8
1
  6
CONTINUOUS
370
50
 62
4
100
AcDbLine
 10
6.962863
 20
0.056667
 30
0.0
 11
6.963861
 21
0.057265
 31
0.0
  0
LINE
  5
8C0
330
1F
100
AcDbEntity
  8
1
  6
CONTINUOUS
370
50
 62
4
100
AcDbLine
 10
6.949355
 20
-0.135043
 30
0.0
 11
6.950819
 21
-0.134145
 31
0.0
  0
LINE
  5
8C1
330
1F
100
AcDbEntity
  8
1
  6
CONTINUOUS
370
50
 62
4
100
AcDbLine
 10
6.963861
 20
0.057265
 30
0.0
 11
6.964828
 21
0.057883
 31
0.0
  0
LINE
  5
8C2
330
1F
100
AcDbEntity
  8
1
  6
CONTINUOUS
370
50
 62
4
100
AcDbLine
 10
6.709194999999999
 20
-0.120497
 30
0.0
 11
6.71077
 21
-0.119465
 31
0.0
  0
LINE
  5
8C3
330
1F
100
AcDbEntity
  8
1
  6
CONTINUOUS
370
50
 62
4
100
AcDbLine
 10
6.715055
 20
0.076452
 30
0.0
 11
6.71685
 21
0.077637
 31
0.0
  0
LINE
  5
8C4
330
1F
100
AcDbEntity
  8
1
  6
CONTINUOUS
370
50
 62
4
100
AcDbLine
 10
6.955264
 20
-0.140255
 30
0.0
 11
6.957552
 21
-0.13874
 31
0.0
  0
LINE
  5
8C5
330
1F
100
AcDbEntity
  8
1
  6
CONTINUOUS
370
50
 62
4
100
AcDbLine
 10
6.950819
 20
-0.134145
 30
0.0
 11
6.952236
 21
-0.133183
 31
0.0
  0
LINE
  5
8C6
330
1F
100
AcDbEntity
  8
1
  6
CONTINUOUS
370
50
 62
4
100
AcDbLine
 10
6.96977
 20
-0.118446
 30
0.0
 11
6.970237999999999
 21
-0.118115
 31
0.0
  0
LINE
  5
8C7
330
1F
100
AcDbEntity
  8
1
  6
CONTINUOUS
370
50
 62
4
100
AcDbLine
 10
6.797127
 20
0.120207
 30
0.0
 11
6.797255
 21
0.120302
 31
0.0
  0
LINE
  5
8C8
330
1F
100
AcDbEntity
  8
1
  6
CONTINUOUS
370
50
 62
4
100
AcDbLine
 10
6.713342
 20
0.075177
 30
0.0
 11
6.715055
 21
0.076452
 31
0.0
  0
LINE
  5
8C9
330
1F
100
AcDbEntity
  8
1
  6
CONTINUOUS
370
50
 62
4
100
AcDbLine
 10
6.952236
 20
-0.133183
 30
0.0
 11
6.953603999999999
 21
-0.132164
 31
0.0
  0
LINE
  5
8CA
330
1F
100
AcDbEntity
  8
1
  6
CONTINUOUS
370
50
 62
4
100
AcDbLine
 10
6.797128
 20
0.120199
 30
0.0
 11
6.797257
 21
0.120296
 31
0.0
  0
LINE
  5
8CB
330
1F
100
AcDbEntity
  8
1
  6
CONTINUOUS
370
50
 62
4
100
AcDbLine
 10
6.957552
 20
-0.13874
 30
0.0
 11
6.959762
 21
-0.137064
 31
0.0
  0
LINE
  5
8CC
330
1F
100
AcDbEntity
  8
1
  6
CONTINUOUS
370
50
 62
4
100
AcDbLine
 10
6.707814
 20
-0.121565
 30
0.0
 11
6.709194999999999
 21
-0.120497
 31
0.0
  0
LINE
  5
8CD
330
1F
100
AcDbEntity
  8
1
  6
CONTINUOUS
370
50
 62
4
100
AcDbLine
 10
6.797785999999999
 20
-0.120329
 30
0.0
 11
6.798128999999999
 21
-0.120061
 31
0.0
  0
LINE
  5
8CE
330
1F
100
AcDbEntity
  8
1
  6
CONTINUOUS
370
50
 62
4
100
AcDbLine
 10
6.953603999999999
 20
-0.132164
 30
0.0
 11
6.954922
 21
-0.131092
 31
0.0
  0
LINE
  5
8CF
330
1F
100
AcDbEntity
  8
1
  6
CONTINUOUS
370
50
 62
4
100
AcDbLine
 10
6.970237999999999
 20
-0.118115
 30
0.0
 11
6.970713
 21
-0.117722
 31
0.0
  0
LINE
  5
8D0
330
1F
100
AcDbEntity
  8
1
  6
CONTINUOUS
370
50
 62
4
100
AcDbLine
 10
6.711729
 20
0.073811
 30
0.0
 11
6.713342
 21
0.075177
 31
0.0
  0
LINE
  5
8D1
330
1F
100
AcDbEntity
  8
1
  6
CONTINUOUS
370
50
 62
4
100
AcDbLine
 10
6.959324
 20
-0.022553
 30
0.0
 11
6.962657999999999
 21
-0.019708
 31
0.0
  0
LINE
  5
8D2
330
1F
100
AcDbEntity
  8
1
  6
CONTINUOUS
370
50
 62
4
100
AcDbLine
 10
6.959762
 20
-0.137064
 30
0.0
 11
6.961886
 21
-0.135229
 31
0.0
  0
LINE
  5
8D3
330
1F
100
AcDbEntity
  8
1
  6
CONTINUOUS
370
50
 62
4
100
AcDbLine
 10
6.954922
 20
-0.131092
 30
0.0
 11
6.956189999999999
 21
-0.129972
 31
0.0
  0
LINE
  5
8D4
330
1F
100
AcDbEntity
  8
1
  6
CONTINUOUS
370
50
 62
4
100
AcDbLine
 10
6.970713
 20
-0.117722
 30
0.0
 11
6.971193
 21
-0.117268
 31
0.0
  0
LINE
  5
8D5
330
1F
100
AcDbEntity
  8
1
  6
CONTINUOUS
370
50
 62
4
100
AcDbLine
 10
6.706656
 20
-0.122664
 30
0.0
 11
6.707814
 21
-0.121565
 31
0.0
  0
LINE
  5
8D6
330
1F
100
AcDbEntity
  8
1
  6
CONTINUOUS
370
50
 62
4
100
AcDbLine
 10
6.956189999999999
 20
-0.129972
 30
0.0
 11
6.957408
 21
-0.128809
 31
0.0
  0
LINE
  5
8D7
330
1F
100
AcDbEntity
  8
1
  6
CONTINUOUS
370
50
 62
4
100
AcDbLine
 10
6.710235
 20
0.072349
 30
0.0
 11
6.711729
 21
0.073811
 31
0.0
  0
LINE
  5
8D8
330
1F
100
AcDbEntity
  8
1
  6
CONTINUOUS
370
50
 62
4
100
AcDbLine
 10
6.961886
 20
-0.135229
 30
0.0
 11
6.963907
 21
-0.133244
 31
0.0
  0
LINE
  5
8D9
330
1F
100
AcDbEntity
  8
1
  6
CONTINUOUS
370
50
 62
4
100
AcDbLine
 10
6.797
 20
0.120077
 30
0.0
 11
6.797127
 21
0.120207
 31
0.0
  0
LINE
  5
8DA
330
1F
100
AcDbEntity
  8
1
  6
CONTINUOUS
370
50
 62
4
100
AcDbLine
 10
6.957408
 20
-0.128809
 30
0.0
 11
6.958576
 21
-0.127608
 31
0.0
  0
LINE
  5
8DB
330
1F
100
AcDbEntity
  8
1
  6
CONTINUOUS
370
50
 62
4
100
AcDbLine
 10
6.797
 20
0.120066
 30
0.0
 11
6.797128
 21
0.120199
 31
0.0
  0
LINE
  5
8DC
330
1F
100
AcDbEntity
  8
1
  6
CONTINUOUS
370
50
 62
4
100
AcDbLine
 10
6.971193
 20
-0.117268
 30
0.0
 11
6.971673
 21
-0.116756
 31
0.0
  0
LINE
  5
8DD
330
1F
100
AcDbEntity
  8
1
  6
CONTINUOUS
370
50
 62
4
100
AcDbLine
 10
6.958576
 20
-0.127608
 30
0.0
 11
6.959695
 21
-0.126372
 31
0.0
  0
LINE
  5
8DE
330
1F
100
AcDbEntity
  8
1
  6
CONTINUOUS
370
50
 62
4
100
AcDbLine
 10
6.963907
 20
-0.133244
 30
0.0
 11
6.965815
 21
-0.131117
 31
0.0
  0
LINE
  5
8DF
330
1F
100
AcDbEntity
  8
1
  6
CONTINUOUS
370
50
 62
4
100
AcDbLine
 10
6.959572
 20
-0.035306
 30
0.0
 11
6.959579
 21
-0.035298
 31
0.0
  0
LINE
  5
8E0
330
1F
100
AcDbEntity
  8
1
  6
CONTINUOUS
370
50
 62
4
100
AcDbLine
 10
6.708879
 20
0.070792
 30
0.0
 11
6.710235
 21
0.072349
 31
0.0
  0
LINE
  5
8E1
330
1F
100
AcDbEntity
  8
1
  6
CONTINUOUS
370
50
 62
4
100
AcDbLine
 10
6.959695
 20
-0.126372
 30
0.0
 11
6.96078
 21
-0.125088
 31
0.0
  0
LINE
  5
8E2
330
1F
100
AcDbEntity
  8
1
  6
CONTINUOUS
370
50
 62
4
100
AcDbLine
 10
6.971673
 20
-0.116756
 30
0.0
 11
6.972150999999999
 21
-0.116184
 31
0.0
  0
LINE
  5
8E3
330
1F
100
AcDbEntity
  8
1
  6
CONTINUOUS
370
50
 62
4
100
AcDbLine
 10
6.705747
 20
-0.123787
 30
0.0
 11
6.706656
 21
-0.122664
 31
0.0
  0
LINE
  5
8E4
330
1F
100
AcDbEntity
  8
1
  6
CONTINUOUS
370
50
 62
4
100
AcDbLine
 10
6.965815
 20
-0.131117
 30
0.0
 11
6.967601999999999
 21
-0.128852
 31
0.0
  0
LINE
  5
8E5
330
1F
100
AcDbEntity
  8
1
  6
CONTINUOUS
370
50
 62
4
100
AcDbLine
 10
6.96078
 20
-0.125088
 30
0.0
 11
6.961836
 21
-0.123749
 31
0.0
  0
LINE
  5
8E6
330
1F
100
AcDbEntity
  8
1
  6
CONTINUOUS
370
50
 62
4
100
AcDbLine
 10
6.972150999999999
 20
-0.116184
 30
0.0
 11
6.97262
 21
-0.115555
 31
0.0
  0
LINE
  5
8E7
330
1F
100
AcDbEntity
  8
1
  6
CONTINUOUS
370
50
 62
4
100
AcDbLine
 10
6.961836
 20
-0.123749
 30
0.0
 11
6.962863
 21
-0.122356
 31
0.0
  0
LINE
  5
8E8
330
1F
100
AcDbEntity
  8
1
  6
CONTINUOUS
370
50
 62
4
100
AcDbLine
 10
6.707681
 20
0.069138
 30
0.0
 11
6.708879
 21
0.070792
 31
0.0
  0
LINE
  5
8E9
330
1F
100
AcDbEntity
  8
1
  6
CONTINUOUS
370
50
 62
4
100
AcDbLine
 10
6.798128999999999
 20
-0.120061
 30
0.0
 11
6.798478999999999
 21
-0.119571
 31
0.0
  0
LINE
  5
8EA
330
1F
100
AcDbEntity
  8
1
  6
CONTINUOUS
370
50
 62
4
100
AcDbLine
 10
6.967601999999999
 20
-0.128852
 30
0.0
 11
6.969262
 21
-0.126452
 31
0.0
  0
LINE
  5
8EB
330
1F
100
AcDbEntity
  8
1
  6
CONTINUOUS
370
50
 62
4
100
AcDbLine
 10
6.962863
 20
-0.122356
 30
0.0
 11
6.963861
 21
-0.120909
 31
0.0
  0
LINE
  5
8EC
330
1F
100
AcDbEntity
  8
1
  6
CONTINUOUS
370
50
 62
4
100
AcDbLine
 10
6.97262
 20
-0.115555
 30
0.0
 11
6.97308
 21
-0.114869
 31
0.0
  0
LINE
  5
8ED
330
1F
100
AcDbEntity
  8
1
  6
CONTINUOUS
370
50
 62
4
100
AcDbLine
 10
6.963861
 20
-0.120909
 30
0.0
 11
6.964828
 21
-0.119407
 31
0.0
  0
LINE
  5
8EE
330
1F
100
AcDbEntity
  8
1
  6
CONTINUOUS
370
50
 62
4
100
AcDbLine
 10
6.969262
 20
-0.126452
 30
0.0
 11
6.970787
 21
-0.123922
 31
0.0
  0
LINE
  5
8EF
330
1F
100
AcDbEntity
  8
1
  6
CONTINUOUS
370
50
 62
4
100
AcDbLine
 10
6.97308
 20
-0.114869
 30
0.0
 11
6.973523999999999
 21
-0.114128
 31
0.0
  0
LINE
  5
8F0
330
1F
100
AcDbEntity
  8
1
  6
CONTINUOUS
370
50
 62
4
100
AcDbLine
 10
6.706659999999999
 20
0.067386
 30
0.0
 11
6.707681
 21
0.069138
 31
0.0
  0
LINE
  5
8F1
330
1F
100
AcDbEntity
  8
1
  6
CONTINUOUS
370
50
 62
4
100
AcDbLine
 10
6.705125
 20
-0.124909
 30
0.0
 11
6.705747
 21
-0.123787
 31
0.0
  0
LINE
  5
8F2
330
1F
100
AcDbEntity
  8
1
  6
CONTINUOUS
370
50
 62
4
100
AcDbLine
 10
6.973523999999999
 20
-0.114128
 30
0.0
 11
6.973948999999999
 21
-0.113332
 31
0.0
  0
LINE
  5
8F3
330
1F
100
AcDbEntity
  8
1
  6
CONTINUOUS
370
50
 62
4
100
AcDbLine
 10
6.970787
 20
-0.123922
 30
0.0
 11
6.972162
 21
-0.121282
 31
0.0
  0
LINE
  5
8F4
330
1F
100
AcDbEntity
  8
1
  6
CONTINUOUS
370
50
 62
4
100
AcDbLine
 10
6.798478999999999
 20
-0.119571
 30
0.0
 11
6.798836
 21
-0.118859
 31
0.0
  0
LINE
  5
8F5
330
1F
100
AcDbEntity
  8
1
  6
CONTINUOUS
370
50
 62
4
100
AcDbLine
 10
6.92038
 20
-0.012842
 30
0.0
 11
6.921428
 21
-0.010688
 31
0.0
  0
LINE
  5
8F6
330
1F
100
AcDbEntity
  8
1
  6
CONTINUOUS
370
50
 62
4
100
AcDbLine
 10
6.973948999999999
 20
-0.113332
 30
0.0
 11
6.974352
 21
-0.112482
 31
0.0
  0
LINE
  5
8F7
330
1F
100
AcDbEntity
  8
1
  6
CONTINUOUS
370
50
 62
4
100
AcDbLine
 10
6.705838
 20
0.065537
 30
0.0
 11
6.706659999999999
 21
0.067386
 31
0.0
  0
LINE
  5
8F8
330
1F
100
AcDbEntity
  8
1
  6
CONTINUOUS
370
50
 62
4
100
AcDbLine
 10
6.972162
 20
-0.121282
 30
0.0
 11
6.973376
 21
-0.118545
 31
0.0
  0
LINE
  5
8F9
330
1F
100
AcDbEntity
  8
1
  6
CONTINUOUS
370
50
 62
4
100
AcDbLine
 10
6.921428
 20
-0.010688
 30
0.0
 11
6.922384
 21
-0.008503
 31
0.0
  0
LINE
  5
8FA
330
1F
100
AcDbEntity
  8
1
  6
CONTINUOUS
370
50
 62
4
100
AcDbLine
 10
6.974352
 20
-0.112482
 30
0.0
 11
6.974733
 21
-0.111568
 31
0.0
  0
LINE
  5
8FB
330
1F
100
AcDbEntity
  8
1
  6
CONTINUOUS
370
50
 62
4
100
AcDbLine
 10
6.798836
 20
-0.118859
 30
0.0
 11
6.7992
 21
-0.117929
 31
0.0
  0
LINE
  5
8FC
330
1F
100
AcDbEntity
  8
1
  6
CONTINUOUS
370
50
 62
4
100
AcDbLine
 10
6.922384
 20
-0.008503
 30
0.0
 11
6.923245
 21
-0.006294
 31
0.0
  0
LINE
  5
8FD
330
1F
100
AcDbEntity
  8
1
  6
CONTINUOUS
370
50
 62
4
100
AcDbLine
 10
6.973376
 20
-0.118545
 30
0.0
 11
6.974425999999999
 21
-0.115718
 31
0.0
  0
LINE
  5
8FE
330
1F
100
AcDbEntity
  8
1
  6
CONTINUOUS
370
50
 62
4
100
AcDbLine
 10
6.974733
 20
-0.111568
 30
0.0
 11
6.97511
 21
-0.110528
 31
0.0
  0
LINE
  5
8FF
330
1F
100
AcDbEntity
  8
1
  6
CONTINUOUS
370
50
 62
4
100
AcDbLine
 10
6.923245
 20
-0.006294
 30
0.0
 11
6.924001
 21
-0.004091
 31
0.0
  0
LINE
  5
900
330
1F
100
AcDbEntity
  8
1
  6
CONTINUOUS
370
50
 62
4
100
AcDbLine
 10
6.968127
 20
-0.04773
 30
0.0
 11
6.976999999999999
 21
-0.02042
 31
0.0
  0
LINE
  5
901
330
1F
100
AcDbEntity
  8
1
  6
CONTINUOUS
370
50
 62
4
100
AcDbLine
 10
6.7992
 20
-0.117929
 30
0.0
 11
6.79957
 21
-0.116785
 31
0.0
  0
LINE
  5
902
330
1F
100
AcDbEntity
  8
1
  6
CONTINUOUS
370
50
 62
4
100
AcDbLine
 10
6.97511
 20
-0.110528
 30
0.0
 11
6.975474999999999
 21
-0.10938
 31
0.0
  0
LINE
  5
903
330
1F
100
AcDbEntity
  8
1
  6
CONTINUOUS
370
50
 62
4
100
AcDbLine
 10
6.705239
 20
0.063613
 30
0.0
 11
6.705838
 21
0.065537
 31
0.0
  0
LINE
  5
904
330
1F
100
AcDbEntity
  8
1
  6
CONTINUOUS
370
50
 62
4
100
AcDbLine
 10
6.974425999999999
 20
-0.115718
 30
0.0
 11
6.975306
 21
-0.112809
 31
0.0
  0
LINE
  5
905
330
1F
100
AcDbEntity
  8
1
  6
CONTINUOUS
370
50
 62
4
100
AcDbLine
 10
6.924001
 20
-0.004091
 30
0.0
 11
6.924649
 21
-0.001906
 31
0.0
  0
LINE
  5
906
330
1F
100
AcDbEntity
  8
1
  6
CONTINUOUS
370
50
 62
4
100
AcDbLine
 10
6.704804999999999
 20
-0.12601
 30
0.0
 11
6.705125
 21
-0.124909
 31
0.0
  0
LINE
  5
907
330
1F
100
AcDbEntity
  8
1
  6
CONTINUOUS
370
50
 62
4
100
AcDbLine
 10
6.79957
 20
-0.116785
 30
0.0
 11
6.799945999999999
 21
-0.115428
 31
0.0
  0
LINE
  5
908
330
1F
100
AcDbEntity
  8
1
  6
CONTINUOUS
370
50
 62
4
100
AcDbLine
 10
6.975474999999999
 20
-0.10938
 30
0.0
 11
6.975814
 21
-0.108156
 31
0.0
  0
LINE
  5
909
330
1F
100
AcDbEntity
  8
1
  6
CONTINUOUS
370
50
 62
4
100
AcDbLine
 10
6.924649
 20
-0.001906
 30
0.0
 11
6.925191
 21
0.000255
 31
0.0
  0
LINE
  5
90A
330
1F
100
AcDbEntity
  8
1
  6
CONTINUOUS
370
50
 62
4
100
AcDbLine
 10
6.975306
 20
-0.112809
 30
0.0
 11
6.975760999999999
 21
-0.110976
 31
0.0
  0
LINE
  5
90B
330
1F
100
AcDbEntity
  8
1
  6
CONTINUOUS
370
50
 62
4
100
AcDbLine
 10
6.975814
 20
-0.108156
 30
0.0
 11
6.976114
 21
-0.106888
 31
0.0
  0
LINE
  5
90C
330
1F
100
AcDbEntity
  8
1
  6
CONTINUOUS
370
50
 62
4
100
AcDbLine
 10
6.975760999999999
 20
-0.110976
 30
0.0
 11
6.976144
 21
-0.109138
 31
0.0
  0
LINE
  5
90D
330
1F
100
AcDbEntity
  8
1
  6
CONTINUOUS
370
50
 62
4
100
AcDbLine
 10
6.925191
 20
0.000255
 30
0.0
 11
6.925629
 21
0.002386
 31
0.0
  0
LINE
  5
90E
330
1F
100
AcDbEntity
  8
1
  6
CONTINUOUS
370
50
 62
4
100
AcDbLine
 10
6.976114
 20
-0.106888
 30
0.0
 11
6.976367
 21
-0.105578
 31
0.0
  0
LINE
  5
90F
330
1F
100
AcDbEntity
  8
1
  6
CONTINUOUS
370
50
 62
4
100
AcDbLine
 10
6.704879
 20
0.061644
 30
0.0
 11
6.705239
 21
0.063613
 31
0.0
  0
LINE
  5
910
330
1F
100
AcDbEntity
  8
1
  6
CONTINUOUS
370
50
 62
4
100
AcDbLine
 10
6.976144
 20
-0.109138
 30
0.0
 11
6.976456
 21
-0.107297
 31
0.0
  0
LINE
  5
911
330
1F
100
AcDbEntity
  8
1
  6
CONTINUOUS
370
50
 62
4
100
AcDbLine
 10
6.925629
 20
0.002386
 30
0.0
 11
6.925962999999999
 21
0.004482
 31
0.0
  0
LINE
  5
912
330
1F
100
AcDbEntity
  8
1
  6
CONTINUOUS
370
50
 62
4
100
AcDbLine
 10
6.976367
 20
-0.105578
 30
0.0
 11
6.976588
 21
-0.104126
 31
0.0
  0
LINE
  5
913
330
1F
100
AcDbEntity
  8
1
  6
CONTINUOUS
370
50
 62
4
100
AcDbLine
 10
6.976456
 20
-0.107297
 30
0.0
 11
6.976696
 21
-0.105457
 31
0.0
  0
LINE
  5
914
330
1F
100
AcDbEntity
  8
1
  6
CONTINUOUS
370
50
 62
4
100
AcDbLine
 10
6.804796
 20
0.010484
 30
0.0
 11
6.804993
 21
0.012117
 31
0.0
  0
LINE
  5
915
330
1F
100
AcDbEntity
  8
1
  6
CONTINUOUS
370
50
 62
4
100
AcDbLine
 10
6.804797
 20
0.010482
 30
0.0
 11
6.804994
 21
0.012117
 31
0.0
  0
LINE
  5
916
330
1F
100
AcDbEntity
  8
1
  6
CONTINUOUS
370
50
 62
4
100
AcDbLine
 10
6.804597999999999
 20
0.008817
 30
0.0
 11
6.804796
 21
0.010484
 31
0.0
  0
LINE
  5
917
330
1F
100
AcDbEntity
  8
1
  6
CONTINUOUS
370
50
 62
4
100
AcDbLine
 10
6.8046
 20
0.008815
 30
0.0
 11
6.804797
 21
0.010482
 31
0.0
  0
LINE
  5
918
330
1F
100
AcDbEntity
  8
1
  6
CONTINUOUS
370
50
 62
4
100
AcDbLine
 10
6.976588
 20
-0.104126
 30
0.0
 11
6.976769
 21
-0.102585
 31
0.0
  0
LINE
  5
919
330
1F
100
AcDbEntity
  8
1
  6
CONTINUOUS
370
50
 62
4
100
AcDbLine
 10
6.804399999999999
 20
0.007118
 30
0.0
 11
6.804597999999999
 21
0.008817
 31
0.0
  0
LINE
  5
91A
330
1F
100
AcDbEntity
  8
1
  6
CONTINUOUS
370
50
 62
4
100
AcDbLine
 10
6.804402
 20
0.007115
 30
0.0
 11
6.8046
 21
0.008815
 31
0.0
  0
LINE
  5
91B
330
1F
100
AcDbEntity
  8
1
  6
CONTINUOUS
370
50
 62
4
100
AcDbLine
 10
6.804205
 20
0.005383
 30
0.0
 11
6.804402
 21
0.007115
 31
0.0
  0
LINE
  5
91C
330
1F
100
AcDbEntity
  8
1
  6
CONTINUOUS
370
50
 62
4
100
AcDbLine
 10
6.804202999999999
 20
0.005386
 30
0.0
 11
6.804399999999999
 21
0.007118
 31
0.0
  0
LINE
  5
91D
330
1F
100
AcDbEntity
  8
1
  6
CONTINUOUS
370
50
 62
4
100
AcDbLine
 10
6.925962999999999
 20
0.004482
 30
0.0
 11
6.926194
 21
0.006528
 31
0.0
  0
LINE
  5
91E
330
1F
100
AcDbEntity
  8
1
  6
CONTINUOUS
370
50
 62
4
100
AcDbLine
 10
6.804006999999999
 20
0.003619
 30
0.0
 11
6.804205
 21
0.005383
 31
0.0
  0
LINE
  5
91F
330
1F
100
AcDbEntity
  8
1
  6
CONTINUOUS
370
50
 62
4
100
AcDbLine
 10
6.804005
 20
0.003622
 30
0.0
 11
6.804202999999999
 21
0.005386
 31
0.0
  0
LINE
  5
920
330
1F
100
AcDbEntity
  8
1
  6
CONTINUOUS
370
50
 62
4
100
AcDbLine
 10
6.803807
 20
0.001826
 30
0.0
 11
6.804005
 21
0.003622
 31
0.0
  0
LINE
  5
921
330
1F
100
AcDbEntity
  8
1
  6
CONTINUOUS
370
50
 62
4
100
AcDbLine
 10
6.803809999999999
 20
0.001825
 30
0.0
 11
6.804006999999999
 21
0.003619
 31
0.0
  0
LINE
  5
922
330
1F
100
AcDbEntity
  8
1
  6
CONTINUOUS
370
50
 62
4
100
AcDbLine
 10
6.803611999999999
 20
0.0
 30
0.0
 11
6.803809999999999
 21
0.001825
 31
0.0
  0
LINE
  5
923
330
1F
100
AcDbEntity
  8
1
  6
CONTINUOUS
370
50
 62
4
100
AcDbLine
 10
6.803609
 20
0.0
 30
0.0
 11
6.803807
 21
0.001826
 31
0.0
  0
LINE
  5
924
330
1F
100
AcDbEntity
  8
1
  6
CONTINUOUS
370
50
 62
4
100
AcDbLine
 10
6.803128
 20
-0.004569
 30
0.0
 11
6.803609
 21
0.0
 31
0.0
  0
LINE
  5
925
330
1F
100
AcDbEntity
  8
1
  6
CONTINUOUS
370
50
 62
4
100
AcDbLine
 10
6.803133
 20
-0.004566
 30
0.0
 11
6.803611999999999
 21
0.0
 31
0.0
  0
LINE
  5
926
330
1F
100
AcDbEntity
  8
1
  6
CONTINUOUS
370
50
 62
4
100
AcDbLine
 10
6.802654
 20
-0.009302
 30
0.0
 11
6.803133
 21
-0.004566
 31
0.0
  0
LINE
  5
927
330
1F
100
AcDbEntity
  8
1
  6
CONTINUOUS
370
50
 62
4
100
AcDbLine
 10
6.802649
 20
-0.009313
 30
0.0
 11
6.803128
 21
-0.004569
 31
0.0
  0
LINE
  5
928
330
1F
100
AcDbEntity
  8
1
  6
CONTINUOUS
370
50
 62
4
100
AcDbLine
 10
6.802172
 20
-0.014225
 30
0.0
 11
6.802649
 21
-0.009313
 31
0.0
  0
LINE
  5
929
330
1F
100
AcDbEntity
  8
1
  6
CONTINUOUS
370
50
 62
4
100
AcDbLine
 10
6.802179
 20
-0.014203
 30
0.0
 11
6.802654
 21
-0.009302
 31
0.0
  0
LINE
  5
92A
330
1F
100
AcDbEntity
  8
1
  6
CONTINUOUS
370
50
 62
4
100
AcDbLine
 10
6.801707
 20
-0.019261
 30
0.0
 11
6.802179
 21
-0.014203
 31
0.0
  0
LINE
  5
92B
330
1F
100
AcDbEntity
  8
1
  6
CONTINUOUS
370
50
 62
4
100
AcDbLine
 10
6.801699999999999
 20
-0.019295
 30
0.0
 11
6.802172
 21
-0.014225
 31
0.0
  0
LINE
  5
92C
330
1F
100
AcDbEntity
  8
1
  6
CONTINUOUS
370
50
 62
4
100
AcDbLine
 10
6.976696
 20
-0.105457
 30
0.0
 11
6.976865999999999
 21
-0.103619
 31
0.0
  0
LINE
  5
92D
330
1F
100
AcDbEntity
  8
1
  6
CONTINUOUS
370
50
 62
4
100
AcDbLine
 10
6.801232
 20
-0.024497
 30
0.0
 11
6.801699999999999
 21
-0.019295
 31
0.0
  0
LINE
  5
92E
330
1F
100
AcDbEntity
  8
1
  6
CONTINUOUS
370
50
 62
4
100
AcDbLine
 10
6.801239
 20
-0.024469
 30
0.0
 11
6.801707
 21
-0.019261
 31
0.0
  0
LINE
  5
92F
330
1F
100
AcDbEntity
  8
1
  6
CONTINUOUS
370
50
 62
4
100
AcDbLine
 10
6.804993
 20
0.012117
 30
0.0
 11
6.805146
 21
0.013844
 31
0.0
  0
LINE
  5
930
330
1F
100
AcDbEntity
  8
1
  6
CONTINUOUS
370
50
 62
4
100
AcDbLine
 10
6.804994
 20
0.012117
 30
0.0
 11
6.805168
 21
0.014107
 31
0.0
  0
LINE
  5
931
330
1F
100
AcDbEntity
  8
1
  6
CONTINUOUS
370
50
 62
4
100
AcDbLine
 10
6.800777
 20
-0.029811
 30
0.0
 11
6.801239
 21
-0.024469
 31
0.0
  0
LINE
  5
932
330
1F
100
AcDbEntity
  8
1
  6
CONTINUOUS
370
50
 62
4
100
AcDbLine
 10
6.800771999999999
 20
-0.02982
 30
0.0
 11
6.801232
 21
-0.024497
 31
0.0
  0
LINE
  5
933
330
1F
100
AcDbEntity
  8
1
  6
CONTINUOUS
370
50
 62
4
100
AcDbLine
 10
6.976769
 20
-0.102585
 30
0.0
 11
6.976901
 21
-0.101035
 31
0.0
  0
LINE
  5
934
330
1F
100
AcDbEntity
  8
1
  6
CONTINUOUS
370
50
 62
4
100
AcDbLine
 10
6.800318
 20
-0.035254
 30
0.0
 11
6.800771999999999
 21
-0.02982
 31
0.0
  0
LINE
  5
935
330
1F
100
AcDbEntity
  8
1
  6
CONTINUOUS
370
50
 62
4
100
AcDbLine
 10
6.800322
 20
-0.035259
 30
0.0
 11
6.800777
 21
-0.029811
 31
0.0
  0
LINE
  5
936
330
1F
100
AcDbEntity
  8
1
  6
CONTINUOUS
370
50
 62
4
100
AcDbLine
 10
6.799871
 20
-0.04079
 30
0.0
 11
6.800318
 21
-0.035254
 31
0.0
  0
LINE
  5
937
330
1F
100
AcDbEntity
  8
1
  6
CONTINUOUS
370
50
 62
4
100
AcDbLine
 10
6.799875
 20
-0.040802
 30
0.0
 11
6.800322
 21
-0.035259
 31
0.0
  0
LINE
  5
938
330
1F
100
AcDbEntity
  8
1
  6
CONTINUOUS
370
50
 62
4
100
AcDbLine
 10
6.799436
 20
-0.046431
 30
0.0
 11
6.799875
 21
-0.040802
 31
0.0
  0
LINE
  5
939
330
1F
100
AcDbEntity
  8
1
  6
CONTINUOUS
370
50
 62
4
100
AcDbLine
 10
6.799431999999999
 20
-0.046419
 30
0.0
 11
6.799871
 21
-0.04079
 31
0.0
  0
LINE
  5
93A
330
1F
100
AcDbEntity
  8
1
  6
CONTINUOUS
370
50
 62
4
100
AcDbLine
 10
6.798999999999999
 20
-0.052129
 30
0.0
 11
6.799431999999999
 21
-0.046419
 31
0.0
  0
LINE
  5
93B
330
1F
100
AcDbEntity
  8
1
  6
CONTINUOUS
370
50
 62
4
100
AcDbLine
 10
6.799005999999999
 20
-0.052135
 30
0.0
 11
6.799436
 21
-0.046431
 31
0.0
  0
LINE
  5
93C
330
1F
100
AcDbEntity
  8
1
  6
CONTINUOUS
370
50
 62
4
100
AcDbLine
 10
6.798584
 20
-0.057904
 30
0.0
 11
6.799005999999999
 21
-0.052135
 31
0.0
  0
LINE
  5
93D
330
1F
100
AcDbEntity
  8
1
  6
CONTINUOUS
370
50
 62
4
100
AcDbLine
 10
6.798578999999999
 20
-0.057886
 30
0.0
 11
6.798999999999999
 21
-0.052129
 31
0.0
  0
LINE
  5
93E
330
1F
100
AcDbEntity
  8
1
  6
CONTINUOUS
370
50
 62
4
100
AcDbLine
 10
6.805146
 20
0.013844
 30
0.0
 11
6.805276999999999
 21
0.015648
 31
0.0
  0
LINE
  5
93F
330
1F
100
AcDbEntity
  8
1
  6
CONTINUOUS
370
50
 62
4
100
AcDbLine
 10
6.798171
 20
-0.063718
 30
0.0
 11
6.798584
 21
-0.057904
 31
0.0
  0
LINE
  5
940
330
1F
100
AcDbEntity
  8
1
  6
CONTINUOUS
370
50
 62
4
100
AcDbLine
 10
6.798168
 20
-0.063673
 30
0.0
 11
6.798578999999999
 21
-0.057886
 31
0.0
  0
LINE
  5
941
330
1F
100
AcDbEntity
  8
1
  6
CONTINUOUS
370
50
 62
4
100
AcDbLine
 10
6.805168
 20
0.014107
 30
0.0
 11
6.805314
 21
0.016205
 31
0.0
  0
LINE
  5
942
330
1F
100
AcDbEntity
  8
1
  6
CONTINUOUS
370
50
 62
4
100
AcDbLine
 10
6.797768
 20
-0.069479
 30
0.0
 11
6.798168
 21
-0.063673
 31
0.0
  0
LINE
  5
943
330
1F
100
AcDbEntity
  8
1
  6
CONTINUOUS
370
50
 62
4
100
AcDbLine
 10
6.79777
 20
-0.069547
 30
0.0
 11
6.798171
 21
-0.063718
 31
0.0
  0
LINE
  5
944
330
1F
100
AcDbEntity
  8
1
  6
CONTINUOUS
370
50
 62
4
100
AcDbLine
 10
6.797378999999999
 20
-0.075381
 30
0.0
 11
6.79777
 21
-0.069547
 31
0.0
  0
LINE
  5
945
330
1F
100
AcDbEntity
  8
1
  6
CONTINUOUS
370
50
 62
4
100
AcDbLine
 10
6.797378999999999
 20
-0.075292
 30
0.0
 11
6.797768
 21
-0.069479
 31
0.0
  0
LINE
  5
946
330
1F
100
AcDbEntity
  8
1
  6
CONTINUOUS
370
50
 62
4
100
AcDbLine
 10
6.926194
 20
0.006528
 30
0.0
 11
6.926323999999999
 21
0.008511
 31
0.0
  0
LINE
  5
947
330
1F
100
AcDbEntity
  8
1
  6
CONTINUOUS
370
50
 62
4
100
AcDbLine
 10
6.797
 20
-0.081102
 30
0.0
 11
6.797378999999999
 21
-0.075292
 31
0.0
  0
LINE
  5
948
330
1F
100
AcDbEntity
  8
1
  6
CONTINUOUS
370
50
 62
4
100
AcDbLine
 10
6.797
 20
-0.081207
 30
0.0
 11
6.797378999999999
 21
-0.075381
 31
0.0
  0
LINE
  5
949
330
1F
100
AcDbEntity
  8
1
  6
CONTINUOUS
370
50
 62
4
100
AcDbLine
 10
6.926260999999999
 20
0.084104
 30
0.0
 11
6.926352
 21
0.085568
 31
0.0
  0
LINE
  5
94A
330
1F
100
AcDbEntity
  8
1
  6
CONTINUOUS
370
50
 62
4
100
AcDbLine
 10
6.95926
 20
-0.039923
 30
0.0
 11
6.959538999999999
 21
-0.035342
 31
0.0
  0
LINE
  5
94B
330
1F
100
AcDbEntity
  8
1
  6
CONTINUOUS
370
50
 62
4
100
AcDbLine
 10
6.704758
 20
0.059633
 30
0.0
 11
6.704879
 21
0.061644
 31
0.0
  0
LINE
  5
94C
330
1F
100
AcDbEntity
  8
1
  6
CONTINUOUS
370
50
 62
4
100
AcDbLine
 10
6.805276999999999
 20
0.015648
 30
0.0
 11
6.805385999999999
 21
0.017525
 31
0.0
  0
LINE
  5
94D
330
1F
100
AcDbEntity
  8
1
  6
CONTINUOUS
370
50
 62
4
100
AcDbLine
 10
6.976865999999999
 20
-0.103619
 30
0.0
 11
6.976966999999999
 21
-0.101795
 31
0.0
  0
LINE
  5
94E
330
1F
100
AcDbEntity
  8
1
  6
CONTINUOUS
370
50
 62
4
100
AcDbLine
 10
6.805314
 20
0.016205
 30
0.0
 11
6.805428999999999
 21
0.018406
 31
0.0
  0
LINE
  5
94F
330
1F
100
AcDbEntity
  8
1
  6
CONTINUOUS
370
50
 62
4
100
AcDbLine
 10
6.959041999999999
 20
-0.044526
 30
0.0
 11
6.95926
 21
-0.039923
 31
0.0
  0
LINE
  5
950
330
1F
100
AcDbEntity
  8
1
  6
CONTINUOUS
370
50
 62
4
100
AcDbLine
 10
6.976901
 20
-0.101035
 30
0.0
 11
6.976973
 21
-0.099507
 31
0.0
  0
LINE
  5
951
330
1F
100
AcDbEntity
  8
1
  6
CONTINUOUS
370
50
 62
4
100
AcDbLine
 10
6.805385999999999
 20
0.017525
 30
0.0
 11
6.805471
 21
0.019473
 31
0.0
  0
LINE
  5
952
330
1F
100
AcDbEntity
  8
1
  6
CONTINUOUS
370
50
 62
4
100
AcDbLine
 10
6.805428999999999
 20
0.018406
 30
0.0
 11
6.805511999999999
 21
0.020699
 31
0.0
  0
LINE
  5
953
330
1F
100
AcDbEntity
  8
1
  6
CONTINUOUS
370
50
 62
4
100
AcDbLine
 10
6.958885
 20
-0.049145
 30
0.0
 11
6.959041999999999
 21
-0.044526
 31
0.0
  0
LINE
  5
954
330
1F
100
AcDbEntity
  8
1
  6
CONTINUOUS
370
50
 62
4
100
AcDbLine
 10
6.805471
 20
0.019473
 30
0.0
 11
6.805531999999999
 21
0.021488
 31
0.0
  0
LINE
  5
955
330
1F
100
AcDbEntity
  8
1
  6
CONTINUOUS
370
50
 62
4
100
AcDbLine
 10
6.959579
 20
-0.035298
 30
0.0
 11
6.959619999999999
 21
-0.03347
 31
0.0
  0
LINE
  5
956
330
1F
100
AcDbEntity
  8
1
  6
CONTINUOUS
370
50
 62
4
100
AcDbLine
 10
6.805511999999999
 20
0.020699
 30
0.0
 11
6.805562
 21
0.02307
 31
0.0
  0
LINE
  5
957
330
1F
100
AcDbEntity
  8
1
  6
CONTINUOUS
370
50
 62
4
100
AcDbLine
 10
6.958791
 20
-0.053776
 30
0.0
 11
6.958885
 21
-0.049145
 31
0.0
  0
LINE
  5
958
330
1F
100
AcDbEntity
  8
1
  6
CONTINUOUS
370
50
 62
4
100
AcDbLine
 10
6.976966999999999
 20
-0.101795
 30
0.0
 11
6.976999999999999
 21
-0.09999
 31
0.0
  0
LINE
  5
959
330
1F
100
AcDbEntity
  8
1
  6
CONTINUOUS
370
50
 62
4
100
AcDbLine
 10
6.926323999999999
 20
0.008511
 30
0.0
 11
6.926358
 21
0.010428
 31
0.0
  0
LINE
  5
95A
330
1F
100
AcDbEntity
  8
1
  6
CONTINUOUS
370
50
 62
4
100
AcDbLine
 10
6.805531999999999
 20
0.021488
 30
0.0
 11
6.805568
 21
0.023566
 31
0.0
  0
LINE
  5
95B
330
1F
100
AcDbEntity
  8
1
  6
CONTINUOUS
370
50
 62
4
100
AcDbLine
 10
6.704787
 20
-0.127087
 30
0.0
 11
6.704804999999999
 21
-0.12601
 31
0.0
  0
LINE
  5
95C
330
1F
100
AcDbEntity
  8
1
  6
CONTINUOUS
370
50
 62
4
100
AcDbLine
 10
6.976973
 20
-0.099507
 30
0.0
 11
6.976993999999999
 21
-0.097893
 31
0.0
  0
LINE
  5
95D
330
1F
100
AcDbEntity
  8
1
  6
CONTINUOUS
370
50
 62
4
100
AcDbLine
 10
6.959619999999999
 20
-0.03347
 30
0.0
 11
6.959633999999999
 21
-0.031639
 31
0.0
  0
LINE
  5
95E
330
1F
100
AcDbEntity
  8
1
  6
CONTINUOUS
370
50
 62
4
100
AcDbLine
 10
6.805562
 20
0.02307
 30
0.0
 11
6.805579
 21
0.025511
 31
0.0
  0
LINE
  5
95F
330
1F
100
AcDbEntity
  8
1
  6
CONTINUOUS
370
50
 62
4
100
AcDbLine
 10
6.958759
 20
-0.058412
 30
0.0
 11
6.958791
 21
-0.053776
 31
0.0
  0
LINE
  5
960
330
1F
100
AcDbEntity
  8
1
  6
CONTINUOUS
370
50
 62
4
100
AcDbLine
 10
6.805568
 20
0.023566
 30
0.0
 11
6.805578
 21
0.025704
 31
0.0
  0
LINE
  5
961
330
1F
100
AcDbEntity
  8
1
  6
CONTINUOUS
370
50
 62
4
100
AcDbLine
 10
-0.01
 20
-1.99995
 30
0.0
 11
-0.01
 21
1.99995
 31
0.0
  0
LINE
  5
962
330
1F
100
AcDbEntity
  8
1
  6
CONTINUOUS
370
50
 62
4
100
AcDbLine
 10
6.476999999999999
 20
-0.13995
 30
0.0
 11
6.476999999999999
 21
0.13995
 31
0.0
  0
LINE
  5
963
330
1F
100
AcDbEntity
  8
1
  6
CONTINUOUS
370
50
 62
4
100
AcDbLine
 10
6.797
 20
0.089249
 30
0.0
 11
6.797
 21
0.120679
 31
0.0
  0
LINE
  5
964
330
1F
100
AcDbEntity
  8
1
  6
CONTINUOUS
370
50
 62
4
100
AcDbLine
 10
6.797
 20
-0.111651
 30
0.0
 11
6.797
 21
-0.081207
 31
0.0
  0
LINE
  5
965
330
1F
100
AcDbEntity
  8
1
  6
CONTINUOUS
370
50
 62
4
100
AcDbLine
 10
6.797
 20
-0.081207
 30
0.0
 11
6.797
 21
-0.079734
 31
0.0
  0
LINE
  5
966
330
1F
100
AcDbEntity
  8
1
  6
CONTINUOUS
370
50
 62
4
100
AcDbLine
 10
6.797
 20
-0.079734
 30
0.0
 11
6.797
 21
-0.078259
 31
0.0
  0
LINE
  5
967
330
1F
100
AcDbEntity
  8
1
  6
CONTINUOUS
370
50
 62
4
100
AcDbLine
 10
6.797
 20
-0.078259
 30
0.0
 11
6.797
 21
-0.076783
 31
0.0
  0
LINE
  5
968
330
1F
100
AcDbEntity
  8
1
  6
CONTINUOUS
370
50
 62
4
100
AcDbLine
 10
6.797
 20
-0.076783
 30
0.0
 11
6.797
 21
-0.075306
 31
0.0
  0
LINE
  5
969
330
1F
100
AcDbEntity
  8
1
  6
CONTINUOUS
370
50
 62
4
100
AcDbLine
 10
6.797
 20
-0.075306
 30
0.0
 11
6.797
 21
-0.073828
 31
0.0
  0
LINE
  5
96A
330
1F
100
AcDbEntity
  8
1
  6
CONTINUOUS
370
50
 62
4
100
AcDbLine
 10
6.797
 20
-0.073828
 30
0.0
 11
6.797
 21
-0.07235
 31
0.0
  0
LINE
  5
96B
330
1F
100
AcDbEntity
  8
1
  6
CONTINUOUS
370
50
 62
4
100
AcDbLine
 10
6.797
 20
-0.07235
 30
0.0
 11
6.797
 21
-0.070871
 31
0.0
  0
LINE
  5
96C
330
1F
100
AcDbEntity
  8
1
  6
CONTINUOUS
370
50
 62
4
100
AcDbLine
 10
6.797
 20
-0.091817
 30
0.0
 11
6.797
 21
-0.090293
 31
0.0
  0
LINE
  5
96D
330
1F
100
AcDbEntity
  8
1
  6
CONTINUOUS
370
50
 62
4
100
AcDbLine
 10
6.797
 20
-0.090293
 30
0.0
 11
6.797
 21
-0.088767
 31
0.0
  0
LINE
  5
96E
330
1F
100
AcDbEntity
  8
1
  6
CONTINUOUS
370
50
 62
4
100
AcDbLine
 10
6.797
 20
-0.088767
 30
0.0
 11
6.797
 21
-0.087238
 31
0.0
  0
LINE
  5
96F
330
1F
100
AcDbEntity
  8
1
  6
CONTINUOUS
370
50
 62
4
100
AcDbLine
 10
6.797
 20
-0.087238
 30
0.0
 11
6.797
 21
-0.085707
 31
0.0
  0
LINE
  5
970
330
1F
100
AcDbEntity
  8
1
  6
CONTINUOUS
370
50
 62
4
100
AcDbLine
 10
6.797
 20
-0.085707
 30
0.0
 11
6.797
 21
-0.084174
 31
0.0
  0
LINE
  5
971
330
1F
100
AcDbEntity
  8
1
  6
CONTINUOUS
370
50
 62
4
100
AcDbLine
 10
6.797
 20
-0.084174
 30
0.0
 11
6.797
 21
-0.082639
 31
0.0
  0
LINE
  5
972
330
1F
100
AcDbEntity
  8
1
  6
CONTINUOUS
370
50
 62
4
100
AcDbLine
 10
6.797
 20
-0.082639
 30
0.0
 11
6.797
 21
-0.081102
 31
0.0
  0
LINE
  5
973
330
1F
100
AcDbEntity
  8
1
  6
CONTINUOUS
370
50
 62
4
100
AcDbLine
 10
6.797
 20
-0.115464
 30
0.0
 11
6.797
 21
-0.091817
 31
0.0
  0
LINE
  5
974
330
1F
100
AcDbEntity
  8
1
  6
CONTINUOUS
370
50
 62
4
100
AcDbLine
 10
6.806999999999999
 20
0.112918
 30
0.0
 11
6.806999999999999
 21
0.116095
 31
0.0
  0
LINE
  5
975
330
1F
100
AcDbEntity
  8
1
  6
CONTINUOUS
370
50
 62
4
100
AcDbLine
 10
6.806999999999999
 20
-0.0986
 30
0.0
 11
6.806999999999999
 21
-0.098243
 31
0.0
  0
LINE
  5
976
330
1F
100
AcDbEntity
  8
1
  6
CONTINUOUS
370
50
 62
4
100
AcDbLine
 10
6.806999999999999
 20
-0.097697
 30
0.0
 11
6.806999999999999
 21
-0.097588
 31
0.0
  0
LINE
  5
977
330
1F
100
AcDbEntity
  8
1
  6
CONTINUOUS
370
50
 62
4
100
AcDbLine
 10
6.806999999999999
 20
-0.097806
 30
0.0
 11
6.806999999999999
 21
-0.097697
 31
0.0
  0
LINE
  5
978
330
1F
100
AcDbEntity
  8
1
  6
CONTINUOUS
370
50
 62
4
100
AcDbLine
 10
6.806999999999999
 20
-0.097915
 30
0.0
 11
6.806999999999999
 21
-0.097806
 31
0.0
  0
LINE
  5
979
330
1F
100
AcDbEntity
  8
1
  6
CONTINUOUS
370
50
 62
4
100
AcDbLine
 10
6.806999999999999
 20
-0.098025
 30
0.0
 11
6.806999999999999
 21
-0.097915
 31
0.0
  0
LINE
  5
97A
330
1F
100
AcDbEntity
  8
1
  6
CONTINUOUS
370
50
 62
4
100
AcDbLine
 10
6.806999999999999
 20
-0.098134
 30
0.0
 11
6.806999999999999
 21
-0.098025
 31
0.0
  0
LINE
  5
97B
330
1F
100
AcDbEntity
  8
1
  6
CONTINUOUS
370
50
 62
4
100
AcDbLine
 10
6.806999999999999
 20
-0.098243
 30
0.0
 11
6.806999999999999
 21
-0.098134
 31
0.0
  0
LINE
  5
97C
330
1F
100
AcDbEntity
  8
1
  6
CONTINUOUS
370
50
 62
4
100
AcDbLine
 10
6.806999999999999
 20
-0.097588
 30
0.0
 11
6.806999999999999
 21
-0.09707
 31
0.0
  0
LINE
  5
97D
330
1F
100
AcDbEntity
  8
1
  6
CONTINUOUS
370
50
 62
4
100
AcDbLine
 10
6.806999999999999
 20
-0.09707
 30
0.0
 11
6.806999999999999
 21
-0.069011
 31
0.0
  0
LINE
  5
97E
330
1F
100
AcDbEntity
  8
1
  6
CONTINUOUS
370
50
 62
4
100
AcDbLine
 10
6.806999999999999
 20
0.005862
 30
0.0
 11
6.806999999999999
 21
0.011873
 31
0.0
  0
LINE
  5
97F
330
1F
100
AcDbEntity
  8
1
  6
CONTINUOUS
370
50
 62
4
100
AcDbLine
 10
6.806999999999999
 20
-0.000504
 30
0.0
 11
6.806999999999999
 21
0.005862
 31
0.0
  0
LINE
  5
980
330
1F
100
AcDbEntity
  8
1
  6
CONTINUOUS
370
50
 62
4
100
AcDbLine
 10
6.806999999999999
 20
-0.007202
 30
0.0
 11
6.806999999999999
 21
-0.000504
 31
0.0
  0
LINE
  5
981
330
1F
100
AcDbEntity
  8
1
  6
CONTINUOUS
370
50
 62
4
100
AcDbLine
 10
6.806999999999999
 20
-0.014207
 30
0.0
 11
6.806999999999999
 21
-0.007202
 31
0.0
  0
LINE
  5
982
330
1F
100
AcDbEntity
  8
1
  6
CONTINUOUS
370
50
 62
4
100
AcDbLine
 10
6.806999999999999
 20
-0.021495
 30
0.0
 11
6.806999999999999
 21
-0.014207
 31
0.0
  0
LINE
  5
983
330
1F
100
AcDbEntity
  8
1
  6
CONTINUOUS
370
50
 62
4
100
AcDbLine
 10
6.806999999999999
 20
-0.02904
 30
0.0
 11
6.806999999999999
 21
-0.021495
 31
0.0
  0
LINE
  5
984
330
1F
100
AcDbEntity
  8
1
  6
CONTINUOUS
370
50
 62
4
100
AcDbLine
 10
6.806999999999999
 20
-0.036779
 30
0.0
 11
6.806999999999999
 21
-0.02904
 31
0.0
  0
LINE
  5
985
330
1F
100
AcDbEntity
  8
1
  6
CONTINUOUS
370
50
 62
4
100
AcDbLine
 10
6.806999999999999
 20
-0.044675
 30
0.0
 11
6.806999999999999
 21
-0.036779
 31
0.0
  0
LINE
  5
986
330
1F
100
AcDbEntity
  8
1
  6
CONTINUOUS
370
50
 62
4
100
AcDbLine
 10
6.806999999999999
 20
-0.052697
 30
0.0
 11
6.806999999999999
 21
-0.044675
 31
0.0
  0
LINE
  5
987
330
1F
100
AcDbEntity
  8
1
  6
CONTINUOUS
370
50
 62
4
100
AcDbLine
 10
6.806999999999999
 20
-0.060819
 30
0.0
 11
6.806999999999999
 21
-0.052697
 31
0.0
  0
LINE
  5
988
330
1F
100
AcDbEntity
  8
1
  6
CONTINUOUS
370
50
 62
4
100
AcDbLine
 10
6.806999999999999
 20
-0.069011
 30
0.0
 11
6.806999999999999
 21
-0.060819
 31
0.0
  0
LINE
  5
989
330
1F
100
AcDbEntity
  8
1
  6
CONTINUOUS
370
50
 62
4
100
AcDbLine
 10
6.806999999999999
 20
0.070661
 30
0.0
 11
6.806999999999999
 21
0.071923
 31
0.0
  0
LINE
  5
98A
330
1F
100
AcDbEntity
  8
1
  6
CONTINUOUS
370
50
 62
4
100
AcDbLine
 10
6.806999999999999
 20
0.069339
 30
0.0
 11
6.806999999999999
 21
0.070661
 31
0.0
  0
LINE
  5
98B
330
1F
100
AcDbEntity
  8
1
  6
CONTINUOUS
370
50
 62
4
100
AcDbLine
 10
6.806999999999999
 20
0.067959
 30
0.0
 11
6.806999999999999
 21
0.069339
 31
0.0
  0
LINE
  5
98C
330
1F
100
AcDbEntity
  8
1
  6
CONTINUOUS
370
50
 62
4
100
AcDbLine
 10
6.806999999999999
 20
0.066523
 30
0.0
 11
6.806999999999999
 21
0.067959
 31
0.0
  0
LINE
  5
98D
330
1F
100
AcDbEntity
  8
1
  6
CONTINUOUS
370
50
 62
4
100
AcDbLine
 10
6.806999999999999
 20
0.065033
 30
0.0
 11
6.806999999999999
 21
0.066523
 31
0.0
  0
LINE
  5
98E
330
1F
100
AcDbEntity
  8
1
  6
CONTINUOUS
370
50
 62
4
100
AcDbLine
 10
6.806999999999999
 20
0.063492
 30
0.0
 11
6.806999999999999
 21
0.065033
 31
0.0
  0
LINE
  5
98F
330
1F
100
AcDbEntity
  8
1
  6
CONTINUOUS
370
50
 62
4
100
AcDbLine
 10
6.806999999999999
 20
0.061901
 30
0.0
 11
6.806999999999999
 21
0.063492
 31
0.0
  0
LINE
  5
990
330
1F
100
AcDbEntity
  8
1
  6
CONTINUOUS
370
50
 62
4
100
AcDbLine
 10
6.806999999999999
 20
0.060263
 30
0.0
 11
6.806999999999999
 21
0.061901
 31
0.0
  0
LINE
  5
991
330
1F
100
AcDbEntity
  8
1
  6
CONTINUOUS
370
50
 62
4
100
AcDbLine
 10
6.806999999999999
 20
0.058581
 30
0.0
 11
6.806999999999999
 21
0.060263
 31
0.0
  0
LINE
  5
992
330
1F
100
AcDbEntity
  8
1
  6
CONTINUOUS
370
50
 62
4
100
AcDbLine
 10
6.806999999999999
 20
0.056861
 30
0.0
 11
6.806999999999999
 21
0.058581
 31
0.0
  0
LINE
  5
993
330
1F
100
AcDbEntity
  8
1
  6
CONTINUOUS
370
50
 62
4
100
AcDbLine
 10
6.806999999999999
 20
0.055108
 30
0.0
 11
6.806999999999999
 21
0.056861
 31
0.0
  0
LINE
  5
994
330
1F
100
AcDbEntity
  8
1
  6
CONTINUOUS
370
50
 62
4
100
AcDbLine
 10
6.806999999999999
 20
0.053325
 30
0.0
 11
6.806999999999999
 21
0.055108
 31
0.0
  0
LINE
  5
995
330
1F
100
AcDbEntity
  8
1
  6
CONTINUOUS
370
50
 62
4
100
AcDbLine
 10
6.806999999999999
 20
0.051515
 30
0.0
 11
6.806999999999999
 21
0.053325
 31
0.0
  0
LINE
  5
996
330
1F
100
AcDbEntity
  8
1
  6
CONTINUOUS
370
50
 62
4
100
AcDbLine
 10
6.806999999999999
 20
0.049681
 30
0.0
 11
6.806999999999999
 21
0.051515
 31
0.0
  0
LINE
  5
997
330
1F
100
AcDbEntity
  8
1
  6
CONTINUOUS
370
50
 62
4
100
AcDbLine
 10
6.806999999999999
 20
0.047825
 30
0.0
 11
6.806999999999999
 21
0.049681
 31
0.0
  0
LINE
  5
998
330
1F
100
AcDbEntity
  8
1
  6
CONTINUOUS
370
50
 62
4
100
AcDbLine
 10
6.806999999999999
 20
0.04595
 30
0.0
 11
6.806999999999999
 21
0.047825
 31
0.0
  0
LINE
  5
999
330
1F
100
AcDbEntity
  8
1
  6
CONTINUOUS
370
50
 62
4
100
AcDbLine
 10
6.806999999999999
 20
0.044058
 30
0.0
 11
6.806999999999999
 21
0.04595
 31
0.0
  0
LINE
  5
99A
330
1F
100
AcDbEntity
  8
1
  6
CONTINUOUS
370
50
 62
4
100
AcDbLine
 10
6.806999999999999
 20
0.042153
 30
0.0
 11
6.806999999999999
 21
0.044058
 31
0.0
  0
LINE
  5
99B
330
1F
100
AcDbEntity
  8
1
  6
CONTINUOUS
370
50
 62
4
100
AcDbLine
 10
6.806999999999999
 20
0.040244
 30
0.0
 11
6.806999999999999
 21
0.042153
 31
0.0
  0
LINE
  5
99C
330
1F
100
AcDbEntity
  8
1
  6
CONTINUOUS
370
50
 62
4
100
AcDbLine
 10
6.806999999999999
 20
0.038336
 30
0.0
 11
6.806999999999999
 21
0.040244
 31
0.0
  0
LINE
  5
99D
330
1F
100
AcDbEntity
  8
1
  6
CONTINUOUS
370
50
 62
4
100
AcDbLine
 10
6.806999999999999
 20
0.03643
 30
0.0
 11
6.806999999999999
 21
0.038336
 31
0.0
  0
LINE
  5
99E
330
1F
100
AcDbEntity
  8
1
  6
CONTINUOUS
370
50
 62
4
100
AcDbLine
 10
6.806999999999999
 20
0.03453
 30
0.0
 11
6.806999999999999
 21
0.03643
 31
0.0
  0
LINE
  5
99F
330
1F
100
AcDbEntity
  8
1
  6
CONTINUOUS
370
50
 62
4
100
AcDbLine
 10
6.806999999999999
 20
0.032638
 30
0.0
 11
6.806999999999999
 21
0.03453
 31
0.0
  0
LINE
  5
9A0
330
1F
100
AcDbEntity
  8
1
  6
CONTINUOUS
370
50
 62
4
100
AcDbLine
 10
6.806999999999999
 20
0.030758
 30
0.0
 11
6.806999999999999
 21
0.032638
 31
0.0
  0
LINE
  5
9A1
330
1F
100
AcDbEntity
  8
1
  6
CONTINUOUS
370
50
 62
4
100
AcDbLine
 10
6.806999999999999
 20
0.028891
 30
0.0
 11
6.806999999999999
 21
0.030758
 31
0.0
  0
LINE
  5
9A2
330
1F
100
AcDbEntity
  8
1
  6
CONTINUOUS
370
50
 62
4
100
AcDbLine
 10
6.806999999999999
 20
0.027042
 30
0.0
 11
6.806999999999999
 21
0.028891
 31
0.0
  0
LINE
  5
9A3
330
1F
100
AcDbEntity
  8
1
  6
CONTINUOUS
370
50
 62
4
100
AcDbLine
 10
6.806999999999999
 20
0.025213
 30
0.0
 11
6.806999999999999
 21
0.027042
 31
0.0
  0
LINE
  5
9A4
330
1F
100
AcDbEntity
  8
1
  6
CONTINUOUS
370
50
 62
4
100
AcDbLine
 10
6.806999999999999
 20
0.023413
 30
0.0
 11
6.806999999999999
 21
0.025213
 31
0.0
  0
LINE
  5
9A5
330
1F
100
AcDbEntity
  8
1
  6
CONTINUOUS
370
50
 62
4
100
AcDbLine
 10
6.806999999999999
 20
0.021643
 30
0.0
 11
6.806999999999999
 21
0.023413
 31
0.0
  0
LINE
  5
9A6
330
1F
100
AcDbEntity
  8
1
  6
CONTINUOUS
370
50
 62
4
100
AcDbLine
 10
6.806999999999999
 20
0.019907
 30
0.0
 11
6.806999999999999
 21
0.021643
 31
0.0
  0
LINE
  5
9A7
330
1F
100
AcDbEntity
  8
1
  6
CONTINUOUS
370
50
 62
4
100
AcDbLine
 10
6.806999999999999
 20
0.018207
 30
0.0
 11
6.806999999999999
 21
0.019907
 31
0.0
  0
LINE
  5
9A8
330
1F
100
AcDbEntity
  8
1
  6
CONTINUOUS
370
50
 62
4
100
AcDbLine
 10
6.806999999999999
 20
0.016548
 30
0.0
 11
6.806999999999999
 21
0.018207
 31
0.0
  0
LINE
  5
9A9
330
1F
100
AcDbEntity
  8
1
  6
CONTINUOUS
370
50
 62
4
100
AcDbLine
 10
6.806999999999999
 20
0.014935
 30
0.0
 11
6.806999999999999
 21
0.016548
 31
0.0
  0
LINE
  5
9AA
330
1F
100
AcDbEntity
  8
1
  6
CONTINUOUS
370
50
 62
4
100
AcDbLine
 10
6.806999999999999
 20
0.013368
 30
0.0
 11
6.806999999999999
 21
0.014935
 31
0.0
  0
LINE
  5
9AB
330
1F
100
AcDbEntity
  8
1
  6
CONTINUOUS
370
50
 62
4
100
AcDbLine
 10
6.806999999999999
 20
0.011851
 30
0.0
 11
6.806999999999999
 21
0.013368
 31
0.0
  0
LINE
  5
9AC
330
1F
100
AcDbEntity
  8
1
  6
CONTINUOUS
370
50
 62
4
100
AcDbLine
 10
6.806999999999999
 20
0.092303
 30
0.0
 11
6.806999999999999
 21
0.095699
 31
0.0
  0
LINE
  5
9AD
330
1F
100
AcDbEntity
  8
1
  6
CONTINUOUS
370
50
 62
4
100
AcDbLine
 10
6.806999999999999
 20
0.088906
 30
0.0
 11
6.806999999999999
 21
0.092303
 31
0.0
  0
LINE
  5
9AE
330
1F
100
AcDbEntity
  8
1
  6
CONTINUOUS
370
50
 62
4
100
AcDbLine
 10
6.806999999999999
 20
0.085509
 30
0.0
 11
6.806999999999999
 21
0.088906
 31
0.0
  0
LINE
  5
9AF
330
1F
100
AcDbEntity
  8
1
  6
CONTINUOUS
370
50
 62
4
100
AcDbLine
 10
6.806999999999999
 20
0.082113
 30
0.0
 11
6.806999999999999
 21
0.085509
 31
0.0
  0
LINE
  5
9B0
330
1F
100
AcDbEntity
  8
1
  6
CONTINUOUS
370
50
 62
4
100
AcDbLine
 10
6.806999999999999
 20
0.078716
 30
0.0
 11
6.806999999999999
 21
0.082113
 31
0.0
  0
LINE
  5
9B1
330
1F
100
AcDbEntity
  8
1
  6
CONTINUOUS
370
50
 62
4
100
AcDbLine
 10
6.806999999999999
 20
0.075319
 30
0.0
 11
6.806999999999999
 21
0.078716
 31
0.0
  0
LINE
  5
9B2
330
1F
100
AcDbEntity
  8
1
  6
CONTINUOUS
370
50
 62
4
100
AcDbLine
 10
6.806999999999999
 20
0.071923
 30
0.0
 11
6.806999999999999
 21
0.075319
 31
0.0
  0
LINE
  5
9B3
330
1F
100
AcDbEntity
  8
1
  6
CONTINUOUS
370
50
 62
4
100
AcDbLine
 10
6.806999999999999
 20
0.095699
 30
0.0
 11
6.806999999999999
 21
0.095744
 31
0.0
  0
LINE
  5
9B4
330
1F
100
AcDbEntity
  8
1
  6
CONTINUOUS
370
50
 62
4
100
AcDbLine
 10
6.806999999999999
 20
-0.115386
 30
0.0
 11
6.806999999999999
 21
-0.115349
 31
0.0
  0
LINE
  5
9B5
330
1F
100
AcDbEntity
  8
1
  6
CONTINUOUS
370
50
 62
4
100
AcDbLine
 10
6.806999999999999
 20
-0.11555
 30
0.0
 11
6.806999999999999
 21
-0.115392
 31
0.0
  0
LINE
  5
9B6
330
1F
100
AcDbEntity
  8
1
  6
CONTINUOUS
370
50
 62
4
100
AcDbLine
 10
6.806999999999999
 20
-0.115688
 30
0.0
 11
6.806999999999999
 21
-0.11555
 31
0.0
  0
LINE
  5
9B7
330
1F
100
AcDbEntity
  8
1
  6
CONTINUOUS
370
50
 62
4
100
AcDbLine
 10
6.806999999999999
 20
-0.115804
 30
0.0
 11
6.806999999999999
 21
-0.115688
 31
0.0
  0
LINE
  5
9B8
330
1F
100
AcDbEntity
  8
1
  6
CONTINUOUS
370
50
 62
4
100
AcDbLine
 10
6.806999999999999
 20
-0.1159
 30
0.0
 11
6.806999999999999
 21
-0.115804
 31
0.0
  0
LINE
  5
9B9
330
1F
100
AcDbEntity
  8
1
  6
CONTINUOUS
370
50
 62
4
100
AcDbLine
 10
6.806999999999999
 20
-0.115975
 30
0.0
 11
6.806999999999999
 21
-0.1159
 31
0.0
  0
LINE
  5
9BA
330
1F
100
AcDbEntity
  8
1
  6
CONTINUOUS
370
50
 62
4
100
AcDbLine
 10
6.806999999999999
 20
-0.11603
 30
0.0
 11
6.806999999999999
 21
-0.115975
 31
0.0
  0
LINE
  5
9BB
330
1F
100
AcDbEntity
  8
1
  6
CONTINUOUS
370
50
 62
4
100
AcDbLine
 10
6.927
 20
-0.146158
 30
0.0
 11
6.927
 21
-0.13878
 31
0.0
  0
LINE
  5
9BC
330
1F
100
AcDbEntity
  8
1
  6
CONTINUOUS
370
50
 62
4
100
AcDbLine
 10
6.927
 20
0.033732
 30
0.0
 11
6.927
 21
0.056923
 31
0.0
  0
LINE
  5
9BD
330
1F
100
AcDbEntity
  8
1
  6
CONTINUOUS
370
50
 62
4
100
AcDbLine
 10
6.931999999999999
 20
-0.012036
 30
0.0
 11
6.931999999999999
 21
-0.002535
 31
0.0
  0
LINE
  5
9BE
330
1F
100
AcDbEntity
  8
1
  6
CONTINUOUS
370
50
 62
4
100
AcDbLine
 10
6.976999999999999
 20
-0.02042
 30
0.0
 11
6.976999999999999
 21
-0.000165
 31
0.0
  0
LINE
  5
9BF
330
1F
100
AcDbEntity
  8
1
  6
CONTINUOUS
370
50
 62
4
100
AcDbLine
 10
6.976999999999999
 20
0.099344
 30
0.0
 11
6.976999999999999
 21
0.09999
 31
0.0
  0
LINE
  5
9C0
330
1F
100
AcDbEntity
  8
1
  6
CONTINUOUS
370
50
 62
4
100
AcDbLine
 10
6.976999999999999
 20
0.098701
 30
0.0
 11
6.976999999999999
 21
0.099344
 31
0.0
  0
LINE
  5
9C1
330
1F
100
AcDbEntity
  8
1
  6
CONTINUOUS
370
50
 62
4
100
AcDbLine
 10
6.976999999999999
 20
0.098063
 30
0.0
 11
6.976999999999999
 21
0.098701
 31
0.0
  0
LINE
  5
9C2
330
1F
100
AcDbEntity
  8
1
  6
CONTINUOUS
370
50
 62
4
100
AcDbLine
 10
6.976999999999999
 20
0.097428
 30
0.0
 11
6.976999999999999
 21
0.098063
 31
0.0
  0
LINE
  5
9C3
330
1F
100
AcDbEntity
  8
1
  6
CONTINUOUS
370
50
 62
4
100
AcDbLine
 10
6.976999999999999
 20
0.096797
 30
0.0
 11
6.976999999999999
 21
0.097428
 31
0.0
  0
LINE
  5
9C4
330
1F
100
AcDbEntity
  8
1
  6
CONTINUOUS
370
50
 62
4
100
AcDbLine
 10
6.976999999999999
 20
0.09617
 30
0.0
 11
6.976999999999999
 21
0.096797
 31
0.0
  0
LINE
  5
9C5
330
1F
100
AcDbEntity
  8
1
  6
CONTINUOUS
370
50
 62
4
100
AcDbLine
 10
6.976999999999999
 20
0.001191
 30
0.0
 11
6.976999999999999
 21
0.001431
 31
0.0
  0
LINE
  5
9C6
330
1F
100
AcDbEntity
  8
1
  6
CONTINUOUS
370
50
 62
4
100
AcDbLine
 10
6.976999999999999
 20
0.000941
 30
0.0
 11
6.976999999999999
 21
0.001191
 31
0.0
  0
LINE
  5
9C7
330
1F
100
AcDbEntity
  8
1
  6
CONTINUOUS
370
50
 62
4
100
AcDbLine
 10
6.976999999999999
 20
0.00068
 30
0.0
 11
6.976999999999999
 21
0.000941
 31
0.0
  0
LINE
  5
9C8
330
1F
100
AcDbEntity
  8
1
  6
CONTINUOUS
370
50
 62
4
100
AcDbLine
 10
6.976999999999999
 20
0.00041
 30
0.0
 11
6.976999999999999
 21
0.00068
 31
0.0
  0
LINE
  5
9C9
330
1F
100
AcDbEntity
  8
1
  6
CONTINUOUS
370
50
 62
4
100
AcDbLine
 10
6.976999999999999
 20
0.000128
 30
0.0
 11
6.976999999999999
 21
0.00041
 31
0.0
  0
LINE
  5
9CA
330
1F
100
AcDbEntity
  8
1
  6
CONTINUOUS
370
50
 62
4
100
AcDbLine
 10
6.976999999999999
 20
-0.000163
 30
0.0
 11
6.976999999999999
 21
0.000128
 31
0.0
  0
LINE
  5
9CB
330
1F
100
AcDbEntity
  8
1
  6
CONTINUOUS
370
50
 62
4
100
AcDbLine
 10
6.976999999999999
 20
0.0675
 30
0.0
 11
6.976999999999999
 21
0.09617
 31
0.0
  0
LINE
  5
9CC
330
1F
100
AcDbEntity
  8
1
  6
CONTINUOUS
370
50
 62
4
100
AcDbLine
 10
6.976999999999999
 20
0.064337
 30
0.0
 11
6.976999999999999
 21
0.0675
 31
0.0
  0
LINE
  5
9CD
330
1F
100
AcDbEntity
  8
1
  6
CONTINUOUS
370
50
 62
4
100
AcDbLine
 10
6.976999999999999
 20
-0.097893
 30
0.0
 11
6.976999999999999
 21
-0.064337
 31
0.0
  0
LINE
  5
9CE
330
1F
100
AcDbEntity
  8
1
  6
CONTINUOUS
370
50
 62
4
100
AcDbLine
 10
6.976999999999999
 20
-0.09999
 30
0.0
 11
6.976999999999999
 21
-0.097893
 31
0.0
  0
LINE
  5
9CF
330
1F
100
AcDbEntity
  8
1
  6
CONTINUOUS
370
50
 62
4
100
AcDbLine
 10
6.976999999999999
 20
0.001431
 30
0.0
 11
6.976999999999999
 21
0.02042
 31
0.0
  0
ELLIPSE
  5
9D0
330
1F
100
AcDbEntity
  8
1
  6
CONTINUOUS
370
50
 62
4
100
AcDbEllipse
 10
6.976999999999999
 20
0.0
 30
0.0
 11
0.0468045678602107
 21
0.06378831708407853
 31
0.0
210
0.0
220
0.0
230
0.9999999999999999
 40
0.4716394580742809
 41
1.650093268677473
 42
2.068622041214963
  0
ELLIPSE
  5
9D1
330
1F
100
AcDbEntity
  8
1
  6
CONTINUOUS
370
50
 62
4
100
AcDbEllipse
 10
6.976999999999999
 20
0.0
 30
0.0
 11
-0.04680456786021116
 21
0.06378831708407813
 31
0.0
210
0.0
220
0.0
230
0.9999999999999999
 40
0.4716394580742831
 41
1.23763168839413
 42
1.453981499591223
  0
ELLIPSE
  5
9D2
330
1F
100
AcDbEntity
  8
1
  6
CONTINUOUS
370
50
 62
4
100
AcDbEllipse
 10
6.976999999999999
 20
0.0
 30
0.0
 11
-0.1327679995924331
 21
0.0001543509756188186
 31
0.0
210
0.0
220
0.0
230
0.9999999999999999
 40
0.5084056373454702
 41
4.712980033177812
 42
4.827445080216814
  0
ELLIPSE
  5
9D3
330
1F
100
AcDbEntity
  8
1
  6
CONTINUOUS
370
50
 62
4
100
AcDbEllipse
 10
6.976999999999999
 20
0.0
 30
0.0
 11
0.132767992237381
 21
0.06750001526855166
 31
0.0
210
0.0
220
0.0
230
1.0
 40
0.0006846018827183
 41
1.572506417169949
 42
1.805257855211425
  0
ELLIPSE
  5
9D4
330
1F
100
AcDbEntity
  8
1
  6
CONTINUOUS
370
50
 62
4
100
AcDbEllipse
 10
6.976999999999999
 20
0.0
 30
0.0
 11
0.2637238878023366
 21
0.06384546345215494
 31
0.0
210
0.0
220
0.0
230
1.0
 40
0.0830755274377664
 41
1.668482301701743
 42
1.685057756723223
  0
ELLIPSE
  5
9D5
330
1F
100
AcDbEntity
  8
1
  6
CONTINUOUS
370
50
 62
4
100
AcDbEllipse
 10
6.976999999999999
 20
0.0
 30
0.0
 11
-0.2637238878023367
 21
0.06384546345215562
 31
0.0
210
0.0
220
0.0
230
0.9999999999999998
 40
0.0830755274377663
 41
1.404892517860968
 42
1.536509296385363
  0
ELLIPSE
  5
9D6
330
1F
100
AcDbEntity
  8
1
  6
CONTINUOUS
370
50
 62
4
100
AcDbEllipse
 10
6.977079
 20
0.0
 30
0.0
 11
0.04680610301730813
 21
0.06378792440841088
 31
0.0
210
0.0
220
0.0
230
0.9999999999999999
 40
0.4716535990515013
 41
1.943952382066432
 42
2.068349872213713
  0
ELLIPSE
  5
9D7
330
1F
100
AcDbEntity
  8
1
  6
CONTINUOUS
370
50
 62
4
100
AcDbEllipse
 10
6.977163999999999
 20
0.0
 30
0.0
 11
-0.2637299451220096
 21
0.06384522668878038
 31
0.0
210
0.0
220
0.0
230
1.0
 40
0.0830737420580103
 41
1.404595283051916
 42
1.418844870858647
  0
ELLIPSE
  5
9D8
330
1F
100
AcDbEntity
  8
1
  6
CONTINUOUS
370
50
 62
4
100
AcDbEllipse
 10
6.983635
 20
0.0
 30
0.0
 11
4.133046444150524E-18
 21
0.0675
 31
0.0
210
0.0
220
0.0
230
1.0
 40
0.3249185185185192
 41
1.867075543018195
 42
2.834252289541923
  0
ELLIPSE
  5
9D9
330
1F
100
AcDbEntity
  8
1
  6
CONTINUOUS
370
50
 62
4
100
AcDbEllipse
 10
6.983635
 20
0.0
 30
0.0
 11
4.133046444150524E-18
 21
0.0675
 31
0.0
210
0.0
220
0.0
230
1.0
 40
0.3249185185185192
 41
0.3073403640478715
 42
0.7855089770802096
  0
ELLIPSE
  5
9DA
330
1F
100
AcDbEntity
  8
1
  6
CONTINUOUS
370
50
 62
4
100
AcDbEllipse
 10
7.79669
 20
0.228482
 30
0.0
 11
-2.128543055948782
 21
0.5087047658969017
 31
0.0
210
0.0
220
0.0
230
0.9999999999999997
 40
0.2732446642887167
 41
1.151292172687144
 42
1.153532031332801
  0
ELLIPSE
  5
9DB
330
1F
100
AcDbEntity
  8
1
  6
CONTINUOUS
370
50
 62
4
100
AcDbEllipse
 10
7.79669
 20
2.03821
 30
0.0
 11
1.693685124614297
 21
1.385967847718429
 31
0.0
210
0.0
220
0.0
230
1.0
 40
0.9355963511708596
 41
3.574255988182875
 42
3.576495845750995
  0
ELLIPSE
  5
9DC
330
1F
100
AcDbEntity
  8
1
  6
CONTINUOUS
370
50
 62
4
100
AcDbEllipse
 10
7.821355
 20
-2.008069
 30
0.0
 11
-1.70335011778567
 21
1.393876856063169
 31
0.0
210
0.0
220
0.0
230
1.0
 40
0.935596267759944
 41
5.888987647611837
 42
5.911771813030196
  0
ELLIPSE
  5
9DD
330
1F
100
AcDbEntity
  8
1
  6
CONTINUOUS
370
50
 62
4
100
AcDbEllipse
 10
7.821355
 20
0.331688
 30
0.0
 11
-2.140689101875839
 21
0.5116075737271819
 31
0.0
210
0.0
220
0.0
230
0.9999999999999998
 40
0.2732447153352038
 41
1.09004219800223
 42
1.143498039383418
  0
ELLIPSE
  5
9DE
330
1F
100
AcDbEntity
  8
1
  6
CONTINUOUS
370
50
 62
4
100
AcDbEllipse
 10
7.833714
 20
0.383403
 30
0.0
 11
-2.127397029912175
 21
0.5084308748402816
 31
0.0
210
0.0
220
0.0
230
0.9999999999999998
 40
0.2732442672455295
 41
1.110128138611789
 42
1.133539753509378
  0
LINE
  5
9DF
330
1F
100
AcDbEntity
  8
CUT
  6
CONTINUOUS
370
25
 62
1
100
AcDbLine
 10
6.807
 20
0.0675
 30
0.0
 11
6.977
 21
0.0675
 31
0.0
  0
LINE
  5
9E0
330
1F
100
AcDbEntity
  8
CUT
  6
CONTINUOUS
370
25
 62
1
100
AcDbLine
 10
6.977
 20
0.0675
 30
0.0
 11
6.977
 21
0.1
 31
0.0
  0
ARC
  5
9E1
330
1F
100
AcDbEntity
  8
CUT
  6
CONTINUOUS
370
25
 62
1
100
AcDbCircle
 10
6.927
 20
0.1
 30
0.0
 40
0.0499999999999998
100
AcDbArc
 50
0.0
 51
90.0
  0
LINE
  5
9E2
330
1F
100
AcDbEntity
  8
CUT
  6
CONTINUOUS
370
25
 62
1
100
AcDbLine
 10
6.927
 20
0.15
 30
0.0
 11
6.797000000000001
 21
0.1499
 31
0.0
  0
LINE
  5
9E3
330
1F
100
AcDbEntity
  8
CUT
  6
CONTINUOUS
370
25
 62
1
100
AcDbLine
 10
6.797000000000001
 20
0.1499
 30
0.0
 11
6.797000000000001
 21
0.1449
 31
0.0
  0
LINE
  5
9E4
330
1F
100
AcDbEntity
  8
CUT
  6
CONTINUOUS
370
25
 62
1
100
AcDbLine
 10
6.797000000000001
 20
0.1449
 30
0.0
 11
6.807
 21
0.0675
 31
0.0
  0
LINE
  5
9E5
330
1F
100
AcDbEntity
  8
NOCUT
  6
CONTINUOUS
370
25
 62
7
100
AcDbLine
 10
-0.01
 20
0.0
 30
0.0
 11
6.932
 21
0.0
 31
0.0
  0
LINE
  5
9E6
330
1F
100
AcDbEntity
  8
NOCUT
  6
CONTINUOUS
370
25
 62
7
100
AcDbLine
 10
6.932
 20
0.0
 30
0.0
 11
6.932
 21
0.0675
 31
0.0
  0
LINE
  5
9E7
330
1F
100
AcDbEntity
  8
NOCUT
  6
CONTINUOUS
370
25
 62
7
100
AcDbLine
 10
6.932
 20
0.0675
 30
0.0
 11
6.807
 21
0.0675
 31
0.0
  0
LINE
  5
9E8
330
1F
100
AcDbEntity
  8
NOCUT
  6
CONTINUOUS
370
25
 62
7
100
AcDbLine
 10
6.807
 20
0.0675
 30
0.0
 11
6.797000000000001
 21
0.14495
 31
0.0
  0
LINE
  5
9E9
330
1F
100
AcDbEntity
  8
NOCUT
  6
CONTINUOUS
370
25
 62
7
100
AcDbLine
 10
6.797000000000001
 20
0.14495
 30
0.0
 11
6.797000000000001
 21
0.13995
 31
0.0
  0
LINE
  5
9EA
330
1F
100
AcDbEntity
  8
NOCUT
  6
CONTINUOUS
370
25
 62
7
100
AcDbLine
 10
6.797000000000001
 20
0.13995
 30
0.0
 11
6.477
 21
0.13995
 31
0.0
  0
LINE
  5
9EB
330
1F
100
AcDbEntity
  8
NOCUT
  6
CONTINUOUS
370
25
 62
7
100
AcDbLine
 10
6.477
 20
0.13995
 30
0.0
 11
-0.01
 21
1.99995
 31
0.0
  0
LINE
  5
9EC
330
1F
100
AcDbEntity
  8
NOCUT
  6
CONTINUOUS
370
25
 62
7
100
AcDbLine
 10
-0.01
 20
1.99995
 30
0.0
 11
-0.01
 21
0.0
 31
0.0
  0
LINE
  5
9ED
330
1F
100
AcDbEntity
  8
SK1
  6
CONTINUOUS
370
50
 62
4
100
AcDbLine
 10
-0.01
 20
2.0
 30
0.0
 11
-42.723
 21
2.0
 31
0.0
  0
LINE
  5
9EE
330
1F
100
AcDbEntity
  8
SK1
  6
CONTINUOUS
370
50
 62
4
100
AcDbLine
 10
-42.723
 20
2.0
 30
0.0
 11
-43.023
 21
1.7
 31
0.0
  0
LINE
  5
9EF
330
1F
100
AcDbEntity
  8
SK1
  6
CONTINUOUS
370
50
 62
4
100
AcDbLine
 10
-43.023
 20
1.7
 30
0.0
 11
-43.023
 21
-1.7
 31
0.0
  0
LINE
  5
9F0
330
1F
100
AcDbEntity
  8
SK1
  6
CONTINUOUS
370
50
 62
4
100
AcDbLine
 10
-43.023
 20
-1.7
 30
0.0
 11
-42.723
 21
-2.0
 31
0.0
  0
LINE
  5
9F1
330
1F
100
AcDbEntity
  8
SK1
  6
CONTINUOUS
370
50
 62
4
100
AcDbLine
 10
-42.723
 20
-2.0
 30
0.0
 11
-0.01
 21
-2.0
 31
0.0
  0
LINE
  5
9F2
330
1F
100
AcDbEntity
  8
SK1
  6
CONTINUOUS
370
50
 62
4
100
AcDbLine
 10
-42.723
 20
2.0
 30
0.0
 11
-42.723
 21
-2.0
 31
0.0
  0
LINE
  5
9F3
330
1F
100
AcDbEntity
  8
SK2
  6
CONTINUOUS
370
25
 62
7
100
AcDbLine
 10
-43.023
 20
-2.0
 30
0.0
 11
-55.023
 21
-2.0
 31
0.0
  0
LINE
  5
9F4
330
1F
100
AcDbEntity
  8
SK2
  6
CONTINUOUS
370
25
 62
7
100
AcDbLine
 10
-56.023
 20
2.0
 30
0.0
 11
-43.023
 21
2.0
 31
0.0
  0
LINE
  5
9F5
330
1F
100
AcDbEntity
  8
SK2
  6
CONTINUOUS
370
25
 62
7
100
AcDbLine
 10
-55.023
 20
-9.0
 30
0.0
 11
-55.023
 21
15.475
 31
0.0
  0
LINE
  5
9F6
330
1F
100
AcDbEntity
  8
SK2
  6
CONTINUOUS
370
25
 62
7
100
AcDbLine
 10
-55.023
 20
-2.0
 30
0.0
 11
-54.023
 21
-7.0
 31
0.0
  0
LINE
  5
9F7
330
1F
100
AcDbEntity
  8
SK2
  6
CONTINUOUS
370
25
 62
7
100
AcDbLine
 10
-54.023
 20
-7.0
 30
0.0
 11
-56.023
 21
-7.0
 31
0.0
  0
LINE
  5
9F8
330
1F
100
AcDbEntity
  8
SK2
  6
CONTINUOUS
370
25
 62
7
100
AcDbLine
 10
-56.023
 20
-7.0
 30
0.0
 11
-55.023
 21
-2.0
 31
0.0
  0
LINE
  5
9F9
330
1F
100
AcDbEntity
  8
SK2
  6
CONTINUOUS
370
25
 62
7
100
AcDbLine
 10
-54.10331162702403
 20
-7.0
 30
0.0
 11
-54.03638527117067
 21
-6.933073644146639
 31
0.0
  0
LINE
  5
9FA
330
1F
100
AcDbEntity
  8
SK2
  6
CONTINUOUS
370
25
 62
7
100
AcDbLine
 10
-54.52757569573596
 20
-7.0
 30
0.0
 11
-54.10709594928932
 21
-6.579520253553362
 31
0.0
  0
LINE
  5
9FB
330
1F
100
AcDbEntity
  8
SK2
  6
CONTINUOUS
370
25
 62
7
100
AcDbLine
 10
-54.9518397644479
 20
-7.0
 30
0.0
 11
-54.17780662740799
 21
-6.225966862960092
 31
0.0
  0
LINE
  5
9FC
330
1F
100
AcDbEntity
  8
SK2
  6
CONTINUOUS
370
25
 62
7
100
AcDbLine
 10
-55.37610383315983
 20
-7.0
 30
0.0
 11
-54.24851730552664
 21
-5.872413472366809
 31
0.0
  0
LINE
  5
9FD
330
1F
100
AcDbEntity
  8
SK2
  6
CONTINUOUS
370
25
 62
7
100
AcDbLine
 10
-55.80036790187176
 20
-7.0
 30
0.0
 11
-54.31922798364528
 21
-5.518860081773525
 31
0.0
  0
LINE
  5
9FE
330
1F
100
AcDbEntity
  8
SK2
  6
CONTINUOUS
370
25
 62
7
100
AcDbLine
 10
-55.97259200735408
 20
-6.747960036770394
 30
0.0
 11
-54.38993866176395
 21
-5.165306691180263
 31
0.0
  0
LINE
  5
9FF
330
1F
100
AcDbEntity
  8
SK2
  6
CONTINUOUS
370
25
 62
7
100
AcDbLine
 10
-55.86652599017609
 20
-6.217629950880472
 30
0.0
 11
-54.4606493398826
 21
-4.811753300586979
 31
0.0
  0
LINE
  5
A00
330
1F
100
AcDbEntity
  8
SK2
  6
CONTINUOUS
370
25
 62
7
100
AcDbLine
 10
-55.76045997299811
 20
-5.687299864990557
 30
0.0
 11
-54.53136001800126
 21
-4.458199909993702
 31
0.0
  0
LINE
  5
A01
330
1F
100
AcDbEntity
  8
SK2
  6
CONTINUOUS
370
25
 62
7
100
AcDbLine
 10
-55.65439395582013
 20
-5.156969779100649
 30
0.0
 11
-54.60207069611991
 21
-4.104646519400426
 31
0.0
  0
LINE
  5
A02
330
1F
100
AcDbEntity
  8
SK2
  6
CONTINUOUS
370
25
 62
7
100
AcDbLine
 10
-55.54832793864215
 20
-4.626639693210741
 30
0.0
 11
-54.67278137423856
 21
-3.751093128807149
 31
0.0
  0
LINE
  5
A03
330
1F
100
AcDbEntity
  8
SK2
  6
CONTINUOUS
370
25
 62
7
100
AcDbLine
 10
-55.44226192146417
 20
-4.096309607320819
 30
0.0
 11
-54.74349205235723
 21
-3.397539738213879
 31
0.0
  0
LINE
  5
A04
330
1F
100
AcDbEntity
  8
SK2
  6
CONTINUOUS
370
25
 62
7
100
AcDbLine
 10
-55.33619590428618
 20
-3.565979521430897
 30
0.0
 11
-54.81420273047588
 21
-3.043986347620596
 31
0.0
  0
LINE
  5
A05
330
1F
100
AcDbEntity
  8
SK2
  6
CONTINUOUS
370
25
 62
7
100
AcDbLine
 10
-55.2301298871082
 20
-3.035649435540989
 30
0.0
 11
-54.88491340859454
 21
-2.690432957027326
 31
0.0
  0
LINE
  5
A06
330
1F
100
AcDbEntity
  8
SK2
  6
CONTINUOUS
370
25
 62
7
100
AcDbLine
 10
-55.12406386993022
 20
-2.505319349651081
 30
0.0
 11
-54.95562408671319
 21
-2.33687956643405
 31
0.0
  0
LINE
  5
A07
330
1F
100
AcDbEntity
  8
SK2
  6
CONTINUOUS
370
25
 62
7
100
AcDbLine
 10
-56.00670266941258
 20
-6.91851334706292
 30
0.0
 11
-55.9252160164755
 21
-7.0
 31
0.0
  0
LINE
  5
A08
330
1F
100
AcDbEntity
  8
SK2
  6
CONTINUOUS
370
25
 62
7
100
AcDbLine
 10
-55.93599199129392
 20
-6.564959956469643
 30
0.0
 11
-55.50095194776357
 21
-7.0
 31
0.0
  0
LINE
  5
A09
330
1F
100
AcDbEntity
  8
SK2
  6
CONTINUOUS
370
25
 62
7
100
AcDbLine
 10
-55.86528131317527
 20
-6.211406565876374
 30
0.0
 11
-55.07668787905164
 21
-7.0
 31
0.0
  0
LINE
  5
A0A
330
1F
100
AcDbEntity
  8
SK2
  6
CONTINUOUS
370
25
 62
7
100
AcDbLine
 10
-55.79457063505662
 20
-5.85785317528309
 30
0.0
 11
-54.65242381033971
 21
-7.0
 31
0.0
  0
LINE
  5
A0B
330
1F
100
AcDbEntity
  8
SK2
  6
CONTINUOUS
370
25
 62
7
100
AcDbLine
 10
-55.72385995693796
 20
-5.504299784689813
 30
0.0
 11
-54.22815974162778
 21
-7.0
 31
0.0
  0
LINE
  5
A0C
330
1F
100
AcDbEntity
  8
SK2
  6
CONTINUOUS
370
25
 62
7
100
AcDbLine
 10
-55.65314927881931
 20
-5.150746394096537
 30
0.0
 11
-54.07777608177103
 21
-6.726119591144808
 31
0.0
  0
LINE
  5
A0D
330
1F
100
AcDbEntity
  8
SK2
  6
CONTINUOUS
370
25
 62
7
100
AcDbLine
 10
-55.58243860070066
 20
-4.797193003503253
 30
0.0
 11
-54.18384209894902
 21
-6.195789505254886
 31
0.0
  0
LINE
  5
A0E
330
1F
100
AcDbEntity
  8
SK2
  6
CONTINUOUS
370
25
 62
7
100
AcDbLine
 10
-55.511727922582
 20
-4.443639612909976
 30
0.0
 11
-54.28990811612699
 21
-5.665459419364986
 31
0.0
  0
LINE
  5
A0F
330
1F
100
AcDbEntity
  8
SK2
  6
CONTINUOUS
370
25
 62
7
100
AcDbLine
 10
-55.44101724446334
 20
-4.090086222316707
 30
0.0
 11
-54.39597413330498
 21
-5.135129333475064
 31
0.0
  0
LINE
  5
A10
330
1F
100
AcDbEntity
  8
SK2
  6
CONTINUOUS
370
25
 62
7
100
AcDbLine
 10
-55.37030656634469
 20
-3.73653283172343
 30
0.0
 11
-54.50204015048296
 21
-4.604799247585156
 31
0.0
  0
LINE
  5
A11
330
1F
100
AcDbEntity
  8
SK2
  6
CONTINUOUS
370
25
 62
7
100
AcDbLine
 10
-55.29959588822602
 20
-3.382979441130168
 30
0.0
 11
-54.60810616766095
 21
-4.074469161695241
 31
0.0
  0
LINE
  5
A12
330
1F
100
AcDbEntity
  8
SK2
  6
CONTINUOUS
370
25
 62
7
100
AcDbLine
 10
-55.22888521010737
 20
-3.029426050536891
 30
0.0
 11
-54.71417218483894
 21
-3.544139075805326
 31
0.0
  0
LINE
  5
A13
330
1F
100
AcDbEntity
  8
SK2
  6
CONTINUOUS
370
25
 62
7
100
AcDbLine
 10
-55.15817453198871
 20
-2.675872659943614
 30
0.0
 11
-54.82023820201692
 21
-3.013808989915411
 31
0.0
  0
LINE
  5
A14
330
1F
100
AcDbEntity
  8
SK2
  6
CONTINUOUS
370
25
 62
7
100
AcDbLine
 10
-55.08746385387006
 20
-2.322319269350331
 30
0.0
 11
-54.9263042191949
 21
-2.483478904025496
 31
0.0
  0
LINE
  5
A15
330
1F
100
AcDbEntity
  8
SK2
  6
CONTINUOUS
370
25
 62
7
100
AcDbLine
 10
-55.023
 20
2.0
 30
0.0
 11
-56.023
 21
7.0
 31
0.0
  0
LINE
  5
A16
330
1F
100
AcDbEntity
  8
SK2
  6
CONTINUOUS
370
25
 62
7
100
AcDbLine
 10
-56.023
 20
7.0
 30
0.0
 11
-54.023
 21
7.0
 31
0.0
  0
LINE
  5
A17
330
1F
100
AcDbEntity
  8
SK2
  6
CONTINUOUS
370
25
 62
7
100
AcDbLine
 10
-54.023
 20
7.0
 30
0.0
 11
-55.023
 21
2.0
 31
0.0
  0
LINE
  5
A18
330
1F
100
AcDbEntity
  8
SK2
  6
CONTINUOUS
370
25
 62
7
100
AcDbLine
 10
-55.06677487935171
 20
2.218874396758601
 30
0.0
 11
-54.95733768097242
 21
2.32831159513789
 31
0.0
  0
LINE
  5
A19
330
1F
100
AcDbEntity
  8
SK2
  6
CONTINUOUS
370
25
 62
7
100
AcDbLine
 10
-55.13748555747037
 20
2.572427787351877
 30
0.0
 11
-54.85127166379444
 21
2.858641681027805
 31
0.0
  0
LINE
  5
A1A
330
1F
100
AcDbEntity
  8
SK2
  6
CONTINUOUS
370
25
 62
7
100
AcDbLine
 10
-55.20819623558902
 20
2.925981177945161
 30
0.0
 11
-54.74520564661645
 21
3.388971766917727
 31
0.0
  0
LINE
  5
A1B
330
1F
100
AcDbEntity
  8
SK2
  6
CONTINUOUS
370
25
 62
7
100
AcDbLine
 10
-55.27890691370769
 20
3.279534568538423
 30
0.0
 11
-54.63913962943847
 21
3.919301852807635
 31
0.0
  0
LINE
  5
A1C
330
1F
100
AcDbEntity
  8
SK2
  6
CONTINUOUS
370
25
 62
7
100
AcDbLine
 10
-55.34961759182634
 20
3.633087959131707
 30
0.0
 11
-54.53307361226049
 21
4.449631938697557
 31
0.0
  0
LINE
  5
A1D
330
1F
100
AcDbEntity
  8
SK2
  6
CONTINUOUS
370
25
 62
7
100
AcDbLine
 10
-55.42032826994499
 20
3.986641349724984
 30
0.0
 11
-54.42700759508251
 21
4.979962024587465
 31
0.0
  0
LINE
  5
A1E
330
1F
100
AcDbEntity
  8
SK2
  6
CONTINUOUS
370
25
 62
7
100
AcDbLine
 10
-55.49103894806365
 20
4.34019474031826
 30
0.0
 11
-54.32094157790453
 21
5.51029211047738
 31
0.0
  0
LINE
  5
A1F
330
1F
100
AcDbEntity
  8
SK2
  6
CONTINUOUS
370
25
 62
7
100
AcDbLine
 10
-55.5617496261823
 20
4.693748130911523
 30
0.0
 11
-54.21487556072653
 21
6.040622196367295
 31
0.0
  0
LINE
  5
A20
330
1F
100
AcDbEntity
  8
SK2
  6
CONTINUOUS
370
25
 62
7
100
AcDbLine
 10
-55.63246030430096
 20
5.047301521504806
 30
0.0
 11
-54.10880954354855
 21
6.57095228225721
 31
0.0
  0
LINE
  5
A21
330
1F
100
AcDbEntity
  8
SK2
  6
CONTINUOUS
370
25
 62
7
100
AcDbLine
 10
-55.70317098241961
 20
5.400854912098083
 30
0.0
 11
-54.1040258945177
 21
7.0
 31
0.0
  0
LINE
  5
A22
330
1F
100
AcDbEntity
  8
SK2
  6
CONTINUOUS
370
25
 62
7
100
AcDbLine
 10
-55.77388166053827
 20
5.754408302691353
 30
0.0
 11
-54.52828996322962
 21
7.0
 31
0.0
  0
LINE
  5
A23
330
1F
100
AcDbEntity
  8
SK2
  6
CONTINUOUS
370
25
 62
7
100
AcDbLine
 10
-55.84459233865693
 20
6.107961693284629
 30
0.0
 11
-54.95255403194156
 21
7.0
 31
0.0
  0
LINE
  5
A24
330
1F
100
AcDbEntity
  8
SK2
  6
CONTINUOUS
370
25
 62
7
100
AcDbLine
 10
-55.91530301677558
 20
6.461515083877906
 30
0.0
 11
-55.37681810065349
 21
7.0
 31
0.0
  0
LINE
  5
A25
330
1F
100
AcDbEntity
  8
SK2
  6
CONTINUOUS
370
25
 62
7
100
AcDbLine
 10
-55.98601369489423
 20
6.81506847447119
 30
0.0
 11
-55.80108216936542
 21
7.0
 31
0.0
  0
LINE
  5
A26
330
1F
100
AcDbEntity
  8
SK2
  6
CONTINUOUS
370
25
 62
7
100
AcDbLine
 10
-55.03219166949947
 20
2.04595834749734
 30
0.0
 11
-55.01687222033369
 21
2.03063889833156
 31
0.0
  0
LINE
  5
A27
330
1F
100
AcDbEntity
  8
SK2
  6
CONTINUOUS
370
25
 62
7
100
AcDbLine
 10
-55.13825768667745
 20
2.576288433387255
 30
0.0
 11
-54.94616154221503
 21
2.384192288924837
 31
0.0
  0
LINE
  5
A28
330
1F
100
AcDbEntity
  8
SK2
  6
CONTINUOUS
370
25
 62
7
100
AcDbLine
 10
-55.24432370385544
 20
3.10661851927717
 30
0.0
 11
-54.87545086409638
 21
2.737745679518113
 31
0.0
  0
LINE
  5
A29
330
1F
100
AcDbEntity
  8
SK2
  6
CONTINUOUS
370
25
 62
7
100
AcDbLine
 10
-55.35038972103342
 20
3.636948605167085
 30
0.0
 11
-54.80474018597771
 21
3.091299070111383
 31
0.0
  0
LINE
  5
A2A
330
1F
100
AcDbEntity
  8
SK2
  6
CONTINUOUS
370
25
 62
7
100
AcDbLine
 10
-55.4564557382114
 20
4.167278691057
 30
0.0
 11
-54.73402950785906
 21
3.444852460704659
 31
0.0
  0
LINE
  5
A2B
330
1F
100
AcDbEntity
  8
SK2
  6
CONTINUOUS
370
25
 62
7
100
AcDbLine
 10
-55.56252175538938
 20
4.697608776946915
 30
0.0
 11
-54.66331882974041
 21
3.798405851297943
 31
0.0
  0
LINE
  5
A2C
330
1F
100
AcDbEntity
  8
SK2
  6
CONTINUOUS
370
25
 62
7
100
AcDbLine
 10
-55.66858777256736
 20
5.227938862836822
 30
0.0
 11
-54.59260815162175
 21
4.15195924189122
 31
0.0
  0
LINE
  5
A2D
330
1F
100
AcDbEntity
  8
SK2
  6
CONTINUOUS
370
25
 62
7
100
AcDbLine
 10
-55.77465378974535
 20
5.758268948726744
 30
0.0
 11
-54.5218974735031
 21
4.505512632484496
 31
0.0
  0
LINE
  5
A2E
330
1F
100
AcDbEntity
  8
SK2
  6
CONTINUOUS
370
25
 62
7
100
AcDbLine
 10
-55.88071980692333
 20
6.288599034616652
 30
0.0
 11
-54.45118679538444
 21
4.859066023077766
 31
0.0
  0
LINE
  5
A2F
330
1F
100
AcDbEntity
  8
SK2
  6
CONTINUOUS
370
25
 62
7
100
AcDbLine
 10
-55.98678582410132
 20
6.818929120506574
 30
0.0
 11
-54.38047611726579
 21
5.21261941367105
 31
0.0
  0
LINE
  5
A30
330
1F
100
AcDbEntity
  8
SK2
  6
CONTINUOUS
370
25
 62
7
100
AcDbLine
 10
-55.74359263488282
 20
7.0
 30
0.0
 11
-54.30976543914714
 21
5.566172804264319
 31
0.0
  0
LINE
  5
A31
330
1F
100
AcDbEntity
  8
SK2
  6
CONTINUOUS
370
25
 62
7
100
AcDbLine
 10
-55.31932856617088
 20
7.0
 30
0.0
 11
-54.23905476102848
 21
5.919726194857596
 31
0.0
  0
LINE
  5
A32
330
1F
100
AcDbEntity
  8
SK2
  6
CONTINUOUS
370
25
 62
7
100
AcDbLine
 10
-54.89506449745895
 20
7.0
 30
0.0
 11
-54.16834408290983
 21
6.273279585450872
 31
0.0
  0
LINE
  5
A33
330
1F
100
AcDbEntity
  8
SK2
  6
CONTINUOUS
370
25
 62
7
100
AcDbLine
 10
-54.47080042874702
 20
7.0
 30
0.0
 11
-54.09763340479117
 21
6.626832976044149
 31
0.0
  0
LINE
  5
A34
330
1F
100
AcDbEntity
  8
SK2
  6
CONTINUOUS
370
25
 62
7
100
AcDbLine
 10
-54.04653636003509
 20
7.0
 30
0.0
 11
-54.02692272667252
 21
6.980386366637426
 31
0.0
  0
TEXT
  5
A35
330
1F
100
AcDbEntity
  8
SK2
  6
CONTINUOUS
370
25
 62
7
100
AcDbText
 10
-56.523
 20
12.34583333333333
 30
0.0
 40
3.5
  1
4
 50
90.00000000000001
 72
     1
 11
-56.523
 21
13.5125
 31
0.0
100
AcDbText
  0
CIRCLE
  5
A36
330
1F
100
AcDbEntity
  8
SK2
  6
CONTINUOUS
370
25
 62
7
100
AcDbCircle
 10
-58.273
 20
10.1875
 30
0.0
 40
1.4
  0
LINE
  5
A37
330
1F
100
AcDbEntity
  8
SK2
  6
CONTINUOUS
370
25
 62
7
100
AcDbLine
 10
-56.873
 20
8.787500000000001
 30
0.0
 11
-59.67299999999999
 21
11.5875
 31
0.0
  0
LINE
  5
A38
330
1F
100
AcDbEntity
  8
SK2
  6
CONTINUOUS
370
25
 62
7
100
AcDbLine
 10
-43.023
 20
2.0
 30
0.0
 11
-43.023
 21
14.0
 31
0.0
  0
LINE
  5
A39
330
1F
100
AcDbEntity
  8
SK2
  6
CONTINUOUS
370
25
 62
7
100
AcDbLine
 10
-0.0099999999999999
 20
15.0
 30
0.0
 11
-0.0100000000000007
 21
2.0
 31
0.0
  0
LINE
  5
A3A
330
1F
100
AcDbEntity
  8
SK2
  6
CONTINUOUS
370
25
 62
7
100
AcDbLine
 10
-43.023
 20
14.0
 30
0.0
 11
-0.01
 21
14.0
 31
0.0
  0
LINE
  5
A3B
330
1F
100
AcDbEntity
  8
SK2
  6
CONTINUOUS
370
25
 62
7
100
AcDbLine
 10
-43.023
 20
14.0
 30
0.0
 11
-38.023
 21
15.0
 31
0.0
  0
LINE
  5
A3C
330
1F
100
AcDbEntity
  8
SK2
  6
CONTINUOUS
370
25
 62
7
100
AcDbLine
 10
-38.023
 20
15.0
 30
0.0
 11
-38.023
 21
13.0
 31
0.0
  0
LINE
  5
A3D
330
1F
100
AcDbEntity
  8
SK2
  6
CONTINUOUS
370
25
 62
7
100
AcDbLine
 10
-38.023
 20
13.0
 30
0.0
 11
-43.023
 21
14.0
 31
0.0
  0
LINE
  5
A3E
330
1F
100
AcDbEntity
  8
SK2
  6
CONTINUOUS
370
25
 62
7
100
AcDbLine
 10
-38.29212692845278
 20
13.05382538569055
 30
0.0
 11
-38.023
 21
13.32295231414334
 31
0.0
  0
LINE
  5
A3F
330
1F
100
AcDbEntity
  8
SK2
  6
CONTINUOUS
370
25
 62
7
100
AcDbLine
 10
-38.64568031904606
 20
13.12453606380921
 30
0.0
 11
-38.023
 21
13.74721638285527
 31
0.0
  0
LINE
  5
A40
330
1F
100
AcDbEntity
  8
SK2
  6
CONTINUOUS
370
25
 62
7
100
AcDbLine
 10
-38.99923370963933
 20
13.19524674192786
 30
0.0
 11
-38.023
 21
14.1714804515672
 31
0.0
  0
LINE
  5
A41
330
1F
100
AcDbEntity
  8
SK2
  6
CONTINUOUS
370
25
 62
7
100
AcDbLine
 10
-39.35278710023261
 20
13.26595742004652
 30
0.0
 11
-38.023
 21
14.59574452027913
 31
0.0
  0
LINE
  5
A42
330
1F
100
AcDbEntity
  8
SK2
  6
CONTINUOUS
370
25
 62
7
100
AcDbLine
 10
-39.70634049082589
 20
13.33666809816517
 30
0.0
 11
-38.04801073623882
 21
14.99499785275224
 31
0.0
  0
LINE
  5
A43
330
1F
100
AcDbEntity
  8
SK2
  6
CONTINUOUS
370
25
 62
7
100
AcDbLine
 10
-40.05989388141916
 20
13.40737877628383
 30
0.0
 11
-38.57834082212874
 21
14.88893183557425
 31
0.0
  0
LINE
  5
A44
330
1F
100
AcDbEntity
  8
SK2
  6
CONTINUOUS
370
25
 62
7
100
AcDbLine
 10
-40.41344727201244
 20
13.47808945440248
 30
0.0
 11
-39.10867090801865
 21
14.78286581839627
 31
0.0
  0
LINE
  5
A45
330
1F
100
AcDbEntity
  8
SK2
  6
CONTINUOUS
370
25
 62
7
100
AcDbLine
 10
-40.76700066260572
 20
13.54880013252114
 30
0.0
 11
-39.63900099390857
 21
14.67679980121829
 31
0.0
  0
LINE
  5
A46
330
1F
100
AcDbEntity
  8
SK2
  6
CONTINUOUS
370
25
 62
7
100
AcDbLine
 10
-41.12055405319899
 20
13.6195108106398
 30
0.0
 11
-40.16933107979848
 21
14.57073378404031
 31
0.0
  0
LINE
  5
A47
330
1F
100
AcDbEntity
  8
SK2
  6
CONTINUOUS
370
25
 62
7
100
AcDbLine
 10
-41.47410744379227
 20
13.69022148875845
 30
0.0
 11
-40.6996611656884
 21
14.46466776686232
 31
0.0
  0
LINE
  5
A48
330
1F
100
AcDbEntity
  8
SK2
  6
CONTINUOUS
370
25
 62
7
100
AcDbLine
 10
-41.82766083438554
 20
13.7609321668771
 30
0.0
 11
-41.2299912515783
 21
14.35860174968434
 31
0.0
  0
LINE
  5
A49
330
1F
100
AcDbEntity
  8
SK2
  6
CONTINUOUS
370
25
 62
7
100
AcDbLine
 10
-42.18121422497882
 20
13.83164284499576
 30
0.0
 11
-41.76032133746822
 21
14.25253573250636
 31
0.0
  0
LINE
  5
A4A
330
1F
100
AcDbEntity
  8
SK2
  6
CONTINUOUS
370
25
 62
7
100
AcDbLine
 10
-42.53476761557209
 20
13.90235352311441
 30
0.0
 11
-42.29065142335813
 21
14.14646971532837
 31
0.0
  0
LINE
  5
A4B
330
1F
100
AcDbEntity
  8
SK2
  6
CONTINUOUS
370
25
 62
7
100
AcDbLine
 10
-42.88832100616538
 20
13.97306420123306
 30
0.0
 11
-42.82098150924805
 21
14.04040369815039
 31
0.0
  0
LINE
  5
A4C
330
1F
100
AcDbEntity
  8
SK2
  6
CONTINUOUS
370
25
 62
7
100
AcDbLine
 10
-42.79135097489175
 20
14.04632980502166
 30
0.0
 11
-42.67552646233761
 21
13.93050529246753
 31
0.0
  0
LINE
  5
A4D
330
1F
100
AcDbEntity
  8
SK2
  6
CONTINUOUS
370
25
 62
7
100
AcDbLine
 10
-42.43779758429847
 20
14.11704048314031
 30
0.0
 11
-42.14519637644769
 21
13.82443927528954
 31
0.0
  0
LINE
  5
A4E
330
1F
100
AcDbEntity
  8
SK2
  6
CONTINUOUS
370
25
 62
7
100
AcDbLine
 10
-42.08424419370519
 20
14.18775116125896
 30
0.0
 11
-41.61486629055779
 21
13.71837325811156
 31
0.0
  0
LINE
  5
A4F
330
1F
100
AcDbEntity
  8
SK2
  6
CONTINUOUS
370
25
 62
7
100
AcDbLine
 10
-41.73069080311192
 20
14.25846183937762
 30
0.0
 11
-41.08453620466786
 21
13.61230724093357
 31
0.0
  0
LINE
  5
A50
330
1F
100
AcDbEntity
  8
SK2
  6
CONTINUOUS
370
25
 62
7
100
AcDbLine
 10
-41.37713741251864
 20
14.32917251749628
 30
0.0
 11
-40.55420611877796
 21
13.50624122375559
 31
0.0
  0
LINE
  5
A51
330
1F
100
AcDbEntity
  8
SK2
  6
CONTINUOUS
370
25
 62
7
100
AcDbLine
 10
-41.02358402192537
 20
14.39988319561493
 30
0.0
 11
-40.02387603288803
 21
13.4001752065776
 31
0.0
  0
LINE
  5
A52
330
1F
100
AcDbEntity
  8
SK2
  6
CONTINUOUS
370
25
 62
7
100
AcDbLine
 10
-40.67003063133208
 20
14.47059387373358
 30
0.0
 11
-39.49354594699813
 21
13.29410918939962
 31
0.0
  0
LINE
  5
A53
330
1F
100
AcDbEntity
  8
SK2
  6
CONTINUOUS
370
25
 62
7
100
AcDbLine
 10
-40.31647724073881
 20
14.54130455185224
 30
0.0
 11
-38.96321586110821
 21
13.18804317222164
 31
0.0
  0
LINE
  5
A54
330
1F
100
AcDbEntity
  8
SK2
  6
CONTINUOUS
370
25
 62
7
100
AcDbLine
 10
-39.96292385014554
 20
14.6120152299709
 30
0.0
 11
-38.4328857752183
 21
13.08197715504366
 31
0.0
  0
LINE
  5
A55
330
1F
100
AcDbEntity
  8
SK2
  6
CONTINUOUS
370
25
 62
7
100
AcDbLine
 10
-39.60937045955226
 20
14.68272590808955
 30
0.0
 11
-38.023
 21
13.0963554485373
 31
0.0
  0
LINE
  5
A56
330
1F
100
AcDbEntity
  8
SK2
  6
CONTINUOUS
370
25
 62
7
100
AcDbLine
 10
-39.25581706895898
 20
14.7534365862082
 30
0.0
 11
-38.023
 21
13.52061951724923
 31
0.0
  0
LINE
  5
A57
330
1F
100
AcDbEntity
  8
SK2
  6
CONTINUOUS
370
25
 62
7
100
AcDbLine
 10
-38.90226367836571
 20
14.82414726432686
 30
0.0
 11
-38.023
 21
13.94488358596116
 31
0.0
  0
LINE
  5
A58
330
1F
100
AcDbEntity
  8
SK2
  6
CONTINUOUS
370
25
 62
7
100
AcDbLine
 10
-38.54871028777243
 20
14.89485794244552
 30
0.0
 11
-38.023
 21
14.36914765467309
 31
0.0
  0
LINE
  5
A59
330
1F
100
AcDbEntity
  8
SK2
  6
CONTINUOUS
370
25
 62
7
100
AcDbLine
 10
-38.19515689717915
 20
14.96556862056418
 30
0.0
 11
-38.023
 21
14.79341172338502
 31
0.0
  0
LINE
  5
A5A
330
1F
100
AcDbEntity
  8
SK2
  6
CONTINUOUS
370
25
 62
7
100
AcDbLine
 10
-0.01
 20
14.0
 30
0.0
 11
-5.01
 21
13.0
 31
0.0
  0
LINE
  5
A5B
330
1F
100
AcDbEntity
  8
SK2
  6
CONTINUOUS
370
25
 62
7
100
AcDbLine
 10
-5.01
 20
13.0
 30
0.0
 11
-5.01
 21
15.0
 31
0.0
  0
LINE
  5
A5C
330
1F
100
AcDbEntity
  8
SK2
  6
CONTINUOUS
370
25
 62
7
100
AcDbLine
 10
-5.01
 20
15.0
 30
0.0
 11
-0.01
 21
14.0
 31
0.0
  0
LINE
  5
A5D
330
1F
100
AcDbEntity
  8
SK2
  6
CONTINUOUS
370
25
 62
7
100
AcDbLine
 10
-0.01089283436705
 20
13.99982143312659
 30
0.0
 11
-0.0105952229113667
 21
14.00011904458227
 31
0.0
  0
LINE
  5
A5E
330
1F
100
AcDbEntity
  8
SK2
  6
CONTINUOUS
370
25
 62
7
100
AcDbLine
 10
-0.5412229202569596
 20
13.89375541594861
 30
0.0
 11
-0.3641486135046398
 21
14.07082972270093
 31
0.0
  0
LINE
  5
A5F
330
1F
100
AcDbEntity
  8
SK2
  6
CONTINUOUS
370
25
 62
7
100
AcDbLine
 10
-1.071553006146869
 20
13.78768939877063
 30
0.0
 11
-0.7177020040979128
 21
14.14154040081958
 31
0.0
  0
LINE
  5
A60
330
1F
100
AcDbEntity
  8
SK2
  6
CONTINUOUS
370
25
 62
7
100
AcDbLine
 10
-1.601883092036781
 20
13.68162338159264
 30
0.0
 11
-1.071255394691187
 21
14.21225107893824
 31
0.0
  0
LINE
  5
A61
330
1F
100
AcDbEntity
  8
SK2
  6
CONTINUOUS
370
25
 62
7
100
AcDbLine
 10
-2.13221317792669
 20
13.57555736441466
 30
0.0
 11
-1.42480878528446
 21
14.28296175705689
 31
0.0
  0
LINE
  5
A62
330
1F
100
AcDbEntity
  8
SK2
  6
CONTINUOUS
370
25
 62
7
100
AcDbLine
 10
-2.662543263816599
 20
13.46949134723668
 30
0.0
 11
-1.778362175877733
 21
14.35367243517555
 31
0.0
  0
LINE
  5
A63
330
1F
100
AcDbEntity
  8
SK2
  6
CONTINUOUS
370
25
 62
7
100
AcDbLine
 10
-3.192873349706508
 20
13.3634253300587
 30
0.0
 11
-2.131915566471005
 21
14.4243831132942
 31
0.0
  0
LINE
  5
A64
330
1F
100
AcDbEntity
  8
SK2
  6
CONTINUOUS
370
25
 62
7
100
AcDbLine
 10
-3.723203435596417
 20
13.25735931288072
 30
0.0
 11
-2.485468957064279
 21
14.49509379141286
 31
0.0
  0
LINE
  5
A65
330
1F
100
AcDbEntity
  8
SK2
  6
CONTINUOUS
370
25
 62
7
100
AcDbLine
 10
-4.253533521486326
 20
13.15129329570274
 30
0.0
 11
-2.839022347657552
 21
14.56580446953151
 31
0.0
  0
LINE
  5
A66
330
1F
100
AcDbEntity
  8
SK2
  6
CONTINUOUS
370
25
 62
7
100
AcDbLine
 10
-4.783863607376236
 20
13.04522727852475
 30
0.0
 11
-3.192575738250825
 21
14.63651514765017
 31
0.0
  0
LINE
  5
A67
330
1F
100
AcDbEntity
  8
SK2
  6
CONTINUOUS
370
25
 62
7
100
AcDbLine
 10
-5.01
 20
13.24335495461292
 30
0.0
 11
-3.546129128844097
 21
14.70722582576882
 31
0.0
  0
LINE
  5
A68
330
1F
100
AcDbEntity
  8
SK2
  6
CONTINUOUS
370
25
 62
7
100
AcDbLine
 10
-5.01
 20
13.66761902332485
 30
0.0
 11
-3.899682519437373
 21
14.77793650388747
 31
0.0
  0
LINE
  5
A69
330
1F
100
AcDbEntity
  8
SK2
  6
CONTINUOUS
370
25
 62
7
100
AcDbLine
 10
-5.01
 20
14.09188309203677
 30
0.0
 11
-4.253235910030646
 21
14.84864718200613
 31
0.0
  0
LINE
  5
A6A
330
1F
100
AcDbEntity
  8
SK2
  6
CONTINUOUS
370
25
 62
7
100
AcDbLine
 10
-5.01
 20
14.5161471607487
 30
0.0
 11
-4.606789300623919
 21
14.91935786012478
 31
0.0
  0
LINE
  5
A6B
330
1F
100
AcDbEntity
  8
SK2
  6
CONTINUOUS
370
25
 62
7
100
AcDbLine
 10
-5.01
 20
14.94041122946063
 30
0.0
 11
-4.960342691217191
 21
14.99006853824344
 31
0.0
  0
LINE
  5
A6C
330
1F
100
AcDbEntity
  8
SK2
  6
CONTINUOUS
370
25
 62
7
100
AcDbLine
 10
-5.01
 20
13.06101730552664
 30
0.0
 11
-4.959152245394465
 21
13.01016955092111
 31
0.0
  0
LINE
  5
A6D
330
1F
100
AcDbEntity
  8
SK2
  6
CONTINUOUS
370
25
 62
7
100
AcDbLine
 10
-5.01
 20
13.48528137423857
 30
0.0
 11
-4.60559885480119
 21
13.08088022903976
 31
0.0
  0
LINE
  5
A6E
330
1F
100
AcDbEntity
  8
SK2
  6
CONTINUOUS
370
25
 62
7
100
AcDbLine
 10
-5.01
 20
13.9095454429505
 30
0.0
 11
-4.252045464207918
 21
13.15159090715842
 31
0.0
  0
LINE
  5
A6F
330
1F
100
AcDbEntity
  8
SK2
  6
CONTINUOUS
370
25
 62
7
100
AcDbLine
 10
-5.01
 20
14.33380951166242
 30
0.0
 11
-3.898492073614645
 21
13.22230158527707
 31
0.0
  0
LINE
  5
A70
330
1F
100
AcDbEntity
  8
SK2
  6
CONTINUOUS
370
25
 62
7
100
AcDbLine
 10
-5.01
 20
14.75807358037435
 30
0.0
 11
-3.544938683021372
 21
13.29301226339573
 31
0.0
  0
LINE
  5
A71
330
1F
100
AcDbEntity
  8
SK2
  6
CONTINUOUS
370
25
 62
7
100
AcDbLine
 10
-4.78207793864215
 20
14.95441558772843
 30
0.0
 11
-3.191385292428098
 21
13.36372294151438
 31
0.0
  0
LINE
  5
A72
330
1F
100
AcDbEntity
  8
SK2
  6
CONTINUOUS
370
25
 62
7
100
AcDbLine
 10
-4.251747852752241
 20
14.84834957055045
 30
0.0
 11
-2.837831901834826
 21
13.43443361963303
 31
0.0
  0
LINE
  5
A73
330
1F
100
AcDbEntity
  8
SK2
  6
CONTINUOUS
370
25
 62
7
100
AcDbLine
 10
-3.721417766862331
 20
14.74228355337247
 30
0.0
 11
-2.484278511241552
 21
13.50514429775169
 31
0.0
  0
LINE
  5
A74
330
1F
100
AcDbEntity
  8
SK2
  6
CONTINUOUS
370
25
 62
7
100
AcDbLine
 10
-3.19108768097242
 20
14.63621753619448
 30
0.0
 11
-2.130725120648279
 21
13.57585497587034
 31
0.0
  0
LINE
  5
A75
330
1F
100
AcDbEntity
  8
SK2
  6
CONTINUOUS
370
25
 62
7
100
AcDbLine
 10
-2.660757595082508
 20
14.5301515190165
 30
0.0
 11
-1.777171730055004
 21
13.646565653989
 31
0.0
  0
LINE
  5
A76
330
1F
100
AcDbEntity
  8
SK2
  6
CONTINUOUS
370
25
 62
7
100
AcDbLine
 10
-2.130427509192599
 20
14.42408550183852
 30
0.0
 11
-1.423618339461732
 21
13.71727633210765
 31
0.0
  0
LINE
  5
A77
330
1F
100
AcDbEntity
  8
SK2
  6
CONTINUOUS
370
25
 62
7
100
AcDbLine
 10
-1.600097423302689
 20
14.31801948466054
 30
0.0
 11
-1.070064948868459
 21
13.78798701022631
 31
0.0
  0
LINE
  5
A78
330
1F
100
AcDbEntity
  8
SK2
  6
CONTINUOUS
370
25
 62
7
100
AcDbLine
 10
-1.069767337412779
 20
14.21195346748256
 30
0.0
 11
-0.716511558275185
 21
13.85869768834496
 31
0.0
  0
LINE
  5
A79
330
1F
100
AcDbEntity
  8
SK2
  6
CONTINUOUS
370
25
 62
7
100
AcDbLine
 10
-0.5394372515228676
 20
14.10588745030457
 30
0.0
 11
-0.3629581676819114
 21
13.92940836646362
 31
0.0
  0
TEXT
  5
A7A
330
1F
100
AcDbEntity
  8
SK2
  6
CONTINUOUS
370
25
 62
7
100
AcDbText
 10
-29.3915
 20
15.5
 30
0.0
 40
3.5
  1
43.013
 72
     1
 11
-21.5165
 21
15.5
 31
0.0
100
AcDbText
  0
LINE
  5
A7B
330
1F
100
AcDbEntity
  8
2
  6
CONTINUOUS
370
25
 62
7
100
AcDbLine
 10
6.927
 20
-0.15
 30
0.0
 11
39.852
 21
-0.150000000000004
 31
0.0
  0
LINE
  5
A7C
330
1F
100
AcDbEntity
  8
2
  6
CONTINUOUS
370
25
 62
7
100
AcDbLine
 10
39.852
 20
0.149999999999996
 30
0.0
 11
6.926999999999998
 21
0.15
 31
0.0
  0
LINE
  5
A7D
330
1F
100
AcDbEntity
  8
2
  6
CONTINUOUS
370
25
 62
7
100
AcDbLine
 10
38.852
 20
-7.150000000000004
 30
0.0
 11
38.852
 21
19.575
 31
0.0
  0
LINE
  5
A7E
330
1F
100
AcDbEntity
  8
2
  6
CONTINUOUS
370
25
 62
7
100
AcDbLine
 10
38.852
 20
-0.1500000000000039
 30
0.0
 11
39.852
 21
-5.150000000000004
 31
0.0
  0
LINE
  5
A7F
330
1F
100
AcDbEntity
  8
2
  6
CONTINUOUS
370
25
 62
7
100
AcDbLine
 10
39.852
 20
-5.150000000000004
 30
0.0
 11
37.852
 21
-5.150000000000004
 31
0.0
  0
LINE
  5
A80
330
1F
100
AcDbEntity
  8
2
  6
CONTINUOUS
370
25
 62
7
100
AcDbLine
 10
37.852
 20
-5.150000000000004
 30
0.0
 11
38.852
 21
-0.1500000000000039
 31
0.0
  0
LINE
  5
A81
330
1F
100
AcDbEntity
  8
2
  6
CONTINUOUS
370
25
 62
7
100
AcDbLine
 10
39.57230690237648
 20
-5.150000000000006
 30
0.0
 11
39.80538448372941
 21
-4.916922418647069
 31
0.0
  0
LINE
  5
A82
330
1F
100
AcDbEntity
  8
2
  6
CONTINUOUS
370
25
 62
7
100
AcDbLine
 10
39.14804283366455
 20
-5.150000000000006
 30
0.0
 11
39.73467380561075
 21
-4.563369028053799
 31
0.0
  0
LINE
  5
A83
330
1F
100
AcDbEntity
  8
2
  6
CONTINUOUS
370
25
 62
7
100
AcDbLine
 10
38.72377876495262
 20
-5.150000000000006
 30
0.0
 11
39.6639631274921
 21
-4.209815637460522
 31
0.0
  0
LINE
  5
A84
330
1F
100
AcDbEntity
  8
2
  6
CONTINUOUS
370
25
 62
7
100
AcDbLine
 10
38.29951469624068
 20
-5.150000000000006
 30
0.0
 11
39.59325244937344
 21
-3.856262246867239
 31
0.0
  0
LINE
  5
A85
330
1F
100
AcDbEntity
  8
2
  6
CONTINUOUS
370
25
 62
7
100
AcDbLine
 10
37.87525062752875
 20
-5.150000000000006
 30
0.0
 11
39.52254177125479
 21
-3.502708856273962
 31
0.0
  0
LINE
  5
A86
330
1F
100
AcDbEntity
  8
2
  6
CONTINUOUS
370
25
 62
7
100
AcDbLine
 10
37.95225336029579
 20
-4.648733198521029
 30
0.0
 11
39.45183109313614
 21
-3.149155465680685
 31
0.0
  0
LINE
  5
A87
330
1F
100
AcDbEntity
  8
2
  6
CONTINUOUS
370
25
 62
7
100
AcDbLine
 10
38.05831937747378
 20
-4.118403112631107
 30
0.0
 11
39.38112041501748
 21
-2.795602075087409
 31
0.0
  0
LINE
  5
A88
330
1F
100
AcDbEntity
  8
2
  6
CONTINUOUS
370
25
 62
7
100
AcDbLine
 10
38.16438539465176
 20
-3.588073026741199
 30
0.0
 11
39.31040973689882
 21
-2.442048684494139
 31
0.0
  0
LINE
  5
A89
330
1F
100
AcDbEntity
  8
2
  6
CONTINUOUS
370
25
 62
7
100
AcDbLine
 10
38.27045141182974
 20
-3.057742940851291
 30
0.0
 11
39.23969905878017
 21
-2.088495293900863
 31
0.0
  0
LINE
  5
A8A
330
1F
100
AcDbEntity
  8
2
  6
CONTINUOUS
370
25
 62
7
100
AcDbLine
 10
38.37651742900772
 20
-2.527412854961376
 30
0.0
 11
39.16898838066152
 21
-1.734941903307579
 31
0.0
  0
LINE
  5
A8B
330
1F
100
AcDbEntity
  8
2
  6
CONTINUOUS
370
25
 62
7
100
AcDbLine
 10
38.48258344618571
 20
-1.997082769071454
 30
0.0
 11
39.09827770254286
 21
-1.381388512714302
 31
0.0
  0
LINE
  5
A8C
330
1F
100
AcDbEntity
  8
2
  6
CONTINUOUS
370
25
 62
7
100
AcDbLine
 10
38.58864946336369
 20
-1.466752683181547
 30
0.0
 11
39.0275670244242
 21
-1.027835122121033
 31
0.0
  0
LINE
  5
A8D
330
1F
100
AcDbEntity
  8
2
  6
CONTINUOUS
370
25
 62
7
100
AcDbLine
 10
38.69471548054167
 20
-0.9364225972916245
 30
0.0
 11
38.95685634630554
 21
-0.6742817315277563
 31
0.0
  0
LINE
  5
A8E
330
1F
100
AcDbEntity
  8
2
  6
CONTINUOUS
370
25
 62
7
100
AcDbLine
 10
38.80078149771965
 20
-0.4060925114017167
 30
0.0
 11
38.88614566818689
 21
-0.3207283409344797
 31
0.0
  0
LINE
  5
A8F
330
1F
100
AcDbEntity
  8
2
  6
CONTINUOUS
370
25
 62
7
100
AcDbLine
 10
37.91543289325507
 20
-4.832835533724662
 30
0.0
 11
38.23259735953041
 21
-5.150000000000006
 31
0.0
  0
LINE
  5
A90
330
1F
100
AcDbEntity
  8
2
  6
CONTINUOUS
370
25
 62
7
100
AcDbLine
 10
37.98614357137372
 20
-4.479282143131385
 30
0.0
 11
38.65686142824234
 21
-5.150000000000006
 31
0.0
  0
LINE
  5
A91
330
1F
100
AcDbEntity
  8
2
  6
CONTINUOUS
370
25
 62
7
100
AcDbLine
 10
38.05685424949238
 20
-4.125728752538109
 30
0.0
 11
39.08112549695429
 21
-5.150000000000006
 31
0.0
  0
LINE
  5
A92
330
1F
100
AcDbEntity
  8
2
  6
CONTINUOUS
370
25
 62
7
100
AcDbLine
 10
38.12756492761103
 20
-3.772175361944832
 30
0.0
 11
39.50538956566621
 21
-5.150000000000006
 31
0.0
  0
LINE
  5
A93
330
1F
100
AcDbEntity
  8
2
  6
CONTINUOUS
370
25
 62
7
100
AcDbLine
 10
38.19827560572969
 20
-3.418621971351556
 30
0.0
 11
39.83258659140546
 21
-5.052932957027316
 31
0.0
  0
LINE
  5
A94
330
1F
100
AcDbEntity
  8
2
  6
CONTINUOUS
370
25
 62
7
100
AcDbLine
 10
38.26898628384834
 20
-3.065068580758279
 30
0.0
 11
39.72652057422748
 21
-4.522602871137408
 31
0.0
  0
LINE
  5
A95
330
1F
100
AcDbEntity
  8
2
  6
CONTINUOUS
370
25
 62
7
100
AcDbLine
 10
38.339696961967
 20
-2.711515190165002
 30
0.0
 11
39.62045455704949
 21
-3.992272785247486
 31
0.0
  0
LINE
  5
A96
330
1F
100
AcDbEntity
  8
2
  6
CONTINUOUS
370
25
 62
7
100
AcDbLine
 10
38.41040764008566
 20
-2.357961799571733
 30
0.0
 11
39.51438853987151
 21
-3.461942699357579
 31
0.0
  0
LINE
  5
A97
330
1F
100
AcDbEntity
  8
2
  6
CONTINUOUS
370
25
 62
7
100
AcDbLine
 10
38.48111831820431
 20
-2.004408408978456
 30
0.0
 11
39.40832252269353
 21
-2.931612613467671
 31
0.0
  0
LINE
  5
A98
330
1F
100
AcDbEntity
  8
2
  6
CONTINUOUS
370
25
 62
7
100
AcDbLine
 10
38.55182899632296
 20
-1.650855018385165
 30
0.0
 11
39.30225650551555
 21
-2.401282527577756
 31
0.0
  0
LINE
  5
A99
330
1F
100
AcDbEntity
  8
2
  6
CONTINUOUS
370
25
 62
7
100
AcDbLine
 10
38.62253967444162
 20
-1.297301627791896
 30
0.0
 11
39.19619048833757
 21
-1.870952441687848
 31
0.0
  0
LINE
  5
A9A
330
1F
100
AcDbEntity
  8
2
  6
CONTINUOUS
370
25
 62
7
100
AcDbLine
 10
38.69325035256028
 20
-0.9437482371986192
 30
0.0
 11
39.09012447115958
 21
-1.340622355797926
 31
0.0
  0
LINE
  5
A9B
330
1F
100
AcDbEntity
  8
2
  6
CONTINUOUS
370
25
 62
7
100
AcDbLine
 10
38.76396103067893
 20
-0.5901948466053426
 30
0.0
 11
38.9840584539816
 21
-0.8102922699080182
 31
0.0
  0
LINE
  5
A9C
330
1F
100
AcDbEntity
  8
2
  6
CONTINUOUS
370
25
 62
7
100
AcDbLine
 10
38.83467170879759
 20
-0.236641456012066
 30
0.0
 11
38.87799243680362
 21
-0.2799621840180961
 31
0.0
  0
LINE
  5
A9D
330
1F
100
AcDbEntity
  8
2
  6
CONTINUOUS
370
25
 62
7
100
AcDbLine
 10
38.852
 20
0.1499999999999961
 30
0.0
 11
37.852
 21
5.149999999999996
 31
0.0
  0
LINE
  5
A9E
330
1F
100
AcDbEntity
  8
2
  6
CONTINUOUS
370
25
 62
7
100
AcDbLine
 10
37.852
 20
5.149999999999996
 30
0.0
 11
39.852
 21
5.149999999999996
 31
0.0
  0
LINE
  5
A9F
330
1F
100
AcDbEntity
  8
2
  6
CONTINUOUS
370
25
 62
7
100
AcDbLine
 10
39.852
 20
5.149999999999996
 30
0.0
 11
38.852
 21
0.1499999999999961
 31
0.0
  0
LINE
  5
AA0
330
1F
100
AcDbEntity
  8
2
  6
CONTINUOUS
370
25
 62
7
100
AcDbLine
 10
38.7958245982493
 20
0.4308770087535194
 30
0.0
 11
38.93626310262605
 21
0.5713155131302727
 31
0.0
  0
LINE
  5
AA1
330
1F
100
AcDbEntity
  8
2
  6
CONTINUOUS
370
25
 62
7
100
AcDbLine
 10
38.72511392013064
 20
0.7844303993467889
 30
0.0
 11
39.04232911980403
 21
1.101645599020181
 31
0.0
  0
LINE
  5
AA2
330
1F
100
AcDbEntity
  8
2
  6
CONTINUOUS
370
25
 62
7
100
AcDbLine
 10
38.65440324201198
 20
1.137983789940066
 30
0.0
 11
39.14839513698202
 21
1.631975684910103
 31
0.0
  0
LINE
  5
AA3
330
1F
100
AcDbEntity
  8
2
  6
CONTINUOUS
370
25
 62
7
100
AcDbLine
 10
38.58369256389332
 20
1.491537180533335
 30
0.0
 11
39.25446115416
 21
2.162305770800018
 31
0.0
  0
LINE
  5
AA4
330
1F
100
AcDbEntity
  8
2
  6
CONTINUOUS
370
25
 62
7
100
AcDbLine
 10
38.51298188577467
 20
1.845090571126619
 30
0.0
 11
39.36052717133798
 21
2.692635856689932
 31
0.0
  0
LINE
  5
AA5
330
1F
100
AcDbEntity
  8
2
  6
CONTINUOUS
370
25
 62
7
100
AcDbLine
 10
38.44227120765602
 20
2.198643961719903
 30
0.0
 11
39.46659318851597
 21
3.222965942579847
 31
0.0
  0
LINE
  5
AA6
330
1F
100
AcDbEntity
  8
2
  6
CONTINUOUS
370
25
 62
7
100
AcDbLine
 10
38.37156052953736
 20
2.552197352313172
 30
0.0
 11
39.57265920569395
 21
3.753296028469762
 31
0.0
  0
LINE
  5
AA7
330
1F
100
AcDbEntity
  8
2
  6
CONTINUOUS
370
25
 62
7
100
AcDbLine
 10
38.3008498514187
 20
2.905750742906449
 30
0.0
 11
39.67872522287193
 21
4.283626114359677
 31
0.0
  0
LINE
  5
AA8
330
1F
100
AcDbEntity
  8
2
  6
CONTINUOUS
370
25
 62
7
100
AcDbLine
 10
38.23013917330005
 20
3.259304133499725
 30
0.0
 11
39.78479124004991
 21
4.813956200249585
 31
0.0
  0
LINE
  5
AA9
330
1F
100
AcDbEntity
  8
2
  6
CONTINUOUS
370
25
 62
7
100
AcDbLine
 10
38.15942849518139
 20
3.612857524093002
 30
0.0
 11
39.69657097108839
 21
5.149999999999999
 31
0.0
  0
LINE
  5
AAA
330
1F
100
AcDbEntity
  8
2
  6
CONTINUOUS
370
25
 62
7
100
AcDbLine
 10
38.08871781706274
 20
3.966410914686278
 30
0.0
 11
39.27230690237646
 21
5.149999999999999
 31
0.0
  0
LINE
  5
AAB
330
1F
100
AcDbEntity
  8
2
  6
CONTINUOUS
370
25
 62
7
100
AcDbLine
 10
38.01800713894409
 20
4.319964305279555
 30
0.0
 11
38.84804283366453
 21
5.149999999999999
 31
0.0
  0
LINE
  5
AAC
330
1F
100
AcDbEntity
  8
2
  6
CONTINUOUS
370
25
 62
7
100
AcDbLine
 10
37.94729646082543
 20
4.673517695872832
 30
0.0
 11
38.42377876495259
 21
5.149999999999999
 31
0.0
  0
LINE
  5
AAD
330
1F
100
AcDbEntity
  8
2
  6
CONTINUOUS
370
25
 62
7
100
AcDbLine
 10
37.87658578270678
 20
5.027071086466108
 30
0.0
 11
37.99951469624067
 21
5.149999999999999
 31
0.0
  0
LINE
  5
AAE
330
1F
100
AcDbEntity
  8
2
  6
CONTINUOUS
370
25
 62
7
100
AcDbLine
 10
38.84692641962565
 20
0.1753679018717804
 30
0.0
 11
38.85538238691623
 21
0.1669119345811936
 31
0.0
  0
LINE
  5
AAF
330
1F
100
AcDbEntity
  8
2
  6
CONTINUOUS
370
25
 62
7
100
AcDbLine
 10
38.74086040244766
 20
0.7056979877617024
 30
0.0
 11
38.92609306503489
 21
0.5204653251744702
 31
0.0
  0
LINE
  5
AB0
330
1F
100
AcDbEntity
  8
2
  6
CONTINUOUS
370
25
 62
7
100
AcDbLine
 10
38.63479438526968
 20
1.236028073651603
 30
0.0
 11
38.99680374315354
 21
0.8740187157677468
 31
0.0
  0
LINE
  5
AB1
330
1F
100
AcDbEntity
  8
2
  6
CONTINUOUS
370
25
 62
7
100
AcDbLine
 10
38.52872836809169
 20
1.766358159541525
 30
0.0
 11
39.0675144212722
 21
1.227572106361023
 31
0.0
  0
LINE
  5
AB2
330
1F
100
AcDbEntity
  8
2
  6
CONTINUOUS
370
25
 62
7
100
AcDbLine
 10
38.42266235091371
 20
2.29668824543144
 30
0.0
 11
39.13822509939086
 21
1.5811254969543
 31
0.0
  0
LINE
  5
AB3
330
1F
100
AcDbEntity
  8
2
  6
CONTINUOUS
370
25
 62
7
100
AcDbLine
 10
38.31659633373572
 20
2.827018331321355
 30
0.0
 11
39.20893577750952
 21
1.93467888754757
 31
0.0
  0
LINE
  5
AB4
330
1F
100
AcDbEntity
  8
2
  6
CONTINUOUS
370
25
 62
7
100
AcDbLine
 10
38.21053031655774
 20
3.35734841721127
 30
0.0
 11
39.27964645562817
 21
2.288232278140853
 31
0.0
  0
LINE
  5
AB5
330
1F
100
AcDbEntity
  8
2
  6
CONTINUOUS
370
25
 62
7
100
AcDbLine
 10
38.10446429937976
 20
3.887678503101178
 30
0.0
 11
39.35035713374682
 21
2.641785668734123
 31
0.0
  0
LINE
  5
AB6
330
1F
100
AcDbEntity
  8
2
  6
CONTINUOUS
370
25
 62
7
100
AcDbLine
 10
37.99839828220178
 20
4.418008588991093
 30
0.0
 11
39.42106781186548
 21
2.995339059327392
 31
0.0
  0
LINE
  5
AB7
330
1F
100
AcDbEntity
  8
2
  6
CONTINUOUS
370
25
 62
7
100
AcDbLine
 10
37.8923322650238
 20
4.948338674881008
 30
0.0
 11
39.49177848998414
 21
3.348892449920669
 31
0.0
  0
LINE
  5
AB8
330
1F
100
AcDbEntity
  8
2
  6
CONTINUOUS
370
25
 62
7
100
AcDbLine
 10
38.11493500861673
 20
5.149999999999999
 30
0.0
 11
39.56248916810279
 21
3.702445840513938
 31
0.0
  0
LINE
  5
AB9
330
1F
100
AcDbEntity
  8
2
  6
CONTINUOUS
370
25
 62
7
100
AcDbLine
 10
38.53919907732867
 20
5.149999999999999
 30
0.0
 11
39.63319984622144
 21
4.055999231107222
 31
0.0
  0
LINE
  5
ABA
330
1F
100
AcDbEntity
  8
2
  6
CONTINUOUS
370
25
 62
7
100
AcDbLine
 10
38.9634631460406
 20
5.149999999999999
 30
0.0
 11
39.7039105243401
 21
4.409552621700506
 31
0.0
  0
LINE
  5
ABB
330
1F
100
AcDbEntity
  8
2
  6
CONTINUOUS
370
25
 62
7
100
AcDbLine
 10
39.38772721475254
 20
5.149999999999999
 30
0.0
 11
39.77462120245875
 21
4.763106012293782
 31
0.0
  0
LINE
  5
ABC
330
1F
100
AcDbEntity
  8
2
  6
CONTINUOUS
370
25
 62
7
100
AcDbLine
 10
39.81199128346447
 20
5.149999999999999
 30
0.0
 11
39.84533188057741
 21
5.116659402887052
 31
0.0
  0
TEXT
  5
ABD
330
1F
100
AcDbEntity
  8
2
  6
CONTINUOUS
370
25
 62
7
100
AcDbText
 10
37.352
 20
11.42916666666666
 30
0.0
 40
3.500000000000002
  1
0.3
 50
90.00000000000001
 72
     1
 11
37.352
 21
14.6375
 31
0.0
100
AcDbText
  0
CIRCLE
  5
ABE
330
1F
100
AcDbEntity
  8
2
  6
CONTINUOUS
370
25
 62
7
100
AcDbCircle
 10
35.602
 20
8.162499999999994
 30
0.0
 40
1.4
  0
LINE
  5
ABF
330
1F
100
AcDbEntity
  8
2
  6
CONTINUOUS
370
25
 62
7
100
AcDbLine
 10
37.002
 20
6.762499999999995
 30
0.0
 11
34.202
 21
9.562499999999995
 31
0.0
  0
LINE
  5
AC0
330
1F
100
AcDbEntity
  8
2
  6
CONTINUOUS
370
25
 62
7
100
AcDbLine
 10
6.797000000000001
 20
-0.13995
 30
0.0
 11
3.797000000000001
 21
-0.1399499999999996
 31
0.0
  0
LINE
  5
AC1
330
1F
100
AcDbEntity
  8
2
  6
CONTINUOUS
370
25
 62
7
100
AcDbLine
 10
3.797000000000001
 20
0.1399500000000004
 30
0.0
 11
6.797000000000001
 21
0.13995
 31
0.0
  0
LINE
  5
AC2
330
1F
100
AcDbEntity
  8
2
  6
CONTINUOUS
370
25
 62
7
100
AcDbLine
 10
4.797000000000001
 20
-7.13995
 30
0.0
 11
4.797000000000001
 21
22.53995
 31
0.0
  0
LINE
  5
AC3
330
1F
100
AcDbEntity
  8
2
  6
CONTINUOUS
370
25
 62
7
100
AcDbLine
 10
4.797000000000001
 20
-0.1399499999999997
 30
0.0
 11
5.797000000000001
 21
-5.13995
 31
0.0
  0
LINE
  5
AC4
330
1F
100
AcDbEntity
  8
2
  6
CONTINUOUS
370
25
 62
7
100
AcDbLine
 10
5.797000000000001
 20
-5.13995
 30
0.0
 11
3.797000000000001
 21
-5.13995
 31
0.0
  0
LINE
  5
AC5
330
1F
100
AcDbEntity
  8
2
  6
CONTINUOUS
370
25
 62
7
100
AcDbLine
 10
3.797000000000001
 20
-5.13995
 30
0.0
 11
4.797000000000001
 21
-0.1399499999999997
 31
0.0
  0
LINE
  5
AC6
330
1F
100
AcDbEntity
  8
2
  6
CONTINUOUS
370
25
 62
7
100
AcDbLine
 10
5.393382399330754
 20
-5.13995
 30
0.0
 11
5.729730399888459
 21
-4.803601999442295
 31
0.0
  0
LINE
  5
AC7
330
1F
100
AcDbEntity
  8
2
  6
CONTINUOUS
370
25
 62
7
100
AcDbLine
 10
4.969118330618826
 20
-5.13995
 30
0.0
 11
5.659019721769805
 21
-4.450048608849022
 31
0.0
  0
LINE
  5
AC8
330
1F
100
AcDbEntity
  8
2
  6
CONTINUOUS
370
25
 62
7
100
AcDbLine
 10
4.544854261906899
 20
-5.13995
 30
0.0
 11
5.58830904365115
 21
-4.096495218255749
 31
0.0
  0
LINE
  5
AC9
330
1F
100
AcDbEntity
  8
2
  6
CONTINUOUS
370
25
 62
7
100
AcDbLine
 10
4.120590193194971
 20
-5.13995
 30
0.0
 11
5.517598365532495
 21
-3.742941827662476
 31
0.0
  0
LINE
  5
ACA
330
1F
100
AcDbEntity
  8
2
  6
CONTINUOUS
370
25
 62
7
100
AcDbLine
 10
3.822168468879241
 20
-5.014107655603802
 30
0.0
 11
5.446887687413841
 21
-3.389388437069202
 31
0.0
  0
LINE
  5
ACB
330
1F
100
AcDbEntity
  8
2
  6
CONTINUOUS
370
25
 62
7
100
AcDbLine
 10
3.928234486057223
 20
-4.483777569713891
 30
0.0
 11
5.376177009295186
 21
-3.035835046475928
 31
0.0
  0
LINE
  5
ACC
330
1F
100
AcDbEntity
  8
2
  6
CONTINUOUS
370
25
 62
7
100
AcDbLine
 10
4.034300503235205
 20
-3.953447483823981
 30
0.0
 11
5.305466331176532
 21
-2.682281655882655
 31
0.0
  0
LINE
  5
ACD
330
1F
100
AcDbEntity
  8
2
  6
CONTINUOUS
370
25
 62
7
100
AcDbLine
 10
4.140366520413187
 20
-3.423117397934072
 30
0.0
 11
5.234755653057877
 21
-2.328728265289381
 31
0.0
  0
LINE
  5
ACE
330
1F
100
AcDbEntity
  8
2
  6
CONTINUOUS
370
25
 62
7
100
AcDbLine
 10
4.246432537591168
 20
-2.892787312044161
 30
0.0
 11
5.164044974939222
 21
-1.975174874696108
 31
0.0
  0
LINE
  5
ACF
330
1F
100
AcDbEntity
  8
2
  6
CONTINUOUS
370
25
 62
7
100
AcDbLine
 10
4.35249855476915
 20
-2.362457226154252
 30
0.0
 11
5.093334296820568
 21
-1.621621484102834
 31
0.0
  0
LINE
  5
AD0
330
1F
100
AcDbEntity
  8
2
  6
CONTINUOUS
370
25
 62
7
100
AcDbLine
 10
4.458564571947132
 20
-1.832127140264341
 30
0.0
 11
5.022623618701913
 21
-1.268068093509561
 31
0.0
  0
LINE
  5
AD1
330
1F
100
AcDbEntity
  8
2
  6
CONTINUOUS
370
25
 62
7
100
AcDbLine
 10
4.564630589125114
 20
-1.301797054374432
 30
0.0
 11
4.951912940583258
 21
-0.9145147029162874
 31
0.0
  0
LINE
  5
AD2
330
1F
100
AcDbEntity
  8
2
  6
CONTINUOUS
370
25
 62
7
100
AcDbLine
 10
4.670696606303096
 20
-0.7714669684845221
 30
0.0
 11
4.881202262464604
 21
-0.5609613123230144
 31
0.0
  0
LINE
  5
AD3
330
1F
100
AcDbEntity
  8
2
  6
CONTINUOUS
370
25
 62
7
100
AcDbLine
 10
4.776762623481078
 20
-0.2411368825946134
 30
0.0
 11
4.810491584345949
 21
-0.2074079217297422
 31
0.0
  0
LINE
  5
AD4
330
1F
100
AcDbEntity
  8
2
  6
CONTINUOUS
370
25
 62
7
100
AcDbLine
 10
3.840257336715814
 20
-4.923663316420931
 30
0.0
 11
4.056544020294884
 21
-5.13995
 31
0.0
  0
LINE
  5
AD5
330
1F
100
AcDbEntity
  8
2
  6
CONTINUOUS
370
25
 62
7
100
AcDbLine
 10
3.910968014834469
 20
-4.570109925827659
 30
0.0
 11
4.48080808900681
 21
-5.139949999999999
 31
0.0
  0
LINE
  5
AD6
330
1F
100
AcDbEntity
  8
2
  6
CONTINUOUS
370
25
 62
7
100
AcDbLine
 10
3.981678692953124
 20
-4.216556535234385
 30
0.0
 11
4.905072157718739
 21
-5.13995
 31
0.0
  0
LINE
  5
AD7
330
1F
100
AcDbEntity
  8
2
  6
CONTINUOUS
370
25
 62
7
100
AcDbLine
 10
4.052389371071778
 20
-3.863003144641111
 30
0.0
 11
5.329336226430669
 21
-5.13995
 31
0.0
  0
LINE
  5
AD8
330
1F
100
AcDbEntity
  8
2
  6
CONTINUOUS
370
25
 62
7
100
AcDbLine
 10
4.123100049190433
 20
-3.509449754047837
 30
0.0
 11
5.753600295142596
 21
-5.139949999999999
 31
0.0
  0
LINE
  5
AD9
330
1F
100
AcDbEntity
  8
2
  6
CONTINUOUS
370
25
 62
7
100
AcDbLine
 10
4.193810727309088
 20
-3.155896363454564
 30
0.0
 11
5.70178390903637
 21
-4.663869545181845
 31
0.0
  0
LINE
  5
ADA
330
1F
100
AcDbEntity
  8
2
  6
CONTINUOUS
370
25
 62
7
100
AcDbLine
 10
4.264521405427742
 20
-2.80234297286129
 30
0.0
 11
5.595717891858389
 21
-4.133539459291935
 31
0.0
  0
LINE
  5
ADB
330
1F
100
AcDbEntity
  8
2
  6
CONTINUOUS
370
25
 62
7
100
AcDbLine
 10
4.335232083546397
 20
-2.448789582268017
 30
0.0
 11
5.489651874680407
 21
-3.603209373402027
 31
0.0
  0
LINE
  5
ADC
330
1F
100
AcDbEntity
  8
2
  6
CONTINUOUS
370
25
 62
7
100
AcDbLine
 10
4.405942761665052
 20
-2.095236191674744
 30
0.0
 11
5.383585857502424
 21
-3.072879287512115
 31
0.0
  0
LINE
  5
ADD
330
1F
100
AcDbEntity
  8
2
  6
CONTINUOUS
370
25
 62
7
100
AcDbLine
 10
4.476653439783707
 20
-1.74168280108147
 30
0.0
 11
5.277519840324442
 21
-2.542549201622204
 31
0.0
  0
LINE
  5
ADE
330
1F
100
AcDbEntity
  8
2
  6
CONTINUOUS
370
25
 62
7
100
AcDbLine
 10
4.547364117902362
 20
-1.388129410488196
 30
0.0
 11
5.17145382314646
 21
-2.012219115732294
 31
0.0
  0
LINE
  5
ADF
330
1F
100
AcDbEntity
  8
2
  6
CONTINUOUS
370
25
 62
7
100
AcDbLine
 10
4.618074796021016
 20
-1.034576019894923
 30
0.0
 11
5.065387805968478
 21
-1.481889029842384
 31
0.0
  0
LINE
  5
AE0
330
1F
100
AcDbEntity
  8
2
  6
CONTINUOUS
370
25
 62
7
100
AcDbLine
 10
4.688785474139671
 20
-0.6810226293016486
 30
0.0
 11
4.959321788790496
 21
-0.951558943952473
 31
0.0
  0
LINE
  5
AE1
330
1F
100
AcDbEntity
  8
2
  6
CONTINUOUS
370
25
 62
7
100
AcDbLine
 10
4.759496152258325
 20
-0.3274692387083755
 30
0.0
 11
4.853255771612514
 21
-0.4212288580625643
 31
0.0
  0
LINE
  5
AE2
330
1F
100
AcDbEntity
  8
2
  6
CONTINUOUS
370
25
 62
7
100
AcDbLine
 10
4.797000000000001
 20
0.1399500000000002
 30
0.0
 11
3.797000000000001
 21
5.13995
 31
0.0
  0
LINE
  5
AE3
330
1F
100
AcDbEntity
  8
2
  6
CONTINUOUS
370
25
 62
7
100
AcDbLine
 10
3.797000000000001
 20
5.13995
 30
0.0
 11
5.797000000000001
 21
5.13995
 31
0.0
  0
LINE
  5
AE4
330
1F
100
AcDbEntity
  8
2
  6
CONTINUOUS
370
25
 62
7
100
AcDbLine
 10
5.797000000000001
 20
5.13995
 30
0.0
 11
4.797000000000001
 21
0.1399500000000002
 31
0.0
  0
LINE
  5
AE5
330
1F
100
AcDbEntity
  8
2
  6
CONTINUOUS
370
25
 62
7
100
AcDbLine
 10
4.794231192526995
 20
0.1537940373650262
 30
0.0
 11
4.80115321120951
 21
0.1607160560475407
 31
0.0
  0
LINE
  5
AE6
330
1F
100
AcDbEntity
  8
2
  6
CONTINUOUS
370
25
 62
7
100
AcDbLine
 10
4.723520514408341
 20
0.507347427958301
 30
0.0
 11
4.907219228387491
 21
0.6910461419374503
 31
0.0
  0
LINE
  5
AE7
330
1F
100
AcDbEntity
  8
2
  6
CONTINUOUS
370
25
 62
7
100
AcDbLine
 10
4.652809836289686
 20
0.8609008185515741
 30
0.0
 11
5.013285245565474
 21
1.221376227827362
 31
0.0
  0
LINE
  5
AE8
330
1F
100
AcDbEntity
  8
2
  6
CONTINUOUS
370
25
 62
7
100
AcDbLine
 10
4.582099158171031
 20
1.214454209144847
 30
0.0
 11
5.119351262743455
 21
1.751706313717271
 31
0.0
  0
LINE
  5
AE9
330
1F
100
AcDbEntity
  8
2
  6
CONTINUOUS
370
25
 62
7
100
AcDbLine
 10
4.511388480052377
 20
1.56800759973812
 30
0.0
 11
5.225417279921437
 21
2.28203639960718
 31
0.0
  0
LINE
  5
AEA
330
1F
100
AcDbEntity
  8
2
  6
CONTINUOUS
370
25
 62
7
100
AcDbLine
 10
4.440677801933722
 20
1.921560990331394
 30
0.0
 11
5.331483297099419
 21
2.81236648549709
 31
0.0
  0
LINE
  5
AEB
330
1F
100
AcDbEntity
  8
2
  6
CONTINUOUS
370
25
 62
7
100
AcDbLine
 10
4.369967123815067
 20
2.275114380924666
 30
0.0
 11
5.437549314277402
 21
3.342696571387
 31
0.0
  0
LINE
  5
AEC
330
1F
100
AcDbEntity
  8
2
  6
CONTINUOUS
370
25
 62
7
100
AcDbLine
 10
4.299256445696412
 20
2.62866777151794
 30
0.0
 11
5.543615331455384
 21
3.873026657276911
 31
0.0
  0
LINE
  5
AED
330
1F
100
AcDbEntity
  8
2
  6
CONTINUOUS
370
25
 62
7
100
AcDbLine
 10
4.228545767577757
 20
2.982221162111214
 30
0.0
 11
5.649681348633366
 21
4.403356743166821
 31
0.0
  0
LINE
  5
AEE
330
1F
100
AcDbEntity
  8
2
  6
CONTINUOUS
370
25
 62
7
100
AcDbLine
 10
4.157835089459104
 20
3.335774552704487
 30
0.0
 11
5.755747365811346
 21
4.933686829056727
 31
0.0
  0
LINE
  5
AEF
330
1F
100
AcDbEntity
  8
2
  6
CONTINUOUS
370
25
 62
7
100
AcDbLine
 10
4.087124411340449
 20
3.689327943297761
 30
0.0
 11
5.53774646804269
 21
5.139950000000001
 31
0.0
  0
LINE
  5
AF0
330
1F
100
AcDbEntity
  8
2
  6
CONTINUOUS
370
25
 62
7
100
AcDbLine
 10
4.016413733221794
 20
4.042881333891034
 30
0.0
 11
5.113482399330763
 21
5.139950000000001
 31
0.0
  0
LINE
  5
AF1
330
1F
100
AcDbEntity
  8
2
  6
CONTINUOUS
370
25
 62
7
100
AcDbLine
 10
3.94570305510314
 20
4.396434724484308
 30
0.0
 11
4.689218330618833
 21
5.139950000000001
 31
0.0
  0
LINE
  5
AF2
330
1F
100
AcDbEntity
  8
2
  6
CONTINUOUS
370
25
 62
7
100
AcDbLine
 10
3.874992376984485
 20
4.74998811507758
 30
0.0
 11
4.264954261906907
 21
5.139950000000001
 31
0.0
  0
LINE
  5
AF3
330
1F
100
AcDbEntity
  8
2
  6
CONTINUOUS
370
25
 62
7
100
AcDbLine
 10
3.80428169886583
 20
5.103541505670853
 30
0.0
 11
3.840690193194978
 21
5.139950000000001
 31
0.0
  0
LINE
  5
AF4
330
1F
100
AcDbEntity
  8
2
  6
CONTINUOUS
370
25
 62
7
100
AcDbLine
 10
4.760945293864215
 20
0.3202235306789305
 30
0.0
 11
4.821036470757192
 21
0.2601323537859539
 31
0.0
  0
LINE
  5
AF5
330
1F
100
AcDbEntity
  8
2
  6
CONTINUOUS
370
25
 62
7
100
AcDbLine
 10
4.654879276686232
 20
0.850553616568841
 30
0.0
 11
4.891747148875846
 21
0.613685744379227
 31
0.0
  0
LINE
  5
AF6
330
1F
100
AcDbEntity
  8
2
  6
CONTINUOUS
370
25
 62
7
100
AcDbLine
 10
4.54881325950825
 20
1.380883702458751
 30
0.0
 11
4.962457826994501
 21
0.9672391349725
 31
0.0
  0
LINE
  5
AF7
330
1F
100
AcDbEntity
  8
2
  6
CONTINUOUS
370
25
 62
7
100
AcDbLine
 10
4.442747242330269
 20
1.911213788348661
 30
0.0
 11
5.033168505113156
 21
1.320792525565773
 31
0.0
  0
LINE
  5
AF8
330
1F
100
AcDbEntity
  8
2
  6
CONTINUOUS
370
25
 62
7
100
AcDbLine
 10
4.336681225152286
 20
2.441543874238572
 30
0.0
 11
5.103879183231811
 21
1.674345916159047
 31
0.0
  0
LINE
  5
AF9
330
1F
100
AcDbEntity
  8
2
  6
CONTINUOUS
370
25
 62
7
100
AcDbLine
 10
4.230615207974304
 20
2.971873960128483
 30
0.0
 11
5.174589861350466
 21
2.027899306752321
 31
0.0
  0
LINE
  5
AFA
330
1F
100
AcDbEntity
  8
2
  6
CONTINUOUS
370
25
 62
7
100
AcDbLine
 10
4.124549190796323
 20
3.502204046018392
 30
0.0
 11
5.245300539469119
 21
2.381452697345595
 31
0.0
  0
LINE
  5
AFB
330
1F
100
AcDbEntity
  8
2
  6
CONTINUOUS
370
25
 62
7
100
AcDbLine
 10
4.018483173618341
 20
4.032534131908303
 30
0.0
 11
5.316011217587774
 21
2.73500608793887
 31
0.0
  0
LINE
  5
AFC
330
1F
100
AcDbEntity
  8
2
  6
CONTINUOUS
370
25
 62
7
100
AcDbLine
 10
3.912417156440358
 20
4.562864217798213
 30
0.0
 11
5.386721895706429
 21
3.088559478532142
 31
0.0
  0
LINE
  5
AFD
330
1F
100
AcDbEntity
  8
2
  6
CONTINUOUS
370
25
 62
7
100
AcDbLine
 10
3.806351139262376
 20
5.093194303688123
 30
0.0
 11
5.457432573825083
 21
3.442112869125416
 31
0.0
  0
LINE
  5
AFE
330
1F
100
AcDbEntity
  8
2
  6
CONTINUOUS
370
25
 62
7
100
AcDbLine
 10
4.183859511662428
 20
5.139950000000001
 30
0.0
 11
5.52814325194374
 21
3.795666259718689
 31
0.0
  0
LINE
  5
AFF
330
1F
100
AcDbEntity
  8
2
  6
CONTINUOUS
370
25
 62
7
100
AcDbLine
 10
4.608123580374357
 20
5.139950000000001
 30
0.0
 11
5.598853930062394
 21
4.149219650311963
 31
0.0
  0
LINE
  5
B00
330
1F
100
AcDbEntity
  8
2
  6
CONTINUOUS
370
25
 62
7
100
AcDbLine
 10
5.032387649086284
 20
5.139950000000001
 30
0.0
 11
5.669564608181049
 21
4.502773040905236
 31
0.0
  0
LINE
  5
B01
330
1F
100
AcDbEntity
  8
2
  6
CONTINUOUS
370
25
 62
7
100
AcDbLine
 10
5.456651717798212
 20
5.139950000000001
 30
0.0
 11
5.740275286299704
 21
4.856326431498509
 31
0.0
  0
TEXT
  5
B02
330
1F
100
AcDbEntity
  8
2
  6
CONTINUOUS
370
25
 62
7
100
AcDbText
 10
3.297000000000003
 20
11.15661666666667
 30
0.0
 40
3.5
  1
0.28
 50
90.00000000000001
 72
     1
 11
3.297000000000001
 21
16.11495
 31
0.0
100
AcDbText
  0
CIRCLE
  5
B03
330
1F
100
AcDbEntity
  8
2
  6
CONTINUOUS
370
25
 62
7
100
AcDbCircle
 10
1.547000000000001
 20
8.06495
 30
0.0
 40
1.4
  0
LINE
  5
B04
330
1F
100
AcDbEntity
  8
2
  6
CONTINUOUS
370
25
 62
7
100
AcDbLine
 10
2.947000000000001
 20
6.664950000000001
 30
0.0
 11
0.1470000000000009
 21
9.464950000000002
 31
0.0
  0
LINE
  5
B05
330
1F
100
AcDbEntity
  8
2
  6
CONTINUOUS
370
25
 62
7
100
AcDbLine
 10
6.797000000000001
 20
-0.15
 30
0.0
 11
6.796999999999999
 21
-23.15
 31
0.0
  0
LINE
  5
B06
330
1F
100
AcDbEntity
  8
2
  6
CONTINUOUS
370
25
 62
7
100
AcDbLine
 10
6.976999999999999
 20
-23.15
 30
0.0
 11
6.977
 21
-0.0999999999999979
 31
0.0
  0
LINE
  5
B07
330
1F
100
AcDbEntity
  8
2
  6
CONTINUOUS
370
25
 62
7
100
AcDbLine
 10
-0.2030000000000014
 20
-22.15
 30
0.0
 11
25.877
 21
-22.15
 31
0.0
  0
LINE
  5
B08
330
1F
100
AcDbEntity
  8
2
  6
CONTINUOUS
370
25
 62
7
100
AcDbLine
 10
6.796999999999999
 20
-22.15
 30
0.0
 11
1.796999999999999
 21
-23.15
 31
0.0
  0
LINE
  5
B09
330
1F
100
AcDbEntity
  8
2
  6
CONTINUOUS
370
25
 62
7
100
AcDbLine
 10
1.796999999999999
 20
-23.15
 30
0.0
 11
1.796999999999999
 21
-21.15
 31
0.0
  0
LINE
  5
B0A
330
1F
100
AcDbEntity
  8
2
  6
CONTINUOUS
370
25
 62
7
100
AcDbLine
 10
1.796999999999999
 20
-21.15
 30
0.0
 11
6.796999999999999
 21
-22.15
 31
0.0
  0
LINE
  5
B0B
330
1F
100
AcDbEntity
  8
2
  6
CONTINUOUS
370
25
 62
7
100
AcDbLine
 10
6.379526462337684
 20
-22.23349470753246
 30
0.0
 11
6.518684308225121
 21
-22.09433686164502
 31
0.0
  0
LINE
  5
B0C
330
1F
100
AcDbEntity
  8
2
  6
CONTINUOUS
370
25
 62
7
100
AcDbLine
 10
5.849196376447775
 20
-22.33956072471045
 30
0.0
 11
6.165130917631849
 21
-22.02362618352637
 31
0.0
  0
LINE
  5
B0D
330
1F
100
AcDbEntity
  8
2
  6
CONTINUOUS
370
25
 62
7
100
AcDbLine
 10
5.318866290557861
 20
-22.44562674188843
 30
0.0
 11
5.811577527038573
 21
-21.95291550540771
 31
0.0
  0
LINE
  5
B0E
330
1F
100
AcDbEntity
  8
2
  6
CONTINUOUS
370
25
 62
7
100
AcDbLine
 10
4.788536204667951
 20
-22.55169275906641
 30
0.0
 11
5.4580241364453
 21
-21.88220482728906
 31
0.0
  0
LINE
  5
B0F
330
1F
100
AcDbEntity
  8
2
  6
CONTINUOUS
370
25
 62
7
100
AcDbLine
 10
4.258206118778041
 20
-22.65775877624439
 30
0.0
 11
5.104470745852026
 21
-21.8114941491704
 31
0.0
  0
LINE
  5
B10
330
1F
100
AcDbEntity
  8
2
  6
CONTINUOUS
370
25
 62
7
100
AcDbLine
 10
3.727876032888132
 20
-22.76382479342237
 30
0.0
 11
4.750917355258754
 21
-21.74078347105175
 31
0.0
  0
LINE
  5
B11
330
1F
100
AcDbEntity
  8
2
  6
CONTINUOUS
370
25
 62
7
100
AcDbLine
 10
3.197545946998222
 20
-22.86989081060035
 30
0.0
 11
4.397363964665481
 21
-21.67007279293309
 31
0.0
  0
LINE
  5
B12
330
1F
100
AcDbEntity
  8
2
  6
CONTINUOUS
370
25
 62
7
100
AcDbLine
 10
2.667215861108311
 20
-22.97595682777834
 30
0.0
 11
4.043810574072208
 21
-21.59936211481444
 31
0.0
  0
LINE
  5
B13
330
1F
100
AcDbEntity
  8
2
  6
CONTINUOUS
370
25
 62
7
100
AcDbLine
 10
2.136885775218401
 20
-23.08202284495632
 30
0.0
 11
3.690257183478935
 21
-21.52865143669579
 31
0.0
  0
LINE
  5
B14
330
1F
100
AcDbEntity
  8
2
  6
CONTINUOUS
370
25
 62
7
100
AcDbLine
 10
1.796999999999999
 20
-22.99764455146279
 30
0.0
 11
3.336703792885661
 21
-21.45794075857713
 31
0.0
  0
LINE
  5
B15
330
1F
100
AcDbEntity
  8
2
  6
CONTINUOUS
370
25
 62
7
100
AcDbLine
 10
1.796999999999999
 20
-22.57338048275086
 30
0.0
 11
2.983150402292388
 21
-21.38723008045848
 31
0.0
  0
LINE
  5
B16
330
1F
100
AcDbEntity
  8
2
  6
CONTINUOUS
370
25
 62
7
100
AcDbLine
 10
1.796999999999999
 20
-22.14911641403894
 30
0.0
 11
2.629597011699115
 21
-21.31651940233982
 31
0.0
  0
LINE
  5
B17
330
1F
100
AcDbEntity
  8
2
  6
CONTINUOUS
370
25
 62
7
100
AcDbLine
 10
1.796999999999999
 20
-21.72485234532701
 30
0.0
 11
2.276043621105842
 21
-21.24580872422117
 31
0.0
  0
LINE
  5
B18
330
1F
100
AcDbEntity
  8
2
  6
CONTINUOUS
370
25
 62
7
100
AcDbLine
 10
1.796999999999999
 20
-21.30058827661508
 30
0.0
 11
1.922490230512569
 21
-21.17509804610251
 31
0.0
  0
LINE
  5
B19
330
1F
100
AcDbEntity
  8
2
  6
CONTINUOUS
370
25
 62
7
100
AcDbLine
 10
1.796999999999999
 20
-22.96009475024451
 30
0.0
 11
1.955254374796237
 21
-23.11834912504075
 31
0.0
  0
LINE
  5
B1A
330
1F
100
AcDbEntity
  8
2
  6
CONTINUOUS
370
25
 62
7
100
AcDbLine
 10
1.796999999999999
 20
-22.53583068153258
 30
0.0
 11
2.308807765389511
 21
-23.0476384469221
 31
0.0
  0
LINE
  5
B1B
330
1F
100
AcDbEntity
  8
2
  6
CONTINUOUS
370
25
 62
7
100
AcDbLine
 10
1.796999999999999
 20
-22.11156661282066
 30
0.0
 11
2.662361155982784
 21
-22.97692776880344
 31
0.0
  0
LINE
  5
B1C
330
1F
100
AcDbEntity
  8
2
  6
CONTINUOUS
370
25
 62
7
100
AcDbLine
 10
1.796999999999999
 20
-21.68730254410873
 30
0.0
 11
3.015914546576057
 21
-22.90621709068479
 31
0.0
  0
LINE
  5
B1D
330
1F
100
AcDbEntity
  8
2
  6
CONTINUOUS
370
25
 62
7
100
AcDbLine
 10
1.796999999999999
 20
-21.2630384753968
 30
0.0
 11
3.36946793716933
 21
-22.83550641256613
 31
0.0
  0
LINE
  5
B1E
330
1F
100
AcDbEntity
  8
2
  6
CONTINUOUS
370
25
 62
7
100
AcDbLine
 10
2.186031991643904
 20
-21.22780639832878
 30
0.0
 11
3.723021327762604
 21
-22.76479573444748
 31
0.0
  0
LINE
  5
B1F
330
1F
100
AcDbEntity
  8
2
  6
CONTINUOUS
370
25
 62
7
100
AcDbLine
 10
2.716362077533814
 20
-21.33387241550676
 30
0.0
 11
4.076574718355877
 21
-22.69408505632882
 31
0.0
  0
LINE
  5
B20
330
1F
100
AcDbEntity
  8
2
  6
CONTINUOUS
370
25
 62
7
100
AcDbLine
 10
3.246692163423725
 20
-21.43993843268474
 30
0.0
 11
4.430128108949151
 21
-22.62337437821017
 31
0.0
  0
LINE
  5
B21
330
1F
100
AcDbEntity
  8
2
  6
CONTINUOUS
370
25
 62
7
100
AcDbLine
 10
3.777022249313635
 20
-21.54600444986272
 30
0.0
 11
4.783681499542424
 21
-22.55266370009151
 31
0.0
  0
LINE
  5
B22
330
1F
100
AcDbEntity
  8
2
  6
CONTINUOUS
370
25
 62
7
100
AcDbLine
 10
4.307352335203545
 20
-21.65207046704071
 30
0.0
 11
5.137234890135698
 21
-22.48195302197286
 31
0.0
  0
LINE
  5
B23
330
1F
100
AcDbEntity
  8
2
  6
CONTINUOUS
370
25
 62
7
100
AcDbLine
 10
4.837682421093455
 20
-21.75813648421869
 30
0.0
 11
5.490788280728971
 21
-22.41124234385421
 31
0.0
  0
LINE
  5
B24
330
1F
100
AcDbEntity
  8
2
  6
CONTINUOUS
370
25
 62
7
100
AcDbLine
 10
5.368012506983366
 20
-21.86420250139667
 30
0.0
 11
5.844341671322243
 21
-22.34053166573555
 31
0.0
  0
LINE
  5
B25
330
1F
100
AcDbEntity
  8
2
  6
CONTINUOUS
370
25
 62
7
100
AcDbLine
 10
5.898342592873276
 20
-21.97026851857466
 30
0.0
 11
6.197895061915516
 21
-22.2698209876169
 31
0.0
  0
LINE
  5
B26
330
1F
100
AcDbEntity
  8
2
  6
CONTINUOUS
370
25
 62
7
100
AcDbLine
 10
6.428672678763188
 20
-22.07633453575264
 30
0.0
 11
6.551448452508791
 21
-22.19911030949824
 31
0.0
  0
LINE
  5
B27
330
1F
100
AcDbEntity
  8
2
  6
CONTINUOUS
370
25
 62
7
100
AcDbLine
 10
6.976999999999999
 20
-22.15
 30
0.0
 11
11.977
 21
-21.15
 31
0.0
  0
LINE
  5
B28
330
1F
100
AcDbEntity
  8
2
  6
CONTINUOUS
370
25
 62
7
100
AcDbLine
 10
11.977
 20
-21.15
 30
0.0
 11
11.977
 21
-23.15
 31
0.0
  0
LINE
  5
B29
330
1F
100
AcDbEntity
  8
2
  6
CONTINUOUS
370
25
 62
7
100
AcDbLine
 10
11.977
 20
-23.15
 30
0.0
 11
6.976999999999999
 21
-22.15
 31
0.0
  0
LINE
  5
B2A
330
1F
100
AcDbEntity
  8
2
  6
CONTINUOUS
370
25
 62
7
100
AcDbLine
 10
11.6464837356257
 20
-23.08389674712514
 30
0.0
 11
11.977
 21
-22.75338048275083
 31
0.0
  0
LINE
  5
B2B
330
1F
100
AcDbEntity
  8
2
  6
CONTINUOUS
370
25
 62
7
100
AcDbLine
 10
11.29293034503243
 20
-23.01318606900648
 30
0.0
 11
11.977
 21
-22.32911641403891
 31
0.0
  0
LINE
  5
B2C
330
1F
100
AcDbEntity
  8
2
  6
CONTINUOUS
370
25
 62
7
100
AcDbLine
 10
10.93937695443915
 20
-22.94247539088783
 30
0.0
 11
11.977
 21
-21.90485234532698
 31
0.0
  0
LINE
  5
B2D
330
1F
100
AcDbEntity
  8
2
  6
CONTINUOUS
370
25
 62
7
100
AcDbLine
 10
10.58582356384588
 20
-22.87176471276917
 30
0.0
 11
11.977
 21
-21.48058827661505
 31
0.0
  0
LINE
  5
B2E
330
1F
100
AcDbEntity
  8
2
  6
CONTINUOUS
370
25
 62
7
100
AcDbLine
 10
10.2322701732526
 20
-22.80105403465052
 30
0.0
 11
11.8599052598789
 21
-21.17341894802422
 31
0.0
  0
LINE
  5
B2F
330
1F
100
AcDbEntity
  8
2
  6
CONTINUOUS
370
25
 62
7
100
AcDbLine
 10
9.878716782659334
 20
-22.73034335653186
 30
0.0
 11
11.32957517398899
 21
-21.2794849652022
 31
0.0
  0
LINE
  5
B30
330
1F
100
AcDbEntity
  8
2
  6
CONTINUOUS
370
25
 62
7
100
AcDbLine
 10
9.52516339206606
 20
-22.65963267841321
 30
0.0
 11
10.79924508809908
 21
-21.38555098238018
 31
0.0
  0
LINE
  5
B31
330
1F
100
AcDbEntity
  8
2
  6
CONTINUOUS
370
25
 62
7
100
AcDbLine
 10
9.17161000147279
 20
-22.58892200029456
 30
0.0
 11
10.26891500220918
 21
-21.49161699955816
 31
0.0
  0
LINE
  5
B32
330
1F
100
AcDbEntity
  8
2
  6
CONTINUOUS
370
25
 62
7
100
AcDbLine
 10
8.818056610879516
 20
-22.5182113221759
 30
0.0
 11
9.73858491631927
 21
-21.59768301673615
 31
0.0
  0
LINE
  5
B33
330
1F
100
AcDbEntity
  8
2
  6
CONTINUOUS
370
25
 62
7
100
AcDbLine
 10
8.464503220286243
 20
-22.44750064405725
 30
0.0
 11
9.208254830429361
 21
-21.70374903391413
 31
0.0
  0
LINE
  5
B34
330
1F
100
AcDbEntity
  8
2
  6
CONTINUOUS
370
25
 62
7
100
AcDbLine
 10
8.11094982969297
 20
-22.37678996593859
 30
0.0
 11
8.677924744539451
 21
-21.80981505109211
 31
0.0
  0
LINE
  5
B35
330
1F
100
AcDbEntity
  8
2
  6
CONTINUOUS
370
25
 62
7
100
AcDbLine
 10
7.757396439099698
 20
-22.30607928781994
 30
0.0
 11
8.147594658649542
 21
-21.91588106827009
 31
0.0
  0
LINE
  5
B36
330
1F
100
AcDbEntity
  8
2
  6
CONTINUOUS
370
25
 62
7
100
AcDbLine
 10
7.403843048506425
 20
-22.23536860970128
 30
0.0
 11
7.617264572759633
 21
-22.02194708544807
 31
0.0
  0
LINE
  5
B37
330
1F
100
AcDbEntity
  8
2
  6
CONTINUOUS
370
25
 62
7
100
AcDbLine
 10
7.05028965791315
 20
-22.16465793158263
 30
0.0
 11
7.086934486869722
 21
-22.12801310262606
 31
0.0
  0
LINE
  5
B38
330
1F
100
AcDbEntity
  8
2
  6
CONTINUOUS
370
25
 62
7
100
AcDbLine
 10
7.08305380219683
 20
-22.12878923956063
 30
0.0
 11
7.136080703295244
 21
-22.18181614065904
 31
0.0
  0
LINE
  5
B39
330
1F
100
AcDbEntity
  8
2
  6
CONTINUOUS
370
25
 62
7
100
AcDbLine
 10
7.436607192790104
 20
-22.05807856144198
 30
0.0
 11
7.666410789185155
 21
-22.28788215783703
 31
0.0
  0
LINE
  5
B3A
330
1F
100
AcDbEntity
  8
2
  6
CONTINUOUS
370
25
 62
7
100
AcDbLine
 10
7.790160583383377
 20
-21.98736788332332
 30
0.0
 11
8.196740875075065
 21
-22.39394817501501
 31
0.0
  0
LINE
  5
B3B
330
1F
100
AcDbEntity
  8
2
  6
CONTINUOUS
370
25
 62
7
100
AcDbLine
 10
8.14371397397665
 20
-21.91665720520467
 30
0.0
 11
8.727070960964975
 21
-22.50001419219299
 31
0.0
  0
LINE
  5
B3C
330
1F
100
AcDbEntity
  8
2
  6
CONTINUOUS
370
25
 62
7
100
AcDbLine
 10
8.497267364569923
 20
-21.84594652708601
 30
0.0
 11
9.257401046854886
 21
-22.60608020937098
 31
0.0
  0
LINE
  5
B3D
330
1F
100
AcDbEntity
  8
2
  6
CONTINUOUS
370
25
 62
7
100
AcDbLine
 10
8.850820755163197
 20
-21.77523584896736
 30
0.0
 11
9.787731132744796
 21
-22.71214622654896
 31
0.0
  0
LINE
  5
B3E
330
1F
100
AcDbEntity
  8
2
  6
CONTINUOUS
370
25
 62
7
100
AcDbLine
 10
9.20437414575647
 20
-21.7045251708487
 30
0.0
 11
10.31806121863471
 21
-22.81821224372694
 31
0.0
  0
LINE
  5
B3F
330
1F
100
AcDbEntity
  8
2
  6
CONTINUOUS
370
25
 62
7
100
AcDbLine
 10
9.557927536349743
 20
-21.63381449273005
 30
0.0
 11
10.84839130452461
 21
-22.92427826090492
 31
0.0
  0
LINE
  5
B40
330
1F
100
AcDbEntity
  8
2
  6
CONTINUOUS
370
25
 62
7
100
AcDbLine
 10
9.911480926943016
 20
-21.5631038146114
 30
0.0
 11
11.37872139041452
 21
-23.0303442780829
 31
0.0
  0
LINE
  5
B41
330
1F
100
AcDbEntity
  8
2
  6
CONTINUOUS
370
25
 62
7
100
AcDbLine
 10
10.26503431753629
 20
-21.49239313649274
 30
0.0
 11
11.90905147630443
 21
-23.13641029526089
 31
0.0
  0
LINE
  5
B42
330
1F
100
AcDbEntity
  8
2
  6
CONTINUOUS
370
25
 62
7
100
AcDbLine
 10
10.61858770812956
 20
-21.42168245837409
 30
0.0
 11
11.977
 21
-22.78009475024452
 31
0.0
  0
LINE
  5
B43
330
1F
100
AcDbEntity
  8
2
  6
CONTINUOUS
370
25
 62
7
100
AcDbLine
 10
10.97214109872283
 20
-21.35097178025543
 30
0.0
 11
11.977
 21
-22.35583068153259
 31
0.0
  0
LINE
  5
B44
330
1F
100
AcDbEntity
  8
2
  6
CONTINUOUS
370
25
 62
7
100
AcDbLine
 10
11.32569448931611
 20
-21.28026110213678
 30
0.0
 11
11.977
 21
-21.93156661282067
 31
0.0
  0
LINE
  5
B45
330
1F
100
AcDbEntity
  8
2
  6
CONTINUOUS
370
25
 62
7
100
AcDbLine
 10
11.67924787990938
 20
-21.20955042401813
 30
0.0
 11
11.977
 21
-21.50730254410874
 31
0.0
  0
TEXT
  5
B46
330
1F
100
AcDbEntity
  8
2
  6
CONTINUOUS
370
25
 62
7
100
AcDbText
 10
14.552
 20
-20.65
 30
0.0
 40
3.5
  1
0.18
 72
     1
 11
18.927
 21
-20.65
 31
0.0
100
AcDbText
  0
LINE
  5
B47
330
1F
100
AcDbEntity
  8
2
  6
CONTINUOUS
370
25
 62
7
100
AcDbLine
 10
-0.01
 20
1.99995
 30
0.0
 11
-0.0099999999999984
 21
28.39995
 31
0.0
  0
LINE
  5
B48
330
1F
100
AcDbEntity
  8
2
  6
CONTINUOUS
370
25
 62
7
100
AcDbLine
 10
6.977000000000002
 20
28.39995
 30
0.0
 11
6.977
 21
0.0999999999999979
 31
0.0
  0
LINE
  5
B49
330
1F
100
AcDbEntity
  8
2
  6
CONTINUOUS
370
25
 62
7
100
AcDbLine
 10
-7.01
 20
27.39995
 30
0.0
 11
28.852
 21
27.39995
 31
0.0
  0
LINE
  5
B4A
330
1F
100
AcDbEntity
  8
2
  6
CONTINUOUS
370
25
 62
7
100
AcDbLine
 10
-0.01
 20
27.39995
 30
0.0
 11
-5.01
 21
26.39995
 31
0.0
  0
LINE
  5
B4B
330
1F
100
AcDbEntity
  8
2
  6
CONTINUOUS
370
25
 62
7
100
AcDbLine
 10
-5.01
 20
26.39995
 30
0.0
 11
-5.01
 21
28.39995
 31
0.0
  0
LINE
  5
B4C
330
1F
100
AcDbEntity
  8
2
  6
CONTINUOUS
370
25
 62
7
100
AcDbLine
 10
-5.01
 20
28.39995
 30
0.0
 11
-0.01
 21
27.39995
 31
0.0
  0
LINE
  5
B4D
330
1F
100
AcDbEntity
  8
2
  6
CONTINUOUS
370
25
 62
7
100
AcDbLine
 10
-0.2315180828441588
 20
27.35564638343116
 30
0.0
 11
-0.1576787218961058
 21
27.42948574437922
 31
0.0
  0
LINE
  5
B4E
330
1F
100
AcDbEntity
  8
2
  6
CONTINUOUS
370
25
 62
7
100
AcDbLine
 10
-0.7618481687340726
 20
27.24958036625318
 30
0.0
 11
-0.5112321124893818
 21
27.50019642249787
 31
0.0
  0
LINE
  5
B4F
330
1F
100
AcDbEntity
  8
2
  6
CONTINUOUS
370
25
 62
7
100
AcDbLine
 10
-1.292178254623982
 20
27.1435143490752
 30
0.0
 11
-0.8647855030826548
 21
27.57090710061653
 31
0.0
  0
LINE
  5
B50
330
1F
100
AcDbEntity
  8
2
  6
CONTINUOUS
370
25
 62
7
100
AcDbLine
 10
-1.822508340513891
 20
27.03744833189722
 30
0.0
 11
-1.218338893675928
 21
27.64161777873518
 31
0.0
  0
LINE
  5
B51
330
1F
100
AcDbEntity
  8
2
  6
CONTINUOUS
370
25
 62
7
100
AcDbLine
 10
-2.3528384264038
 20
26.93138231471924
 30
0.0
 11
-1.5718922842692
 21
27.71232845685384
 31
0.0
  0
LINE
  5
B52
330
1F
100
AcDbEntity
  8
2
  6
CONTINUOUS
370
25
 62
7
100
AcDbLine
 10
-2.883168512293709
 20
26.82531629754126
 30
0.0
 11
-1.925445674862474
 21
27.78303913497249
 31
0.0
  0
LINE
  5
B53
330
1F
100
AcDbEntity
  8
2
  6
CONTINUOUS
370
25
 62
7
100
AcDbLine
 10
-3.413498598183618
 20
26.71925028036327
 30
0.0
 11
-2.278999065455746
 21
27.85374981309115
 31
0.0
  0
LINE
  5
B54
330
1F
100
AcDbEntity
  8
2
  6
CONTINUOUS
370
25
 62
7
100
AcDbLine
 10
-3.943828684073527
 20
26.61318426318529
 30
0.0
 11
-2.632552456049019
 21
27.9244604912098
 31
0.0
  0
LINE
  5
B55
330
1F
100
AcDbEntity
  8
2
  6
CONTINUOUS
370
25
 62
7
100
AcDbLine
 10
-4.474158769963442
 20
26.50711824600731
 30
0.0
 11
-2.986105846642297
 21
27.99517116932846
 31
0.0
  0
LINE
  5
B56
330
1F
100
AcDbEntity
  8
2
  6
CONTINUOUS
370
25
 62
7
100
AcDbLine
 10
-5.004488855853351
 20
26.40105222882933
 30
0.0
 11
-3.33965923723557
 21
28.06588184744711
 31
0.0
  0
LINE
  5
B57
330
1F
100
AcDbEntity
  8
2
  6
CONTINUOUS
370
25
 62
7
100
AcDbLine
 10
-5.01
 20
26.81980515339461
 30
0.0
 11
-3.693212627828844
 21
28.13659252556577
 31
0.0
  0
LINE
  5
B58
330
1F
100
AcDbEntity
  8
2
  6
CONTINUOUS
370
25
 62
7
100
AcDbLine
 10
-5.01
 20
27.24406922210653
 30
0.0
 11
-4.046766018422116
 21
28.20730320368442
 31
0.0
  0
LINE
  5
B59
330
1F
100
AcDbEntity
  8
2
  6
CONTINUOUS
370
25
 62
7
100
AcDbLine
 10
-5.01
 20
27.66833329081847
 30
0.0
 11
-4.400319409015392
 21
28.27801388180308
 31
0.0
  0
LINE
  5
B5A
330
1F
100
AcDbEntity
  8
2
  6
CONTINUOUS
370
25
 62
7
100
AcDbLine
 10
-5.01
 20
28.0925973595304
 30
0.0
 11
-4.753872799608668
 21
28.34872455992173
 31
0.0
  0
LINE
  5
B5B
330
1F
100
AcDbEntity
  8
2
  6
CONTINUOUS
370
25
 62
7
100
AcDbLine
 10
-5.01
 20
26.63746750430832
 30
0.0
 11
-4.812068746409735
 21
26.43953625071805
 31
0.0
  0
LINE
  5
B5C
330
1F
100
AcDbEntity
  8
2
  6
CONTINUOUS
370
25
 62
7
100
AcDbLine
 10
-5.01
 20
27.06173157302024
 30
0.0
 11
-4.458515355816465
 21
26.5102469288367
 31
0.0
  0
LINE
  5
B5D
330
1F
100
AcDbEntity
  8
2
  6
CONTINUOUS
370
25
 62
7
100
AcDbLine
 10
-5.01
 20
27.48599564173217
 30
0.0
 11
-4.104961965223191
 21
26.58095760695536
 31
0.0
  0
LINE
  5
B5E
330
1F
100
AcDbEntity
  8
2
  6
CONTINUOUS
370
25
 62
7
100
AcDbLine
 10
-5.01
 20
27.91025971044409
 30
0.0
 11
-3.751408574629918
 21
26.65166828507401
 31
0.0
  0
LINE
  5
B5F
330
1F
100
AcDbEntity
  8
2
  6
CONTINUOUS
370
25
 62
7
100
AcDbLine
 10
-5.01
 20
28.33452377915602
 30
0.0
 11
-3.397855184036642
 21
26.72237896319267
 31
0.0
  0
LINE
  5
B60
330
1F
100
AcDbEntity
  8
2
  6
CONTINUOUS
370
25
 62
7
100
AcDbLine
 10
-4.561452690165055
 20
28.31024053803301
 30
0.0
 11
-3.044301793443368
 21
26.79308964131132
 31
0.0
  0
LINE
  5
B61
330
1F
100
AcDbEntity
  8
2
  6
CONTINUOUS
370
25
 62
7
100
AcDbLine
 10
-4.031122604275144
 20
28.20417452085503
 30
0.0
 11
-2.690748402850094
 21
26.86380031942998
 31
0.0
  0
LINE
  5
B62
330
1F
100
AcDbEntity
  8
2
  6
CONTINUOUS
370
25
 62
7
100
AcDbLine
 10
-3.500792518385234
 20
28.09810850367704
 30
0.0
 11
-2.337195012256821
 21
26.93451099754863
 31
0.0
  0
LINE
  5
B63
330
1F
100
AcDbEntity
  8
2
  6
CONTINUOUS
370
25
 62
7
100
AcDbLine
 10
-2.970462432495327
 20
27.99204248649906
 30
0.0
 11
-1.98364162166355
 21
27.00522167566729
 31
0.0
  0
LINE
  5
B64
330
1F
100
AcDbEntity
  8
2
  6
CONTINUOUS
370
25
 62
7
100
AcDbLine
 10
-2.440132346605411
 20
27.88597646932108
 30
0.0
 11
-1.630088231070274
 21
27.07593235378594
 31
0.0
  0
LINE
  5
B65
330
1F
100
AcDbEntity
  8
2
  6
CONTINUOUS
370
25
 62
7
100
AcDbLine
 10
-1.9098022607155
 20
27.7799104521431
 30
0.0
 11
-1.276534840476999
 21
27.1466430319046
 31
0.0
  0
LINE
  5
B66
330
1F
100
AcDbEntity
  8
2
  6
CONTINUOUS
370
25
 62
7
100
AcDbLine
 10
-1.379472174825585
 20
27.67384443496512
 30
0.0
 11
-0.9229814498837228
 21
27.21735371002325
 31
0.0
  0
LINE
  5
B67
330
1F
100
AcDbEntity
  8
2
  6
CONTINUOUS
370
25
 62
7
100
AcDbLine
 10
-0.8491420889356742
 20
27.56777841778713
 30
0.0
 11
-0.5694280592904493
 21
27.28806438814191
 31
0.0
  0
LINE
  5
B68
330
1F
100
AcDbEntity
  8
2
  6
CONTINUOUS
370
25
 62
7
100
AcDbLine
 10
-0.3188120030457642
 20
27.46171240060915
 30
0.0
 11
-0.2158746686971761
 21
27.35877506626056
 31
0.0
  0
LINE
  5
B69
330
1F
100
AcDbEntity
  8
2
  6
CONTINUOUS
370
25
 62
7
100
AcDbLine
 10
6.977000000000002
 20
27.39995
 30
0.0
 11
11.977
 21
28.39995
 31
0.0
  0
LINE
  5
B6A
330
1F
100
AcDbEntity
  8
2
  6
CONTINUOUS
370
25
 62
7
100
AcDbLine
 10
11.977
 20
28.39995
 30
0.0
 11
11.977
 21
26.39995
 31
0.0
  0
LINE
  5
B6B
330
1F
100
AcDbEntity
  8
2
  6
CONTINUOUS
370
25
 62
7
100
AcDbLine
 10
11.977
 20
26.39995
 30
0.0
 11
6.977000000000002
 21
27.39995
 31
0.0
  0
LINE
  5
B6C
330
1F
100
AcDbEntity
  8
2
  6
CONTINUOUS
370
25
 62
7
100
AcDbLine
 10
11.9669763864954
 20
26.40195472270092
 30
0.0
 11
11.977
 21
26.41197833620552
 31
0.0
  0
LINE
  5
B6D
330
1F
100
AcDbEntity
  8
2
  6
CONTINUOUS
370
25
 62
7
100
AcDbLine
 10
11.61342299590213
 20
26.47266540081957
 30
0.0
 11
11.977
 21
26.83624240491745
 31
0.0
  0
LINE
  5
B6E
330
1F
100
AcDbEntity
  8
2
  6
CONTINUOUS
370
25
 62
7
100
AcDbLine
 10
11.25986960530885
 20
26.54337607893823
 30
0.0
 11
11.977
 21
27.26050647362938
 31
0.0
  0
LINE
  5
B6F
330
1F
100
AcDbEntity
  8
2
  6
CONTINUOUS
370
25
 62
7
100
AcDbLine
 10
10.90631621471558
 20
26.61408675705688
 30
0.0
 11
11.977
 21
27.6847705423413
 31
0.0
  0
LINE
  5
B70
330
1F
100
AcDbEntity
  8
2
  6
CONTINUOUS
370
25
 62
7
100
AcDbLine
 10
10.55276282412231
 20
26.68479743517554
 30
0.0
 11
11.977
 21
28.10903461105323
 31
0.0
  0
LINE
  5
B71
330
1F
100
AcDbEntity
  8
2
  6
CONTINUOUS
370
25
 62
7
100
AcDbLine
 10
10.19920943352903
 20
26.75550811329419
 30
0.0
 11
11.81031415029355
 21
28.36661283005871
 31
0.0
  0
LINE
  5
B72
330
1F
100
AcDbEntity
  8
2
  6
CONTINUOUS
370
25
 62
7
100
AcDbLine
 10
9.845656042935762
 20
26.82621879141285
 30
0.0
 11
11.27998406440364
 21
28.26054681288072
 31
0.0
  0
LINE
  5
B73
330
1F
100
AcDbEntity
  8
2
  6
CONTINUOUS
370
25
 62
7
100
AcDbLine
 10
9.492102652342489
 20
26.8969294695315
 30
0.0
 11
10.74965397851373
 21
28.15448079570274
 31
0.0
  0
LINE
  5
B74
330
1F
100
AcDbEntity
  8
2
  6
CONTINUOUS
370
25
 62
7
100
AcDbLine
 10
9.138549261749215
 20
26.96764014765016
 30
0.0
 11
10.21932389262382
 21
28.04841477852476
 31
0.0
  0
LINE
  5
B75
330
1F
100
AcDbEntity
  8
2
  6
CONTINUOUS
370
25
 62
7
100
AcDbLine
 10
8.784995871155939
 20
27.03835082576881
 30
0.0
 11
9.688993806733903
 21
27.94234876134677
 31
0.0
  0
LINE
  5
B76
330
1F
100
AcDbEntity
  8
2
  6
CONTINUOUS
370
25
 62
7
100
AcDbLine
 10
8.431442480562668
 20
27.10906150388747
 30
0.0
 11
9.158663720843995
 21
27.83628274416879
 31
0.0
  0
LINE
  5
B77
330
1F
100
AcDbEntity
  8
2
  6
CONTINUOUS
370
25
 62
7
100
AcDbLine
 10
8.077889089969391
 20
27.17977218200612
 30
0.0
 11
8.628333634954082
 21
27.73021672699081
 31
0.0
  0
LINE
  5
B78
330
1F
100
AcDbEntity
  8
2
  6
CONTINUOUS
370
25
 62
7
100
AcDbLine
 10
7.724335699376118
 20
27.25048286012478
 30
0.0
 11
8.098003549064172
 21
27.62415070981283
 31
0.0
  0
LINE
  5
B79
330
1F
100
AcDbEntity
  8
2
  6
CONTINUOUS
370
25
 62
7
100
AcDbLine
 10
7.370782308782843
 20
27.32119353824343
 30
0.0
 11
7.56767346317426
 21
27.51808469263485
 31
0.0
  0
LINE
  5
B7A
330
1F
100
AcDbEntity
  8
2
  6
CONTINUOUS
370
25
 62
7
100
AcDbLine
 10
7.017228918189569
 20
27.39190421636209
 30
0.0
 11
7.03734337728435
 21
27.41201867545687
 31
0.0
  0
LINE
  5
B7B
330
1F
100
AcDbEntity
  8
2
  6
CONTINUOUS
370
25
 62
7
100
AcDbLine
 10
7.312586361981758
 20
27.46706727239635
 30
0.0
 11
7.480379542972635
 21
27.29927409140547
 31
0.0
  0
LINE
  5
B7C
330
1F
100
AcDbEntity
  8
2
  6
CONTINUOUS
370
25
 62
7
100
AcDbLine
 10
7.666139752575031
 20
27.537777950515
 30
0.0
 11
8.010709628862546
 21
27.19320807422749
 31
0.0
  0
LINE
  5
B7D
330
1F
100
AcDbEntity
  8
2
  6
CONTINUOUS
370
25
 62
7
100
AcDbLine
 10
8.019693143168304
 20
27.60848862863366
 30
0.0
 11
8.541039714752456
 21
27.0871420570495
 31
0.0
  0
LINE
  5
B7E
330
1F
100
AcDbEntity
  8
2
  6
CONTINUOUS
370
25
 62
7
100
AcDbLine
 10
8.373246533761577
 20
27.67919930675231
 30
0.0
 11
9.071369800642366
 21
26.98107603987152
 31
0.0
  0
LINE
  5
B7F
330
1F
100
AcDbEntity
  8
2
  6
CONTINUOUS
370
25
 62
7
100
AcDbLine
 10
8.72679992435485
 20
27.74990998487097
 30
0.0
 11
9.601699886532277
 21
26.87501002269354
 31
0.0
  0
LINE
  5
B80
330
1F
100
AcDbEntity
  8
2
  6
CONTINUOUS
370
25
 62
7
100
AcDbLine
 10
9.080353314948125
 20
27.82062066298962
 30
0.0
 11
10.13202997242219
 21
26.76894400551556
 31
0.0
  0
LINE
  5
B81
330
1F
100
AcDbEntity
  8
2
  6
CONTINUOUS
370
25
 62
7
100
AcDbLine
 10
9.4339067055414
 20
27.89133134110828
 30
0.0
 11
10.6623600583121
 21
26.66287798833758
 31
0.0
  0
LINE
  5
B82
330
1F
100
AcDbEntity
  8
2
  6
CONTINUOUS
370
25
 62
7
100
AcDbLine
 10
9.787460096134678
 20
27.96204201922693
 30
0.0
 11
11.19269014420201
 21
26.5568119711596
 31
0.0
  0
LINE
  5
B83
330
1F
100
AcDbEntity
  8
2
  6
CONTINUOUS
370
25
 62
7
100
AcDbLine
 10
10.14101348672795
 20
28.03275269734559
 30
0.0
 11
11.72302023009192
 21
26.45074595398162
 31
0.0
  0
LINE
  5
B84
330
1F
100
AcDbEntity
  8
2
  6
CONTINUOUS
370
25
 62
7
100
AcDbLine
 10
10.49456687732122
 20
28.10346337546424
 30
0.0
 11
11.977
 21
26.62103025278546
 31
0.0
  0
LINE
  5
B85
330
1F
100
AcDbEntity
  8
2
  6
CONTINUOUS
370
25
 62
7
100
AcDbLine
 10
10.8481202679145
 20
28.1741740535829
 30
0.0
 11
11.977
 21
27.04529432149739
 31
0.0
  0
LINE
  5
B86
330
1F
100
AcDbEntity
  8
2
  6
CONTINUOUS
370
25
 62
7
100
AcDbLine
 10
11.20167365850777
 20
28.24488473170155
 30
0.0
 11
11.977
 21
27.46955839020932
 31
0.0
  0
LINE
  5
B87
330
1F
100
AcDbEntity
  8
2
  6
CONTINUOUS
370
25
 62
7
100
AcDbLine
 10
11.55522704910105
 20
28.3155954098202
 30
0.0
 11
11.977
 21
27.89382245892125
 31
0.0
  0
LINE
  5
B88
330
1F
100
AcDbEntity
  8
2
  6
CONTINUOUS
370
25
 62
7
100
AcDbLine
 10
11.90878043969432
 20
28.38630608793886
 30
0.0
 11
11.977
 21
28.31808652763318
 31
0.0
  0
TEXT
  5
B89
330
1F
100
AcDbEntity
  8
2
  6
CONTINUOUS
370
25
 62
7
100
AcDbText
 10
13.4145
 20
28.89995
 30
0.0
 40
3.5
  1
6.987
 72
     1
 11
20.4145
 21
28.89995
 31
0.0
100
AcDbText
  0
LINE
  5
B8A
330
1F
100
AcDbEntity
  8
SK2
  6
CONTINUOUS
370
25
 62
7
100
AcDbLine
 10
-43.023
 20
-0.0000500000000001
 30
0.0
 11
-43.023
 21
38.39995
 31
0.0
  0
LINE
  5
B8B
330
1F
100
AcDbEntity
  8
SK2
  6
CONTINUOUS
370
25
 62
7
100
AcDbLine
 10
6.977000000000002
 20
38.39995
 30
0.0
 11
6.976999999999999
 21
0.1000000000000014
 31
0.0
  0
LINE
  5
B8C
330
1F
100
AcDbEntity
  8
SK2
  6
CONTINUOUS
370
25
 62
7
100
AcDbLine
 10
-43.023
 20
37.39995
 30
0.0
 11
6.977000000000002
 21
37.39995
 31
0.0
  0
LINE
  5
B8D
330
1F
100
AcDbEntity
  8
SK2
  6
CONTINUOUS
370
25
 62
7
100
AcDbLine
 10
-43.023
 20
37.39995
 30
0.0
 11
-38.023
 21
38.39995
 31
0.0
  0
LINE
  5
B8E
330
1F
100
AcDbEntity
  8
SK2
  6
CONTINUOUS
370
25
 62
7
100
AcDbLine
 10
-38.023
 20
38.39995
 30
0.0
 11
-38.023
 21
36.39995
 31
0.0
  0
LINE
  5
B8F
330
1F
100
AcDbEntity
  8
SK2
  6
CONTINUOUS
370
25
 62
7
100
AcDbLine
 10
-38.023
 20
36.39995
 30
0.0
 11
-43.023
 21
37.39995
 31
0.0
  0
LINE
  5
B90
330
1F
100
AcDbEntity
  8
SK2
  6
CONTINUOUS
370
25
 62
7
100
AcDbLine
 10
-38.23760507774954
 20
36.4428710155499
 30
0.0
 11
-38.023
 21
36.65747609329944
 31
0.0
  0
LINE
  5
B91
330
1F
100
AcDbEntity
  8
SK2
  6
CONTINUOUS
370
25
 62
7
100
AcDbLine
 10
-38.59115846834282
 20
36.51358169366856
 30
0.0
 11
-38.023
 21
37.08174016201138
 31
0.0
  0
LINE
  5
B92
330
1F
100
AcDbEntity
  8
SK2
  6
CONTINUOUS
370
25
 62
7
100
AcDbLine
 10
-38.94471185893609
 20
36.58429237178721
 30
0.0
 11
-38.023
 21
37.50600423072331
 31
0.0
  0
LINE
  5
B93
330
1F
100
AcDbEntity
  8
SK2
  6
CONTINUOUS
370
25
 62
7
100
AcDbLine
 10
-39.29826524952936
 20
36.65500304990586
 30
0.0
 11
-38.023
 21
37.93026829943523
 31
0.0
  0
LINE
  5
B94
330
1F
100
AcDbEntity
  8
SK2
  6
CONTINUOUS
370
25
 62
7
100
AcDbLine
 10
-39.65181864012266
 20
36.72571372802452
 30
0.0
 11
-38.023
 21
38.35453236814718
 31
0.0
  0
LINE
  5
B95
330
1F
100
AcDbEntity
  8
SK2
  6
CONTINUOUS
370
25
 62
7
100
AcDbLine
 10
-40.00537203071592
 20
36.79642440614318
 30
0.0
 11
-38.49655804607387
 21
38.30523839078523
 31
0.0
  0
LINE
  5
B96
330
1F
100
AcDbEntity
  8
SK2
  6
CONTINUOUS
370
25
 62
7
100
AcDbLine
 10
-40.35892542130921
 20
36.86713508426183
 30
0.0
 11
-39.02688813196381
 21
38.19917237360724
 31
0.0
  0
LINE
  5
B97
330
1F
100
AcDbEntity
  8
SK2
  6
CONTINUOUS
370
25
 62
7
100
AcDbLine
 10
-40.71247881190248
 20
36.93784576238048
 30
0.0
 11
-39.55721821785371
 21
38.09310635642926
 31
0.0
  0
LINE
  5
B98
330
1F
100
AcDbEntity
  8
SK2
  6
CONTINUOUS
370
25
 62
7
100
AcDbLine
 10
-41.06603220249577
 20
37.00855644049914
 30
0.0
 11
-40.08754830374365
 21
37.98704033925127
 31
0.0
  0
LINE
  5
B99
330
1F
100
AcDbEntity
  8
SK2
  6
CONTINUOUS
370
25
 62
7
100
AcDbLine
 10
-41.41958559308903
 20
37.0792671186178
 30
0.0
 11
-40.61787838963354
 21
37.88097432207329
 31
0.0
  0
LINE
  5
B9A
330
1F
100
AcDbEntity
  8
SK2
  6
CONTINUOUS
370
25
 62
7
100
AcDbLine
 10
-41.77313898368232
 20
37.14997779673646
 30
0.0
 11
-41.14820847552348
 21
37.77490830489531
 31
0.0
  0
LINE
  5
B9B
330
1F
100
AcDbEntity
  8
SK2
  6
CONTINUOUS
370
25
 62
7
100
AcDbLine
 10
-42.12669237427559
 20
37.22068847485511
 30
0.0
 11
-41.67853856141338
 21
37.66884228771733
 31
0.0
  0
LINE
  5
B9C
330
1F
100
AcDbEntity
  8
SK2
  6
CONTINUOUS
370
25
 62
7
100
AcDbLine
 10
-42.48024576486888
 20
37.29139915297377
 30
0.0
 11
-42.20886864730331
 21
37.56277627053934
 31
0.0
  0
LINE
  5
B9D
330
1F
100
AcDbEntity
  8
SK2
  6
CONTINUOUS
370
25
 62
7
100
AcDbLine
 10
-42.83379915546215
 20
37.36210983109243
 30
0.0
 11
-42.73919873319321
 21
37.45671025336136
 31
0.0
  0
LINE
  5
B9E
330
1F
100
AcDbEntity
  8
SK2
  6
CONTINUOUS
370
25
 62
7
100
AcDbLine
 10
-42.73682912418846
 20
37.45718417516231
 30
0.0
 11
-42.59374368628269
 21
37.31409873725654
 31
0.0
  0
LINE
  5
B9F
330
1F
100
AcDbEntity
  8
SK2
  6
CONTINUOUS
370
25
 62
7
100
AcDbLine
 10
-42.38327573359518
 20
37.52789485328097
 30
0.0
 11
-42.06341360039276
 21
37.20803272007855
 31
0.0
  0
LINE
  5
BA0
330
1F
100
AcDbEntity
  8
SK2
  6
CONTINUOUS
370
25
 62
7
100
AcDbLine
 10
-42.02972234300191
 20
37.59860553139962
 30
0.0
 11
-41.53308351450286
 21
37.10196670290057
 31
0.0
  0
LINE
  5
BA1
330
1F
100
AcDbEntity
  8
SK2
  6
CONTINUOUS
370
25
 62
7
100
AcDbLine
 10
-41.67616895240862
 20
37.66931620951827
 30
0.0
 11
-41.00275342861294
 21
36.99590068572259
 31
0.0
  0
LINE
  5
BA2
330
1F
100
AcDbEntity
  8
SK2
  6
CONTINUOUS
370
25
 62
7
100
AcDbLine
 10
-41.32261556181535
 20
37.74002688763693
 30
0.0
 11
-40.47242334272303
 21
36.88983466854461
 31
0.0
  0
LINE
  5
BA3
330
1F
100
AcDbEntity
  8
SK2
  6
CONTINUOUS
370
25
 62
7
100
AcDbLine
 10
-40.96906217122207
 20
37.81073756575559
 30
0.0
 11
-39.9420932568331
 21
36.78376865136662
 31
0.0
  0
LINE
  5
BA4
330
1F
100
AcDbEntity
  8
SK2
  6
CONTINUOUS
370
25
 62
7
100
AcDbLine
 10
-40.61550878062879
 20
37.88144824387425
 30
0.0
 11
-39.41176317094318
 21
36.67770263418863
 31
0.0
  0
LINE
  5
BA5
330
1F
100
AcDbEntity
  8
SK2
  6
CONTINUOUS
370
25
 62
7
100
AcDbLine
 10
-40.26195539003551
 20
37.9521589219929
 30
0.0
 11
-38.88143308505327
 21
36.57163661701065
 31
0.0
  0
LINE
  5
BA6
330
1F
100
AcDbEntity
  8
SK2
  6
CONTINUOUS
370
25
 62
7
100
AcDbLine
 10
-39.90840199944223
 20
38.02286960011156
 30
0.0
 11
-38.35110299916335
 21
36.46557059983267
 31
0.0
  0
LINE
  5
BA7
330
1F
100
AcDbEntity
  8
SK2
  6
CONTINUOUS
370
25
 62
7
100
AcDbLine
 10
-39.55484860884896
 20
38.09358027823021
 30
0.0
 11
-38.023
 21
36.56173166938125
 31
0.0
  0
LINE
  5
BA8
330
1F
100
AcDbEntity
  8
SK2
  6
CONTINUOUS
370
25
 62
7
100
AcDbLine
 10
-39.20129521825568
 20
38.16429095634887
 30
0.0
 11
-38.023
 21
36.98599573809318
 31
0.0
  0
LINE
  5
BA9
330
1F
100
AcDbEntity
  8
SK2
  6
CONTINUOUS
370
25
 62
7
100
AcDbLine
 10
-38.8477418276624
 20
38.23500163446752
 30
0.0
 11
-38.023
 21
37.41025980680512
 31
0.0
  0
LINE
  5
BAA
330
1F
100
AcDbEntity
  8
SK2
  6
CONTINUOUS
370
25
 62
7
100
AcDbLine
 10
-38.49418843706912
 20
38.30571231258617
 30
0.0
 11
-38.023
 21
37.83452387551705
 31
0.0
  0
LINE
  5
BAB
330
1F
100
AcDbEntity
  8
SK2
  6
CONTINUOUS
370
25
 62
7
100
AcDbLine
 10
-38.14063504647584
 20
38.37642299070483
 30
0.0
 11
-38.023
 21
38.25878794422898
 31
0.0
  0
LINE
  5
BAC
330
1F
100
AcDbEntity
  8
SK2
  6
CONTINUOUS
370
25
 62
7
100
AcDbLine
 10
6.977000000000002
 20
37.39995
 30
0.0
 11
1.977000000000002
 21
36.39995
 31
0.0
  0
LINE
  5
BAD
330
1F
100
AcDbEntity
  8
SK2
  6
CONTINUOUS
370
25
 62
7
100
AcDbLine
 10
1.977000000000002
 20
36.39995
 30
0.0
 11
1.977000000000002
 21
38.39995
 31
0.0
  0
LINE
  5
BAE
330
1F
100
AcDbEntity
  8
SK2
  6
CONTINUOUS
370
25
 62
7
100
AcDbLine
 10
1.977000000000002
 20
38.39995
 30
0.0
 11
6.977000000000002
 21
37.39995
 31
0.0
  0
LINE
  5
BAF
330
1F
100
AcDbEntity
  8
SK2
  6
CONTINUOUS
370
25
 62
7
100
AcDbLine
 10
6.809421315926489
 20
37.3664342631853
 30
0.0
 11
6.865280877284322
 21
37.42229382454313
 31
0.0
  0
LINE
  5
BB0
330
1F
100
AcDbEntity
  8
SK2
  6
CONTINUOUS
370
25
 62
7
100
AcDbLine
 10
6.279091230036577
 20
37.26036824600732
 30
0.0
 11
6.511727486691047
 21
37.49300450266178
 31
0.0
  0
LINE
  5
BB1
330
1F
100
AcDbEntity
  8
SK2
  6
CONTINUOUS
370
25
 62
7
100
AcDbLine
 10
5.748761144146669
 20
37.15430222882933
 30
0.0
 11
6.158174096097775
 21
37.56371518078044
 31
0.0
  0
LINE
  5
BB2
330
1F
100
AcDbEntity
  8
SK2
  6
CONTINUOUS
370
25
 62
7
100
AcDbLine
 10
5.218431058256751
 20
37.04823621165135
 30
0.0
 11
5.804620705504496
 21
37.63442585889909
 31
0.0
  0
LINE
  5
BB3
330
1F
100
AcDbEntity
  8
SK2
  6
CONTINUOUS
370
25
 62
7
100
AcDbLine
 10
4.688100972366839
 20
36.94217019447337
 30
0.0
 11
5.451067314911221
 21
37.70513653701775
 31
0.0
  0
LINE
  5
BB4
330
1F
100
AcDbEntity
  8
SK2
  6
CONTINUOUS
370
25
 62
7
100
AcDbLine
 10
4.157770886476922
 20
36.83610417729538
 30
0.0
 11
5.097513924317942
 21
37.77584721513641
 31
0.0
  0
LINE
  5
BB5
330
1F
100
AcDbEntity
  8
SK2
  6
CONTINUOUS
370
25
 62
7
100
AcDbLine
 10
3.627440800587014
 20
36.7300381601174
 30
0.0
 11
4.74396053372467
 21
37.84655789325506
 31
0.0
  0
LINE
  5
BB6
330
1F
100
AcDbEntity
  8
SK2
  6
CONTINUOUS
370
25
 62
7
100
AcDbLine
 10
3.097110714697097
 20
36.62397214293942
 30
0.0
 11
4.390407143131392
 21
37.91726857137372
 31
0.0
  0
LINE
  5
BB7
330
1F
100
AcDbEntity
  8
SK2
  6
CONTINUOUS
370
25
 62
7
100
AcDbLine
 10
2.566780628807189
 20
36.51790612576144
 30
0.0
 11
4.03685375253812
 21
37.98797924949237
 31
0.0
  0
LINE
  5
BB8
330
1F
100
AcDbEntity
  8
SK2
  6
CONTINUOUS
370
25
 62
7
100
AcDbLine
 10
2.036450542917272
 20
36.41184010858345
 30
0.0
 11
3.683300361944841
 21
38.05868992761103
 31
0.0
  0
LINE
  5
BB9
330
1F
100
AcDbEntity
  8
SK2
  6
CONTINUOUS
370
25
 62
7
100
AcDbLine
 10
1.977000000000002
 20
36.77665363437812
 30
0.0
 11
3.329746971351563
 21
38.12940060572969
 31
0.0
  0
LINE
  5
BBA
330
1F
100
AcDbEntity
  8
SK2
  6
CONTINUOUS
370
25
 62
7
100
AcDbLine
 10
1.977000000000002
 20
37.20091770309005
 30
0.0
 11
2.976193580758291
 21
38.20011128384834
 31
0.0
  0
LINE
  5
BBB
330
1F
100
AcDbEntity
  8
SK2
  6
CONTINUOUS
370
25
 62
7
100
AcDbLine
 10
1.977000000000002
 20
37.62518177180198
 30
0.0
 11
2.622640190165012
 21
38.27082196196699
 31
0.0
  0
LINE
  5
BBC
330
1F
100
AcDbEntity
  8
SK2
  6
CONTINUOUS
370
25
 62
7
100
AcDbLine
 10
1.977000000000002
 20
38.04944584051391
 30
0.0
 11
2.26908679957174
 21
38.34153264008565
 31
0.0
  0
LINE
  5
BBD
330
1F
100
AcDbEntity
  8
SK2
  6
CONTINUOUS
370
25
 62
7
100
AcDbLine
 10
1.977000000000002
 20
36.62103025278547
 30
0.0
 11
2.16123354398789
 21
36.43679670879758
 31
0.0
  0
LINE
  5
BBE
330
1F
100
AcDbEntity
  8
SK2
  6
CONTINUOUS
370
25
 62
7
100
AcDbLine
 10
1.977000000000002
 20
37.04529432149739
 30
0.0
 11
2.514786934581162
 21
36.50750738691623
 31
0.0
  0
LINE
  5
BBF
330
1F
100
AcDbEntity
  8
SK2
  6
CONTINUOUS
370
25
 62
7
100
AcDbLine
 10
1.977000000000002
 20
37.46955839020932
 30
0.0
 11
2.868340325174433
 21
36.57821806503489
 31
0.0
  0
LINE
  5
BC0
330
1F
100
AcDbEntity
  8
SK2
  6
CONTINUOUS
370
25
 62
7
100
AcDbLine
 10
1.977000000000002
 20
37.89382245892125
 30
0.0
 11
3.221893715767711
 21
36.64892874315354
 31
0.0
  0
LINE
  5
BC1
330
1F
100
AcDbEntity
  8
SK2
  6
CONTINUOUS
370
25
 62
7
100
AcDbLine
 10
1.977000000000002
 20
38.31808652763318
 30
0.0
 11
3.575447106360989
 21
36.7196394212722
 31
0.0
  0
LINE
  5
BC2
330
1F
100
AcDbEntity
  8
SK2
  6
CONTINUOUS
370
25
 62
7
100
AcDbLine
 10
2.405000745431402
 20
38.31434985091371
 30
0.0
 11
3.929000496954261
 21
36.79035009939085
 31
0.0
  0
LINE
  5
BC3
330
1F
100
AcDbEntity
  8
SK2
  6
CONTINUOUS
370
25
 62
7
100
AcDbLine
 10
2.935330831321318
 20
38.20828383373573
 30
0.0
 11
4.282553887547539
 21
36.86106077750951
 31
0.0
  0
LINE
  5
BC4
330
1F
100
AcDbEntity
  8
SK2
  6
CONTINUOUS
370
25
 62
7
100
AcDbLine
 10
3.465660917211226
 20
38.10221781655775
 30
0.0
 11
4.636107278140811
 21
36.93177145562816
 31
0.0
  0
LINE
  5
BC5
330
1F
100
AcDbEntity
  8
SK2
  6
CONTINUOUS
370
25
 62
7
100
AcDbLine
 10
3.995991003101143
 20
37.99615179937977
 30
0.0
 11
4.989660668734089
 21
37.00248213374682
 31
0.0
  0
LINE
  5
BC6
330
1F
100
AcDbEntity
  8
SK2
  6
CONTINUOUS
370
25
 62
7
100
AcDbLine
 10
4.526321088991059
 20
37.89008578220178
 30
0.0
 11
5.343214059327368
 21
37.07319281186547
 31
0.0
  0
LINE
  5
BC7
330
1F
100
AcDbEntity
  8
SK2
  6
CONTINUOUS
370
25
 62
7
100
AcDbLine
 10
5.056651174880967
 20
37.7840197650238
 30
0.0
 11
5.69676744992064
 21
37.14390348998413
 31
0.0
  0
LINE
  5
BC8
330
1F
100
AcDbEntity
  8
SK2
  6
CONTINUOUS
370
25
 62
7
100
AcDbLine
 10
5.586981260770884
 20
37.67795374784582
 30
0.0
 11
6.050320840513918
 21
37.21461416810278
 31
0.0
  0
LINE
  5
BC9
330
1F
100
AcDbEntity
  8
SK2
  6
CONTINUOUS
370
25
 62
7
100
AcDbLine
 10
6.117311346660791
 20
37.57188773066784
 30
0.0
 11
6.403874231107189
 21
37.28532484622144
 31
0.0
  0
LINE
  5
BCA
330
1F
100
AcDbEntity
  8
SK2
  6
CONTINUOUS
370
25
 62
7
100
AcDbLine
 10
6.647641432550707
 20
37.46582171348985
 30
0.0
 11
6.757427621700468
 21
37.35603552434009
 31
0.0
  0
TEXT
  5
BCB
330
1F
100
AcDbEntity
  8
SK2
  6
CONTINUOUS
370
25
 62
7
100
AcDbText
 10
-20.648
 20
38.89995
 30
0.0
 40
3.5
  1
50
 72
     1
 11
-18.023
 21
38.89995
 31
0.0
100
AcDbText
  0
LINE
  5
BCC
330
1F
100
AcDbEntity
  8
2
  6
CONTINUOUS
370
25
 62
7
100
AcDbLine
 10
6.477
 20
-0.13995
 30
0.0
 11
6.476999999999999
 21
-33.15
 31
0.0
  0
LINE
  5
BCD
330
1F
100
AcDbEntity
  8
2
  6
CONTINUOUS
370
25
 62
7
100
AcDbLine
 10
6.976999999999999
 20
-33.15
 30
0.0
 11
6.977
 21
-0.1000000000000014
 31
0.0
  0
LINE
  5
BCE
330
1F
100
AcDbEntity
  8
2
  6
CONTINUOUS
370
25
 62
7
100
AcDbLine
 10
-0.5230000000000017
 20
-32.15
 30
0.0
 11
22.90199999999999
 21
-32.15
 31
0.0
  0
LINE
  5
BCF
330
1F
100
AcDbEntity
  8
2
  6
CONTINUOUS
370
25
 62
7
100
AcDbLine
 10
6.476999999999999
 20
-32.15
 30
0.0
 11
1.476999999999998
 21
-33.15
 31
0.0
  0
LINE
  5
BD0
330
1F
100
AcDbEntity
  8
2
  6
CONTINUOUS
370
25
 62
7
100
AcDbLine
 10
1.476999999999998
 20
-33.15
 30
0.0
 11
1.476999999999998
 21
-31.15
 31
0.0
  0
LINE
  5
BD1
330
1F
100
AcDbEntity
  8
2
  6
CONTINUOUS
370
25
 62
7
100
AcDbLine
 10
1.476999999999998
 20
-31.15
 30
0.0
 11
6.476999999999999
 21
-32.15
 31
0.0
  0
LINE
  5
BD2
330
1F
100
AcDbEntity
  8
2
  6
CONTINUOUS
370
25
 62
7
100
AcDbLine
 10
5.961934486869724
 20
-32.25301310262606
 30
0.0
 11
6.133622991246487
 21
-32.0813245982493
 31
0.0
  0
LINE
  5
BD3
330
1F
100
AcDbEntity
  8
2
  6
CONTINUOUS
370
25
 62
7
100
AcDbLine
 10
5.431604400979817
 20
-32.35907911980404
 30
0.0
 11
5.780069600653214
 21
-32.01061392013064
 31
0.0
  0
LINE
  5
BD4
330
1F
100
AcDbEntity
  8
2
  6
CONTINUOUS
370
25
 62
7
100
AcDbLine
 10
4.901274315089897
 20
-32.46514513698202
 30
0.0
 11
5.426516210059936
 21
-31.93990324201199
 31
0.0
  0
LINE
  5
BD5
330
1F
100
AcDbEntity
  8
2
  6
CONTINUOUS
370
25
 62
7
100
AcDbLine
 10
4.370944229199988
 20
-32.57121115416
 30
0.0
 11
5.072962819466664
 21
-31.86919256389333
 31
0.0
  0
LINE
  5
BD6
330
1F
100
AcDbEntity
  8
2
  6
CONTINUOUS
370
25
 62
7
100
AcDbLine
 10
3.840614143310068
 20
-32.67727717133799
 30
0.0
 11
4.719409428873385
 21
-31.79848188577468
 31
0.0
  0
LINE
  5
BD7
330
1F
100
AcDbEntity
  8
2
  6
CONTINUOUS
370
25
 62
7
100
AcDbLine
 10
3.310284057420158
 20
-32.78334318851597
 30
0.0
 11
4.365856038280112
 21
-31.72777120765602
 31
0.0
  0
LINE
  5
BD8
330
1F
100
AcDbEntity
  8
2
  6
CONTINUOUS
370
25
 62
7
100
AcDbLine
 10
2.779953971530246
 20
-32.88940920569395
 30
0.0
 11
4.012302647686839
 21
-31.65706052953737
 31
0.0
  0
LINE
  5
BD9
330
1F
100
AcDbEntity
  8
2
  6
CONTINUOUS
370
25
 62
7
100
AcDbLine
 10
2.249623885640325
 20
-32.99547522287194
 30
0.0
 11
3.658749257093559
 21
-31.58634985141871
 31
0.0
  0
LINE
  5
BDA
330
1F
100
AcDbEntity
  8
2
  6
CONTINUOUS
370
25
 62
7
100
AcDbLine
 10
1.719293799750412
 20
-33.10154124004992
 30
0.0
 11
3.305195866500286
 21
-31.51563917330006
 31
0.0
  0
LINE
  5
BDB
330
1F
100
AcDbEntity
  8
2
  6
CONTINUOUS
370
25
 62
7
100
AcDbLine
 10
1.476999999999998
 20
-32.9195709710884
 30
0.0
 11
2.951642475907012
 21
-31.4449284951814
 31
0.0
  0
LINE
  5
BDC
330
1F
100
AcDbEntity
  8
2
  6
CONTINUOUS
370
25
 62
7
100
AcDbLine
 10
1.476999999999998
 20
-32.49530690237648
 30
0.0
 11
2.598089085313738
 21
-31.37421781706275
 31
0.0
  0
LINE
  5
BDD
330
1F
100
AcDbEntity
  8
2
  6
CONTINUOUS
370
25
 62
7
100
AcDbLine
 10
1.476999999999998
 20
-32.07104283366454
 30
0.0
 11
2.244535694720457
 21
-31.30350713894409
 31
0.0
  0
LINE
  5
BDE
330
1F
100
AcDbEntity
  8
2
  6
CONTINUOUS
370
25
 62
7
100
AcDbLine
 10
1.476999999999998
 20
-31.64677876495261
 30
0.0
 11
1.890982304127182
 21
-31.23279646082544
 31
0.0
  0
LINE
  5
BDF
330
1F
100
AcDbEntity
  8
2
  6
CONTINUOUS
370
25
 62
7
100
AcDbLine
 10
1.476999999999998
 20
-31.22251469624069
 30
0.0
 11
1.537428913533908
 21
-31.16208578270678
 31
0.0
  0
LINE
  5
BE0
330
1F
100
AcDbEntity
  8
2
  6
CONTINUOUS
370
25
 62
7
100
AcDbLine
 10
1.476999999999998
 20
-33.09775710115823
 30
0.0
 11
1.520535749034808
 21
-33.14129285019304
 31
0.0
  0
LINE
  5
BE1
330
1F
100
AcDbEntity
  8
2
  6
CONTINUOUS
370
25
 62
7
100
AcDbLine
 10
1.476999999999998
 20
-32.6734930324463
 30
0.0
 11
1.874089139628085
 21
-33.07058217207438
 31
0.0
  0
LINE
  5
BE2
330
1F
100
AcDbEntity
  8
2
  6
CONTINUOUS
370
25
 62
7
100
AcDbLine
 10
1.476999999999998
 20
-32.24922896373437
 30
0.0
 11
2.22764253022136
 21
-32.99987149395573
 31
0.0
  0
LINE
  5
BE3
330
1F
100
AcDbEntity
  8
2
  6
CONTINUOUS
370
25
 62
7
100
AcDbLine
 10
1.476999999999998
 20
-31.82496489502244
 30
0.0
 11
2.581195920814635
 21
-32.92916081583707
 31
0.0
  0
LINE
  5
BE4
330
1F
100
AcDbEntity
  8
2
  6
CONTINUOUS
370
25
 62
7
100
AcDbLine
 10
1.476999999999998
 20
-31.40070082631052
 30
0.0
 11
2.934749311407909
 21
-32.85845013771842
 31
0.0
  0
LINE
  5
BE5
330
1F
100
AcDbEntity
  8
2
  6
CONTINUOUS
370
25
 62
7
100
AcDbLine
 10
1.693954053001766
 20
-31.19339081060035
 30
0.0
 11
3.288302702001185
 21
-32.78773945959976
 31
0.0
  0
LINE
  5
BE6
330
1F
100
AcDbEntity
  8
2
  6
CONTINUOUS
370
25
 62
7
100
AcDbLine
 10
2.224284138891679
 20
-31.29945682777834
 30
0.0
 11
3.64185609259446
 21
-32.71702878148111
 31
0.0
  0
LINE
  5
BE7
330
1F
100
AcDbEntity
  8
2
  6
CONTINUOUS
370
25
 62
7
100
AcDbLine
 10
2.754614224781593
 20
-31.40552284495632
 30
0.0
 11
3.995409483187736
 21
-32.64631810336245
 31
0.0
  0
LINE
  5
BE8
330
1F
100
AcDbEntity
  8
2
  6
CONTINUOUS
370
25
 62
7
100
AcDbLine
 10
3.284944310671507
 20
-31.5115888621343
 30
0.0
 11
4.348962873781011
 21
-32.5756074252438
 31
0.0
  0
LINE
  5
BE9
330
1F
100
AcDbEntity
  8
2
  6
CONTINUOUS
370
25
 62
7
100
AcDbLine
 10
3.815274396561417
 20
-31.61765487931228
 30
0.0
 11
4.702516264374283
 21
-32.50489674712514
 31
0.0
  0
LINE
  5
BEA
330
1F
100
AcDbEntity
  8
2
  6
CONTINUOUS
370
25
 62
7
100
AcDbLine
 10
4.345604482451331
 20
-31.72372089649026
 30
0.0
 11
5.05606965496756
 21
-32.43418606900649
 31
0.0
  0
LINE
  5
BEB
330
1F
100
AcDbEntity
  8
2
  6
CONTINUOUS
370
25
 62
7
100
AcDbLine
 10
4.875934568341247
 20
-31.82978691366825
 30
0.0
 11
5.409623045560837
 21
-32.36347539088784
 31
0.0
  0
LINE
  5
BEC
330
1F
100
AcDbEntity
  8
2
  6
CONTINUOUS
370
25
 62
7
100
AcDbLine
 10
5.406264654231164
 20
-31.93585293084623
 30
0.0
 11
5.763176436154112
 21
-32.29276471276918
 31
0.0
  0
LINE
  5
BED
330
1F
100
AcDbEntity
  8
2
  6
CONTINUOUS
370
25
 62
7
100
AcDbLine
 10
5.936594740121076
 20
-32.04191894802422
 30
0.0
 11
6.116729826747387
 21
-32.22205403465053
 31
0.0
  0
LINE
  5
BEE
330
1F
100
AcDbEntity
  8
2
  6
CONTINUOUS
370
25
 62
7
100
AcDbLine
 10
6.466924826010992
 20
-32.1479849652022
 30
0.0
 11
6.470283217340664
 21
-32.15134335653187
 31
0.0
  0
LINE
  5
BEF
330
1F
100
AcDbEntity
  8
2
  6
CONTINUOUS
370
25
 62
7
100
AcDbLine
 10
6.976999999999999
 20
-32.15
 30
0.0
 11
11.977
 21
-31.15
 31
0.0
  0
LINE
  5
BF0
330
1F
100
AcDbEntity
  8
2
  6
CONTINUOUS
370
25
 62
7
100
AcDbLine
 10
11.977
 20
-31.15
 30
0.0
 11
11.977
 21
-33.15
 31
0.0
  0
LINE
  5
BF1
330
1F
100
AcDbEntity
  8
2
  6
CONTINUOUS
370
25
 62
7
100
AcDbLine
 10
11.977
 20
-33.15
 30
0.0
 11
6.976999999999999
 21
-32.15
 31
0.0
  0
LINE
  5
BF2
330
1F
100
AcDbEntity
  8
2
  6
CONTINUOUS
370
25
 62
7
100
AcDbLine
 10
11.84808908531375
 20
-33.12421781706274
 30
0.0
 11
11.977
 21
-32.9953069023765
 31
0.0
  0
LINE
  5
BF3
330
1F
100
AcDbEntity
  8
2
  6
CONTINUOUS
370
25
 62
7
100
AcDbLine
 10
11.49453569472047
 20
-33.05350713894409
 30
0.0
 11
11.977
 21
-32.57104283366456
 31
0.0
  0
LINE
  5
BF4
330
1F
100
AcDbEntity
  8
2
  6
CONTINUOUS
370
25
 62
7
100
AcDbLine
 10
11.1409823041272
 20
-32.98279646082544
 30
0.0
 11
11.977
 21
-32.14677876495264
 31
0.0
  0
LINE
  5
BF5
330
1F
100
AcDbEntity
  8
2
  6
CONTINUOUS
370
25
 62
7
100
AcDbLine
 10
10.78742891353392
 20
-32.91208578270678
 30
0.0
 11
11.977
 21
-31.72251469624071
 31
0.0
  0
LINE
  5
BF6
330
1F
100
AcDbEntity
  8
2
  6
CONTINUOUS
370
25
 62
7
100
AcDbLine
 10
10.43387552294064
 20
-32.84137510458812
 30
0.0
 11
11.977
 21
-31.29825062752877
 31
0.0
  0
LINE
  5
BF7
330
1F
100
AcDbEntity
  8
2
  6
CONTINUOUS
370
25
 62
7
100
AcDbLine
 10
10.08032213234737
 20
-32.77066442646947
 30
0.0
 11
11.63198319852107
 21
-31.21900336029578
 31
0.0
  0
LINE
  5
BF8
330
1F
100
AcDbEntity
  8
2
  6
CONTINUOUS
370
25
 62
7
100
AcDbLine
 10
9.726768741754096
 20
-32.69995374835081
 30
0.0
 11
11.10165311263115
 21
-31.32506937747377
 31
0.0
  0
LINE
  5
BF9
330
1F
100
AcDbEntity
  8
2
  6
CONTINUOUS
370
25
 62
7
100
AcDbLine
 10
9.37321535116082
 20
-32.62924307023216
 30
0.0
 11
10.57132302674123
 21
-31.43113539465175
 31
0.0
  0
LINE
  5
BFA
330
1F
100
AcDbEntity
  8
2
  6
CONTINUOUS
370
25
 62
7
100
AcDbLine
 10
9.019661960567548
 20
-32.55853239211351
 30
0.0
 11
10.04099294085133
 21
-31.53720141182973
 31
0.0
  0
LINE
  5
BFB
330
1F
100
AcDbEntity
  8
2
  6
CONTINUOUS
370
25
 62
7
100
AcDbLine
 10
8.66610856997427
 20
-32.48782171399485
 30
0.0
 11
9.510662854961412
 21
-31.64326742900771
 31
0.0
  0
LINE
  5
BFC
330
1F
100
AcDbEntity
  8
2
  6
CONTINUOUS
370
25
 62
7
100
AcDbLine
 10
8.312555179380992
 20
-32.4171110358762
 30
0.0
 11
8.980332769071495
 21
-31.74933344618569
 31
0.0
  0
LINE
  5
BFD
330
1F
100
AcDbEntity
  8
2
  6
CONTINUOUS
370
25
 62
7
100
AcDbLine
 10
7.959001788787721
 20
-32.34640035775754
 30
0.0
 11
8.450002683181586
 21
-31.85539946336368
 31
0.0
  0
LINE
  5
BFE
330
1F
100
AcDbEntity
  8
2
  6
CONTINUOUS
370
25
 62
7
100
AcDbLine
 10
7.605448398194443
 20
-32.27568967963889
 30
0.0
 11
7.919672597291667
 21
-31.96146548054166
 31
0.0
  0
LINE
  5
BFF
330
1F
100
AcDbEntity
  8
2
  6
CONTINUOUS
370
25
 62
7
100
AcDbLine
 10
7.25189500760117
 20
-32.20497900152023
 30
0.0
 11
7.389342511401758
 21
-32.06753149771964
 31
0.0
  0
LINE
  5
C00
330
1F
100
AcDbEntity
  8
2
  6
CONTINUOUS
370
25
 62
7
100
AcDbLine
 10
7.235001843102068
 20
-32.09839963137959
 30
0.0
 11
7.364002764653102
 21
-32.22740055293062
 31
0.0
  0
LINE
  5
C01
330
1F
100
AcDbEntity
  8
2
  6
CONTINUOUS
370
25
 62
7
100
AcDbLine
 10
7.588555233695343
 20
-32.02768895326093
 30
0.0
 11
7.894332850543019
 21
-32.3334665701086
 31
0.0
  0
LINE
  5
C02
330
1F
100
AcDbEntity
  8
2
  6
CONTINUOUS
370
25
 62
7
100
AcDbLine
 10
7.942108624288618
 20
-31.95697827514227
 30
0.0
 11
8.424662936432933
 21
-32.43953258728659
 31
0.0
  0
LINE
  5
C03
330
1F
100
AcDbEntity
  8
2
  6
CONTINUOUS
370
25
 62
7
100
AcDbLine
 10
8.295662014881893
 20
-31.88626759702362
 30
0.0
 11
8.954993022322844
 21
-32.54559860446457
 31
0.0
  0
LINE
  5
C04
330
1F
100
AcDbEntity
  8
2
  6
CONTINUOUS
370
25
 62
7
100
AcDbLine
 10
8.649215405475166
 20
-31.81555691890496
 30
0.0
 11
9.485323108212755
 21
-32.65166462164255
 31
0.0
  0
LINE
  5
C05
330
1F
100
AcDbEntity
  8
2
  6
CONTINUOUS
370
25
 62
7
100
AcDbLine
 10
9.002768796068441
 20
-31.74484624078631
 30
0.0
 11
10.01565319410267
 21
-32.75773063882053
 31
0.0
  0
LINE
  5
C06
330
1F
100
AcDbEntity
  8
2
  6
CONTINUOUS
370
25
 62
7
100
AcDbLine
 10
9.356322186661718
 20
-31.67413556266765
 30
0.0
 11
10.54598327999259
 21
-32.86379665599851
 31
0.0
  0
LINE
  5
C07
330
1F
100
AcDbEntity
  8
2
  6
CONTINUOUS
370
25
 62
7
100
AcDbLine
 10
9.709875577254993
 20
-31.603424884549
 30
0.0
 11
11.0763133658825
 21
-32.9698626731765
 31
0.0
  0
LINE
  5
C08
330
1F
100
AcDbEntity
  8
2
  6
CONTINUOUS
370
25
 62
7
100
AcDbLine
 10
10.06342896784827
 20
-31.53271420643034
 30
0.0
 11
11.60664345177241
 21
-33.07592869035448
 31
0.0
  0
LINE
  5
C09
330
1F
100
AcDbEntity
  8
2
  6
CONTINUOUS
370
25
 62
7
100
AcDbLine
 10
10.41698235844154
 20
-31.46200352831169
 30
0.0
 11
11.977
 21
-33.02202116987014
 31
0.0
  0
LINE
  5
C0A
330
1F
100
AcDbEntity
  8
2
  6
CONTINUOUS
370
25
 62
7
100
AcDbLine
 10
10.77053574903482
 20
-31.39129285019303
 30
0.0
 11
11.977
 21
-32.59775710115821
 31
0.0
  0
LINE
  5
C0B
330
1F
100
AcDbEntity
  8
2
  6
CONTINUOUS
370
25
 62
7
100
AcDbLine
 10
11.12408913962809
 20
-31.32058217207438
 30
0.0
 11
11.977
 21
-32.17349303244627
 31
0.0
  0
LINE
  5
C0C
330
1F
100
AcDbEntity
  8
2
  6
CONTINUOUS
370
25
 62
7
100
AcDbLine
 10
11.47764253022137
 20
-31.24987149395572
 30
0.0
 11
11.977
 21
-31.74922896373435
 31
0.0
  0
LINE
  5
C0D
330
1F
100
AcDbEntity
  8
2
  6
CONTINUOUS
370
25
 62
7
100
AcDbLine
 10
11.83119592081465
 20
-31.17916081583707
 30
0.0
 11
11.977
 21
-31.32496489502242
 31
0.0
  0
TEXT
  5
C0E
330
1F
100
AcDbEntity
  8
2
  6
CONTINUOUS
370
25
 62
7
100
AcDbText
 10
14.23116666666666
 20
-30.65
 30
0.0
 40
3.5
  1
0.5
 72
     1
 11
17.4395
 21
-30.65
 31
0.0
100
AcDbText
  0
LINE
  5
C0F
330
1F
100
AcDbEntity
  8
2
  6
CONTINUOUS
370
25
 62
7
100
AcDbLine
 10
6.96235534
 20
-0.13535534
 30
0.0
 11
25.8269500022323
 21
-18.99995000223228
 31
0.0
  0
LINE
  5
C10
330
1F
100
AcDbEntity
  8
2
  6
CONTINUOUS
370
25
 62
7
100
AcDbLine
 10
25.8269500022323
 20
-18.99995000223228
 30
0.0
 11
38.72695000223231
 21
-18.99995000223228
 31
0.0
  0
LINE
  5
C11
330
1F
100
AcDbEntity
  8
2
  6
CONTINUOUS
370
25
 62
7
100
AcDbLine
 10
6.96235534
 20
-0.13535534
 30
0.0
 11
6.927000000940673
 21
-0.1000000009406726
 31
0.0
  0
LINE
  5
C12
330
1F
100
AcDbEntity
  8
2
  6
CONTINUOUS
370
25
 62
7
100
AcDbLine
 10
6.96235534
 20
-0.13535534
 30
0.0
 11
11.20499602711929
 21
-2.963782464746187
 31
0.0
  0
LINE
  5
C13
330
1F
100
AcDbEntity
  8
2
  6
CONTINUOUS
370
25
 62
7
100
AcDbLine
 10
11.20499602711929
 20
-2.963782464746187
 30
0.0
 11
9.790782464746192
 21
-4.377996027119283
 31
0.0
  0
LINE
  5
C14
330
1F
100
AcDbEntity
  8
2
  6
CONTINUOUS
370
25
 62
7
100
AcDbLine
 10
9.790782464746192
 20
-4.377996027119283
 30
0.0
 11
6.96235534
 21
-0.13535534
 31
0.0
  0
LINE
  5
C15
330
1F
100
AcDbEntity
  8
2
  6
CONTINUOUS
370
25
 62
7
100
AcDbLine
 10
9.635735744515234
 20
-4.145425946772844
 30
0.0
 11
10.97242594677285
 21
-2.808735744515229
 31
0.0
  0
LINE
  5
C16
330
1F
100
AcDbEntity
  8
2
  6
CONTINUOUS
370
25
 62
7
100
AcDbLine
 10
9.466030117030463
 20
-3.890867505545687
 30
0.0
 11
10.71786750554569
 21
-2.639030117030458
 31
0.0
  0
LINE
  5
C17
330
1F
100
AcDbEntity
  8
2
  6
CONTINUOUS
370
25
 62
7
100
AcDbLine
 10
9.296324489545691
 20
-3.636309064318532
 30
0.0
 11
10.46330906431854
 21
-2.469324489545688
 31
0.0
  0
LINE
  5
C18
330
1F
100
AcDbEntity
  8
2
  6
CONTINUOUS
370
25
 62
7
100
AcDbLine
 10
9.126618862060921
 20
-3.381750623091374
 30
0.0
 11
10.20875062309138
 21
-2.299618862060916
 31
0.0
  0
LINE
  5
C19
330
1F
100
AcDbEntity
  8
2
  6
CONTINUOUS
370
25
 62
7
100
AcDbLine
 10
8.956913234576147
 20
-3.127192181864219
 30
0.0
 11
9.95419218186422
 21
-2.129913234576145
 31
0.0
  0
LINE
  5
C1A
330
1F
100
AcDbEntity
  8
2
  6
CONTINUOUS
370
25
 62
7
100
AcDbLine
 10
8.787207607091377
 20
-2.872633740637061
 30
0.0
 11
9.699633740637065
 21
-1.960207607091373
 31
0.0
  0
LINE
  5
C1B
330
1F
100
AcDbEntity
  8
2
  6
CONTINUOUS
370
25
 62
7
100
AcDbLine
 10
8.617501979606605
 20
-2.618075299409906
 30
0.0
 11
9.445075299409908
 21
-1.790501979606603
 31
0.0
  0
LINE
  5
C1C
330
1F
100
AcDbEntity
  8
2
  6
CONTINUOUS
370
25
 62
7
100
AcDbLine
 10
8.447796352121832
 20
-2.363516858182749
 30
0.0
 11
9.19051685818275
 21
-1.620796352121831
 31
0.0
  0
LINE
  5
C1D
330
1F
100
AcDbEntity
  8
2
  6
CONTINUOUS
370
25
 62
7
100
AcDbLine
 10
8.278090724637062
 20
-2.108958416955591
 30
0.0
 11
8.935958416955593
 21
-1.45109072463706
 31
0.0
  0
LINE
  5
C1E
330
1F
100
AcDbEntity
  8
2
  6
CONTINUOUS
370
25
 62
7
100
AcDbLine
 10
8.10838509715229
 20
-1.854399975728434
 30
0.0
 11
8.681399975728436
 21
-1.281385097152288
 31
0.0
  0
LINE
  5
C1F
330
1F
100
AcDbEntity
  8
2
  6
CONTINUOUS
370
25
 62
7
100
AcDbLine
 10
7.93867946966752
 20
-1.599841534501278
 30
0.0
 11
8.42684153450128
 21
-1.111679469667518
 31
0.0
  0
LINE
  5
C20
330
1F
100
AcDbEntity
  8
2
  6
CONTINUOUS
370
25
 62
7
100
AcDbLine
 10
7.768973842182748
 20
-1.34528309327412
 30
0.0
 11
8.172283093274121
 21
-0.9419738421827475
 31
0.0
  0
LINE
  5
C21
330
1F
100
AcDbEntity
  8
2
  6
CONTINUOUS
370
25
 62
7
100
AcDbLine
 10
7.599268214697977
 20
-1.090724652046964
 30
0.0
 11
7.917724652046966
 21
-0.7722682146979754
 31
0.0
  0
LINE
  5
C22
330
1F
100
AcDbEntity
  8
2
  6
CONTINUOUS
370
25
 62
7
100
AcDbLine
 10
7.429562587213207
 20
-0.8361662108198082
 30
0.0
 11
7.663166210819809
 21
-0.6025625872132059
 31
0.0
  0
LINE
  5
C23
330
1F
100
AcDbEntity
  8
2
  6
CONTINUOUS
370
25
 62
7
100
AcDbLine
 10
7.259856959728435
 20
-0.5816077695926509
 30
0.0
 11
7.408607769592652
 21
-0.4328569597284337
 31
0.0
  0
LINE
  5
C24
330
1F
100
AcDbEntity
  8
2
  6
CONTINUOUS
370
25
 62
7
100
AcDbLine
 10
7.090151332243663
 20
-0.3270493283654945
 30
0.0
 11
7.154049328365494
 21
-0.2631513322436634
 31
0.0
  0
LINE
  5
C25
330
1F
100
AcDbEntity
  8
2
  6
CONTINUOUS
370
25
 62
7
100
AcDbLine
 10
9.605489553489857
 20
-4.100056660234781
 30
0.0
 11
9.837105692560275
 21
-4.331672799305199
 31
0.0
  0
LINE
  5
C26
330
1F
100
AcDbEntity
  8
2
  6
CONTINUOUS
370
25
 62
7
100
AcDbLine
 10
8.756961416065998
 20
-2.827264454098994
 30
0.0
 11
10.04923772691624
 21
-4.119540764949234
 31
0.0
  0
LINE
  5
C27
330
1F
100
AcDbEntity
  8
2
  6
CONTINUOUS
370
25
 62
7
100
AcDbLine
 10
7.908433278642139
 20
-1.554472247963207
 30
0.0
 11
10.2613697612722
 21
-3.907408730593269
 31
0.0
  0
LINE
  5
C28
330
1F
100
AcDbEntity
  8
2
  6
CONTINUOUS
370
25
 62
7
100
AcDbLine
 10
7.059905141218282
 20
-0.281680041827423
 30
0.0
 11
10.47350179562817
 21
-3.695276696237306
 31
0.0
  0
LINE
  5
C29
330
1F
100
AcDbEntity
  8
2
  6
CONTINUOUS
370
25
 62
7
100
AcDbLine
 10
8.088822844308362
 20
-0.8863336762055729
 30
0.0
 11
10.68563382998413
 21
-3.483144661881343
 31
0.0
  0
LINE
  5
C2A
330
1F
100
AcDbEntity
  8
2
  6
CONTINUOUS
370
25
 62
7
100
AcDbLine
 10
9.361615050444145
 20
-1.734861813629427
 30
0.0
 11
10.8977658643401
 21
-3.271012627525378
 31
0.0
  0
LINE
  5
C2B
330
1F
100
AcDbEntity
  8
2
  6
CONTINUOUS
370
25
 62
7
100
AcDbLine
 10
10.63440725657993
 20
-2.583389951053281
 30
0.0
 11
11.10989789869606
 21
-3.058880593169414
 31
0.0
  0
TEXT
  5
C2C
330
1F
100
AcDbEntity
  8
2
  6
CONTINUOUS
370
25
 62
7
100
AcDbText
 10
27.61028333556564
 20
-17.49995000223228
 30
0.0
 40
3.5
  1
0.05
 72
     1
 11
32.2769500022323
 21
-17.49995000223228
 31
0.0
100
AcDbText
  0
LINE
  5
C2D
330
1F
100
AcDbEntity
  8
SK1
  6
CONTINUOUS
370
50
 62
4
100
AcDbLine
 10
-0.01
 20
0.0
 30
0.0
 11
2.49
 21
0.0
 31
0.0
  0
LINE
  5
C2E
330
1F
100
AcDbEntity
  8
SK1
  6
CONTINUOUS
370
50
 62
4
100
AcDbLine
 10
-0.01
 20
0.0
 30
0.0
 11
-0.01
 21
2.5
 31
0.0
  0
ARC
  5
C2F
330
1F
100
AcDbEntity
  8
SK1
  6
CONTINUOUS
370
50
 62
4
100
AcDbCircle
 10
-0.01
 20
0.0
 30
0.0
 40
2.5
100
AcDbArc
 50
0.0
 51
90.0
  0
LINE
  5
C30
330
1F
100
AcDbEntity
  8
SK1
  6
CONTINUOUS
370
50
 62
4
100
AcDbLine
 10
-0.01
 20
0.0
 30
0.0
 11
-2.51
 21
0.0
 31
0.0
  0
ARC
  5
C31
330
1F
100
AcDbEntity
  8
SK1
  6
CONTINUOUS
370
50
 62
4
100
AcDbCircle
 10
-0.01
 20
0.0
 30
0.0
 40
2.5
100
AcDbArc
 50
180.0
 51
270.0
  0
LINE
  5
C32
330
1F
100
AcDbEntity
  8
SK1
  6
CONTINUOUS
370
50
 62
4
100
AcDbLine
 10
-0.01
 20
-2.5
 30
0.0
 11
-0.01
 21
0.0
 31
0.0
  0
ARC
  5
C33
330
1F
100
AcDbEntity
  8
SK1
  6
CONTINUOUS
370
50
 62
4
100
AcDbCircle
 10
-0.01
 20
0.0
 30
0.0
 40
2.5
100
AcDbArc
 50
270.0
 51
0.0
  0
ARC
  5
C34
330
1F
100
AcDbEntity
  8
SK1
  6
CONTINUOUS
370
50
 62
4
100
AcDbCircle
 10
-0.01
 20
0.0
 30
0.0
 40
2.5
100
AcDbArc
 50
90.0
 51
180.0
  0
LINE
  5
C35
330
1F
100
AcDbEntity
  8
SK1
  6
CONTINUOUS
370
50
 62
4
100
AcDbLine
 10
-0.32832627443191
 20
-2.479495909600069
 30
0.0
 11
-0.01
 21
-2.161169635168159
 31
0.0
  0
LINE
  5
C36
330
1F
100
AcDbEntity
  8
SK1
  6
CONTINUOUS
370
50
 62
4
100
AcDbLine
 10
2.15116963516816
 20
0.0
 30
0.0
 11
2.469495909600069
 21
0.3183262744319091
 31
0.0
  0
LINE
  5
C37
330
1F
100
AcDbEntity
  8
SK1
  6
CONTINUOUS
370
50
 62
4
100
AcDbLine
 10
-0.625281817185723
 20
-2.422898061760609
 30
0.0
 11
-0.01
 21
-1.807616244574886
 31
0.0
  0
LINE
  5
C38
330
1F
100
AcDbEntity
  8
SK1
  6
CONTINUOUS
370
50
 62
4
100
AcDbLine
 10
1.797616244574887
 20
0.0
 30
0.0
 11
2.412898061760609
 21
0.6152818171857222
 31
0.0
  0
LINE
  5
C39
330
1F
100
AcDbEntity
  8
SK1
  6
CONTINUOUS
370
50
 62
4
100
AcDbLine
 10
-0.8935965231639721
 20
-2.337659377145585
 30
0.0
 11
-0.01
 21
-1.454062853981614
 31
0.0
  0
LINE
  5
C3A
330
1F
100
AcDbEntity
  8
SK1
  6
CONTINUOUS
370
50
 62
4
100
AcDbLine
 10
1.444062853981614
 20
0.0
 30
0.0
 11
2.327659377145586
 21
0.8835965231639715
 31
0.0
  0
LINE
  5
C3B
330
1F
100
AcDbEntity
  8
SK1
  6
CONTINUOUS
370
50
 62
4
100
AcDbLine
 10
-1.138779664263143
 20
-2.229289127651483
 30
0.0
 11
-0.01
 21
-1.100509463388341
 31
0.0
  0
LINE
  5
C3C
330
1F
100
AcDbEntity
  8
SK1
  6
CONTINUOUS
370
50
 62
4
100
AcDbLine
 10
1.090509463388341
 20
0.0
 30
0.0
 11
2.219289127651484
 21
1.128779664263142
 31
0.0
  0
LINE
  5
C3D
330
1F
100
AcDbEntity
  8
SK1
  6
CONTINUOUS
370
50
 62
4
100
AcDbLine
 10
-1.364032791010379
 20
-2.100988863805446
 30
0.0
 11
-0.01
 21
-0.7469560727950677
 31
0.0
  0
LINE
  5
C3E
330
1F
100
AcDbEntity
  8
SK1
  6
CONTINUOUS
370
50
 62
4
100
AcDbLine
 10
0.736956072795068
 20
0.0
 30
0.0
 11
2.090988863805447
 21
1.354032791010378
 31
0.0
  0
LINE
  5
C3F
330
1F
100
AcDbEntity
  8
SK1
  6
CONTINUOUS
370
50
 62
4
100
AcDbLine
 10
-1.569387394659872
 20
-1.952790076861666
 30
0.0
 11
-0.01
 21
-0.3934026822017946
 31
0.0
  0
LINE
  5
C40
330
1F
100
AcDbEntity
  8
SK1
  6
CONTINUOUS
370
50
 62
4
100
AcDbLine
 10
0.3834026822017948
 20
0.0
 30
0.0
 11
1.942790076861667
 21
1.559387394659871
 31
0.0
  0
LINE
  5
C41
330
1F
100
AcDbEntity
  8
SK1
  6
CONTINUOUS
370
50
 62
4
100
AcDbLine
 10
-1.756970020883365
 20
-1.786819312491886
 30
0.0
 11
-0.01
 21
-0.0398492916085216
 31
0.0
  0
LINE
  5
C42
330
1F
100
AcDbEntity
  8
SK1
  6
CONTINUOUS
370
50
 62
4
100
AcDbLine
 10
0.0298492916085216
 20
0.0
 30
0.0
 11
1.776819312491887
 21
1.746970020883364
 31
0.0
  0
LINE
  5
C43
330
1F
100
AcDbEntity
  8
SK1
  6
CONTINUOUS
370
50
 62
4
100
AcDbLine
 10
-1.927371878232655
 20
-1.603667779247902
 30
0.0
 11
-0.3237040989847517
 21
0.0
 31
0.0
  0
LINE
  5
C44
330
1F
100
AcDbEntity
  8
SK1
  6
CONTINUOUS
370
50
 62
4
100
AcDbLine
 10
-0.01
 20
0.3137040989847515
 30
0.0
 11
1.593667779247903
 21
1.917371878232654
 31
0.0
  0
LINE
  5
C45
330
1F
100
AcDbEntity
  8
SK1
  6
CONTINUOUS
370
50
 62
4
100
AcDbLine
 10
-2.078741231122433
 20
-1.401483741544407
 30
0.0
 11
-0.6772574895780249
 21
0.0
 31
0.0
  0
LINE
  5
C46
330
1F
100
AcDbEntity
  8
SK1
  6
CONTINUOUS
370
50
 62
4
100
AcDbLine
 10
-0.01
 20
0.6672574895780246
 30
0.0
 11
1.391483741544409
 21
2.068741231122432
 31
0.0
  0
LINE
  5
C47
330
1F
100
AcDbEntity
  8
SK1
  6
CONTINUOUS
370
50
 62
4
100
AcDbLine
 10
-2.2123876557675
 20
-1.181576775596201
 30
0.0
 11
-1.030810880171298
 21
0.0
 31
0.0
  0
LINE
  5
C48
330
1F
100
AcDbEntity
  8
SK1
  6
CONTINUOUS
370
50
 62
4
100
AcDbLine
 10
-0.01
 20
1.020810880171298
 30
0.0
 11
1.171576775596202
 21
2.202387655767499
 31
0.0
  0
LINE
  5
C49
330
1F
100
AcDbEntity
  8
SK1
  6
CONTINUOUS
370
50
 62
4
100
AcDbLine
 10
-2.325450943493525
 20
-0.9410866727289533
 30
0.0
 11
-1.384364270764571
 21
0.0
 31
0.0
  0
LINE
  5
C4A
330
1F
100
AcDbEntity
  8
SK1
  6
CONTINUOUS
370
50
 62
4
100
AcDbLine
 10
-0.01
 20
1.374364270764571
 30
0.0
 11
0.9310866727289543
 21
2.315450943493524
 31
0.0
  0
LINE
  5
C4B
330
1F
100
AcDbEntity
  8
SK1
  6
CONTINUOUS
370
50
 62
4
100
AcDbLine
 10
-2.415290600131854
 20
-0.6773729387740097
 30
0.0
 11
-1.737917661357844
 21
0.0
 31
0.0
  0
LINE
  5
C4C
330
1F
100
AcDbEntity
  8
SK1
  6
CONTINUOUS
370
50
 62
4
100
AcDbLine
 10
-0.01
 20
1.727917661357844
 30
0.0
 11
0.6673729387740106
 21
2.405290600131854
 31
0.0
  0
LINE
  5
C4D
330
1F
100
AcDbEntity
  8
SK1
  6
CONTINUOUS
370
50
 62
4
100
AcDbLine
 10
-2.478598823056026
 20
-0.3871277711049084
 30
0.0
 11
-2.091471051951117
 21
0.0
 31
0.0
  0
LINE
  5
C4E
330
1F
100
AcDbEntity
  8
SK1
  6
CONTINUOUS
370
50
 62
4
100
AcDbLine
 10
-0.01
 20
2.081471051951117
 30
0.0
 11
0.3771277711049085
 21
2.468598823056025
 31
0.0
  0
LINE
  5
C4F
330
1F
100
AcDbEntity
  8
SK1
  6
CONTINUOUS
370
50
 62
4
100
AcDbLine
 10
-2.508020276172772
 20
-0.0629958336283822
 30
0.0
 11
-2.44502444254439
 21
0.0
 31
0.0
  0
LINE
  5
C50
330
1F
100
AcDbEntity
  8
SK1
  6
CONTINUOUS
370
50
 62
4
100
AcDbLine
 10
-0.01
 20
2.435024442544389
 30
0.0
 11
0.0529958336283828
 21
2.498020276172772
 31
0.0
  0
LINE
  5
C51
330
1F
100
AcDbEntity
  8
SK1
  6
CONTINUOUS
370
50
 62
4
100
AcDbLine
 10
-2.347336523620827
 20
-0.8844932833271533
 30
0.0
 11
-0.894493283327151
 21
-2.337336523620827
 31
0.0
  0
LINE
  5
C52
330
1F
100
AcDbEntity
  8
SK1
  6
CONTINUOUS
370
50
 62
4
100
AcDbLine
 10
-2.476237059966593
 20
-0.4020393563881135
 30
0.0
 11
-0.4120393563881111
 21
-2.466237059966594
 31
0.0
  0
LINE
  5
C53
330
1F
100
AcDbEntity
  8
SK1
  6
CONTINUOUS
370
50
 62
4
100
AcDbLine
 10
-2.509522297881595
 20
-0.0152007278798383
 30
0.0
 11
-0.0252007278798351
 21
-2.499522297881596
 31
0.0
  0
LINE
  5
C54
330
1F
100
AcDbEntity
  8
SK1
  6
CONTINUOUS
370
50
 62
4
100
AcDbLine
 10
-2.17116963516816
 20
0.0
 30
0.0
 11
-0.01
 21
-2.161169635168158
 31
0.0
  0
LINE
  5
C55
330
1F
100
AcDbEntity
  8
SK1
  6
CONTINUOUS
370
50
 62
4
100
AcDbLine
 10
-1.817616244574888
 20
0.0
 30
0.0
 11
-0.01
 21
-1.807616244574886
 31
0.0
  0
LINE
  5
C56
330
1F
100
AcDbEntity
  8
SK1
  6
CONTINUOUS
370
50
 62
4
100
AcDbLine
 10
-1.464062853981615
 20
0.0
 30
0.0
 11
-0.01
 21
-1.454062853981613
 31
0.0
  0
LINE
  5
C57
330
1F
100
AcDbEntity
  8
SK1
  6
CONTINUOUS
370
50
 62
4
100
AcDbLine
 10
-1.110509463388341
 20
0.0
 30
0.0
 11
-0.01
 21
-1.10050946338834
 31
0.0
  0
LINE
  5
C58
330
1F
100
AcDbEntity
  8
SK1
  6
CONTINUOUS
370
50
 62
4
100
AcDbLine
 10
-0.7569560727950676
 20
0.0
 30
0.0
 11
-0.01
 21
-0.7469560727950668
 31
0.0
  0
LINE
  5
C59
330
1F
100
AcDbEntity
  8
SK1
  6
CONTINUOUS
370
50
 62
4
100
AcDbLine
 10
-0.4034026822017942
 20
0.0
 30
0.0
 11
-0.01
 21
-0.3934026822017938
 31
0.0
  0
LINE
  5
C5A
330
1F
100
AcDbEntity
  8
SK1
  6
CONTINUOUS
370
50
 62
4
100
AcDbLine
 10
-0.0498492916085216
 20
0.0
 30
0.0
 11
-0.01
 21
-0.0398492916085216
 31
0.0
  0
LINE
  5
C5B
330
1F
100
AcDbEntity
  8
SK1
  6
CONTINUOUS
370
50
 62
4
100
AcDbLine
 10
-0.01
 20
0.3137040989847515
 30
0.0
 11
0.3037040989847518
 21
0.0
 31
0.0
  0
LINE
  5
C5C
330
1F
100
AcDbEntity
  8
SK1
  6
CONTINUOUS
370
50
 62
4
100
AcDbLine
 10
-0.01
 20
0.6672574895780246
 30
0.0
 11
0.6572574895780253
 21
0.0
 31
0.0
  0
LINE
  5
C5D
330
1F
100
AcDbEntity
  8
SK1
  6
CONTINUOUS
370
50
 62
4
100
AcDbLine
 10
-0.01
 20
1.020810880171298
 30
0.0
 11
1.010810880171299
 21
0.0
 31
0.0
  0
LINE
  5
C5E
330
1F
100
AcDbEntity
  8
SK1
  6
CONTINUOUS
370
50
 62
4
100
AcDbLine
 10
-0.01
 20
1.37436427076457
 30
0.0
 11
1.364364270764571
 21
0.0
 31
0.0
  0
LINE
  5
C5F
330
1F
100
AcDbEntity
  8
SK1
  6
CONTINUOUS
370
50
 62
4
100
AcDbLine
 10
-0.01
 20
1.727917661357843
 30
0.0
 11
1.717917661357845
 21
0.0
 31
0.0
  0
LINE
  5
C60
330
1F
100
AcDbEntity
  8
SK1
  6
CONTINUOUS
370
50
 62
4
100
AcDbLine
 10
-0.01
 20
2.081471051951116
 30
0.0
 11
2.071471051951118
 21
0.0
 31
0.0
  0
LINE
  5
C61
330
1F
100
AcDbEntity
  8
SK1
  6
CONTINUOUS
370
50
 62
4
100
AcDbLine
 10
-0.01
 20
2.435024442544389
 30
0.0
 11
2.425024442544392
 21
0.0
 31
0.0
  0
LINE
  5
C62
330
1F
100
AcDbEntity
  8
SK1
  6
CONTINUOUS
370
50
 62
4
100
AcDbLine
 10
0.2977647139123103
 20
2.480813119225352
 30
0.0
 11
2.470813119225352
 21
0.307764713912313
 31
0.0
  0
LINE
  5
C63
330
1F
100
AcDbEntity
  8
SK1
  6
CONTINUOUS
370
50
 62
4
100
AcDbLine
 10
0.7511924397506667
 20
2.380938783980268
 30
0.0
 11
2.370938783980268
 21
0.7611924397506691
 31
0.0
  0
LINE
  5
C64
330
1F
100
AcDbEntity
  8
SK1
  6
CONTINUOUS
370
50
 62
4
100
AcDbLine
 10
1.47586376213526
 20
2.009820852188948
 30
0.0
 11
1.999820852188946
 21
1.485863762135263
 31
0.0
  0
LINE
  5
C65
330
1F
100
AcDbEntity
  8
4
  6
LONGDASH_DASH
370
25
 62
2
100
AcDbLine
 10
-0.01
 20
0.0
 30
0.0
 11
6.977
 21
0.0
 31
0.0
  0
LINE
  5
C66
330
1F
100
AcDbEntity
  8
SK4
  6
LONGDASH_DASH
370
25
 62
2
100
AcDbLine
 10
-49.023
 20
0.0
 30
0.0
 11
12.977
 21
0.0
 31
0.0
  0
LINE
  5
C67
330
1F
100
AcDbEntity
  8
INFTOTAL
  6
CONTINUOUS
370
18
 62
9
100
AcDbLine
 10
-82.525311
 20
-37.40001100000001
 30
0.0
 11
53.874711
 21
-37.40001100000001
 31
0.0
  0
LINE
  5
C68
330
1F
100
AcDbEntity
  8
INFTOTAL
  6
CONTINUOUS
370
18
 62
9
100
AcDbLine
 10
53.874711
 20
-37.40001100000001
 30
0.0
 11
53.874711
 21
59.40001100000001
 31
0.0
  0
LINE
  5
C69
330
1F
100
AcDbEntity
  8
INFTOTAL
  6
CONTINUOUS
370
18
 62
9
100
AcDbLine
 10
53.874711
 20
59.40001100000001
 30
0.0
 11
-82.525311
 21
59.40001100000001
 31
0.0
  0
LINE
  5
C6A
330
1F
100
AcDbEntity
  8
INFTOTAL
  6
CONTINUOUS
370
18
 62
9
100
AcDbLine
 10
-82.525311
 20
59.40001100000001
 30
0.0
 11
-82.525311
 21
-37.40001100000001
 31
0.0
  0
ENDSEC
  0
SECTION
  2
OBJECTS
  0
DICTIONARY
  5
C
330
0
100
AcDbDictionary
281
     1
  3
ACAD_GROUP
350
D
  3
ACAD_LAYOUT
350
1A
  3
ACAD_MATERIAL
350
3B
  3
ACAD_MLEADERSTYLE
350
C6D
  3
ACAD_MLINESTYLE
350
17
  3
ACAD_PLOTSETTINGS
350
19
  3
ACAD_PLOTSTYLENAME
350
E
  3
ACAD_SCALELIST
350
412
  3
ACAD_VISUALSTYLE
350
2A
  3
AcDbVariableDictionary
350
C6B
  0
DICTIONARY
  5
D
102
{ACAD_REACTORS
330
C
102
}
330
C
100
AcDbDictionary
281
     1
  0
DICTIONARY
  5
1A
102
{ACAD_REACTORS
330
C
102
}
330
C
100
AcDbDictionary
281
     1
  3
Layout1
350
1E
  3
Layout2
350
26
  3
Model
350
22
  0
DICTIONARY
  5
3B
102
{ACAD_REACTORS
330
C
102
}
330
C
100
AcDbDictionary
281
     1
  3
ByBlock
350
3D
  3
ByLayer
350
3C
  3
Global
350
3E
  0
DICTIONARY
  5
C6D
102
{ACAD_REACTORS
330
C
102
}
330
C
100
AcDbDictionary
281
     1
  0
DICTIONARY
  5
17
102
{ACAD_REACTORS
330
C
102
}
330
C
100
AcDbDictionary
281
     1
  3
Standard
350
18
  0
DICTIONARY
  5
19
102
{ACAD_REACTORS
330
C
102
}
330
C
100
AcDbDictionary
281
     1
  0
ACDBDICTIONARYWDFLT
  5
E
102
{ACAD_REACTORS
330
C
102
}
330
C
100
AcDbDictionary
281
     1
  3
Normal
350
F
100
AcDbDictionaryWithDefault
340
F
  0
DICTIONARY
  5
412
102
{ACAD_REACTORS
330
C
102
}
330
C
100
AcDbDictionary
281
     1
  3
A0
350
413
  3
A1
350
414
  3
A2
350
415
  3
A3
350
416
  3
A4
350
417
  3
A5
350
418
  3
A6
350
419
  3
A7
350
41A
  3
A8
350
41B
  3
A9
350
41C
  3
B0
350
41D
  3
B1
350
41E
  3
B2
350
41F
  3
B3
350
420
  3
B4
350
421
  3
B5
350
422
  3
B6
350
423
  3
B7
350
424
  3
B8
350
425
  3
B9
350
426
  3
C0
350
427
  3
C1
350
428
  3
C2
350
429
  3
C3
350
42A
  3
C4
350
42B
  3
C5
350
42C
  3
C6
350
42D
  3
C7
350
42E
  3
C8
350
42F
  3
C9
350
430
  3
D0
350
431
  3
D1
350
432
  3
D2
350
433
  0
DICTIONARY
  5
2A
102
{ACAD_REACTORS
330
C
102
}
330
C
100
AcDbDictionary
281
     1
  3
2dWireframe
350
2F
  3
3D Hidden
350
31
  3
3dWireframe
350
30
  3
Basic
350
32
  3
Brighten
350
36
  3
ColorChange
350
3A
  3
Conceptual
350
34
  3
Dim
350
35
  3
Facepattern
350
39
  3
Flat
350
2B
  3
FlatWithEdges
350
2C
  3
Gouraud
350
2D
  3
GouraudWithEdges
350
2E
  3
Linepattern
350
38
  3
Realistic
350
33
  3
Thicken
350
37
  0
DICTIONARY
  5
C6B
102
{ACAD_REACTORS
330
C
102
}
330
C
100
AcDbDictionary
281
     1
  3
CANNOSCALE
350
C70
  3
DIMASSOC
350
C71
  3
HIDETEXT
350
C72
  3
PSOLHEIGHT
350
C6F
  3
PSOLWIDTH
350
C6E
  0
LAYOUT
  5
1E
102
{ACAD_REACTORS
330
1A
102
}
330
1A
100
AcDbPlotSettings
  1

  2
none_device
  4

  6

 40
0.0
 41
0.0
 42
0.0
 43
0.0
 44
0.0
 45
0.0
 46
0.0
 47
0.0
 48
0.0
 49
0.0
140
0.0
141
0.0
142
1.0
143
1.0
 70
   688
 72
     0
 73
     0
 74
     5
  7

 75
    16
147
1.0
148
0.0
149
0.0
100
AcDbLayout
  1
Layout1
 70
     1
 71
     1
 10
0.0
 20
0.0
 11
420.0
 21
297.0
 12
0.0
 22
0.0
 32
0.0
 14
1.000000000000000E+20
 24
1.000000000000000E+20
 34
1.000000000000000E+20
 15
-1.000000000000000E+20
 25
-1.000000000000000E+20
 35
-1.000000000000000E+20
146
0.0
 13
0.0
 23
0.0
 33
0.0
 16
1.0
 26
0.0
 36
0.0
 17
0.0
 27
1.0
 37
0.0
 76
     0
330
1B
  0
LAYOUT
  5
26
102
{ACAD_REACTORS
330
1A
102
}
330
1A
100
AcDbPlotSettings
  1

  2
none_device
  4

  6

 40
0.0
 41
0.0
 42
0.0
 43
0.0
 44
0.0
 45
0.0
 46
0.0
 47
0.0
 48
0.0
 49
0.0
140
0.0
141
0.0
142
1.0
143
1.0
 70
   688
 72
     0
 73
     0
 74
     5
  7

 75
    16
147
1.0
148
0.0
149
0.0
100
AcDbLayout
  1
Layout2
 70
     1
 71
     2
 10
0.0
 20
0.0
 11
0.0
 21
0.0
 12
0.0
 22
0.0
 32
0.0
 14
0.0
 24
0.0
 34
0.0
 15
0.0
 25
0.0
 35
0.0
146
0.0
 13
0.0
 23
0.0
 33
0.0
 16
1.0
 26
0.0
 36
0.0
 17
0.0
 27
1.0
 37
0.0
 76
     0
330
23
  0
LAYOUT
  5
22
102
{ACAD_REACTORS
330
1A
102
}
330
1A
100
AcDbPlotSettings
  1

  2
none_device
  4

  6

 40
0.0
 41
0.0
 42
0.0
 43
0.0
 44
0.0
 45
0.0
 46
0.0
 47
0.0
 48
0.0
 49
0.0
140
0.0
141
0.0
142
1.0
143
1.0
 70
  1712
 72
     0
 73
     0
 74
     0
  7

 75
     0
147
1.0
148
0.0
149
0.0
100
AcDbLayout
  1
Model
 70
     1
 71
     0
 10
0.0
 20
0.0
 11
420.0
 21
297.0
 12
0.0
 22
0.0
 32
0.0
 14
0.0
 24
0.0
 34
0.0
 15
25.0
 25
35.0
 35
0.0
146
0.0
 13
0.0
 23
0.0
 33
0.0
 16
1.0
 26
0.0
 36
0.0
 17
0.0
 27
1.0
 37
0.0
 76
     0
330
1F
331
29
  0
MATERIAL
  5
3D
102
{ACAD_REACTORS
330
3B
102
}
102
{ACAD_XDICTIONARY
360
C95
102
}
330
3B
100
AcDbMaterial
  1
ByBlock
  0
MATERIAL
  5
3C
102
{ACAD_REACTORS
330
3B
102
}
102
{ACAD_XDICTIONARY
360
C93
102
}
330
3B
100
AcDbMaterial
  1
ByLayer
  0
MATERIAL
  5
3E
102
{ACAD_REACTORS
330
3B
102
}
102
{ACAD_XDICTIONARY
360
C97
102
}
330
3B
100
AcDbMaterial
  1
Global
  0
MLINESTYLE
  5
18
102
{ACAD_REACTORS
330
17
102
}
330
17
100
AcDbMlineStyle
  2
Standard
 70
     0
  3

 62
   256
 51
90.0
 52
90.0
 71
     2
 49
0.5
 62
   256
  6
BYLAYER
 49
-0.5
 62
   256
  6
BYLAYER
  0
ACDBPLACEHOLDER
  5
F
102
{ACAD_REACTORS
330
E
102
}
330
E
  0
SCALE
  5
413
102
{ACAD_REACTORS
330
412
102
}
330
412
100
AcDbScale
 70
     0
300
1:1
140
1.0
141
1.0
290
     1
  0
SCALE
  5
414
102
{ACAD_REACTORS
330
412
102
}
330
412
100
AcDbScale
 70
     0
300
1:2
140
1.0
141
2.0
290
     0
  0
SCALE
  5
415
102
{ACAD_REACTORS
330
412
102
}
330
412
100
AcDbScale
 70
     0
300
1:4
140
1.0
141
4.0
290
     0
  0
SCALE
  5
416
102
{ACAD_REACTORS
330
412
102
}
330
412
100
AcDbScale
 70
     0
300
1:5
140
1.0
141
5.0
290
     0
  0
SCALE
  5
417
102
{ACAD_REACTORS
330
412
102
}
330
412
100
AcDbScale
 70
     0
300
1:8
140
1.0
141
8.0
290
     0
  0
SCALE
  5
418
102
{ACAD_REACTORS
330
412
102
}
330
412
100
AcDbScale
 70
     0
300
1:10
140
1.0
141
10.0
290
     0
  0
SCALE
  5
419
102
{ACAD_REACTORS
330
412
102
}
330
412
100
AcDbScale
 70
     0
300
1:16
140
1.0
141
16.0
290
     0
  0
SCALE
  5
41A
102
{ACAD_REACTORS
330
412
102
}
330
412
100
AcDbScale
 70
     0
300
1:20
140
1.0
141
20.0
290
     0
  0
SCALE
  5
41B
102
{ACAD_REACTORS
330
412
102
}
330
412
100
AcDbScale
 70
     0
300
1:30
140
1.0
141
30.0
290
     0
  0
SCALE
  5
41C
102
{ACAD_REACTORS
330
412
102
}
330
412
100
AcDbScale
 70
     0
300
1:40
140
1.0
141
40.0
290
     0
  0
SCALE
  5
41D
102
{ACAD_REACTORS
330
412
102
}
330
412
100
AcDbScale
 70
     0
300
1:50
140
1.0
141
50.0
290
     0
  0
SCALE
  5
41E
102
{ACAD_REACTORS
330
412
102
}
330
412
100
AcDbScale
 70
     0
300
1:100
140
1.0
141
100.0
290
     0
  0
SCALE
  5
41F
102
{ACAD_REACTORS
330
412
102
}
330
412
100
AcDbScale
 70
     0
300
2:1
140
2.0
141
1.0
290
     0
  0
SCALE
  5
420
102
{ACAD_REACTORS
330
412
102
}
330
412
100
AcDbScale
 70
     0
300
4:1
140
4.0
141
1.0
290
     0
  0
SCALE
  5
421
102
{ACAD_REACTORS
330
412
102
}
330
412
100
AcDbScale
 70
     0
300
8:1
140
8.0
141
1.0
290
     0
  0
SCALE
  5
422
102
{ACAD_REACTORS
330
412
102
}
330
412
100
AcDbScale
 70
     0
300
10:1
140
10.0
141
1.0
290
     0
  0
SCALE
  5
423
102
{ACAD_REACTORS
330
412
102
}
330
412
100
AcDbScale
 70
     0
300
100:1
140
100.0
141
1.0
290
     0
  0
SCALE
  5
424
102
{ACAD_REACTORS
330
412
102
}
330
412
100
AcDbScale
 70
     0
300
1/128" = 1'-0"
140
0.0078125
141
12.0
290
     0
  0
SCALE
  5
425
102
{ACAD_REACTORS
330
412
102
}
330
412
100
AcDbScale
 70
     0
300
1/64" = 1'-0"
140
0.015625
141
12.0
290
     0
  0
SCALE
  5
426
102
{ACAD_REACTORS
330
412
102
}
330
412
100
AcDbScale
 70
     0
300
1/32" = 1'-0"
140
0.03125
141
12.0
290
     0
  0
SCALE
  5
427
102
{ACAD_REACTORS
330
412
102
}
330
412
100
AcDbScale
 70
     0
300
1/16" = 1'-0"
140
0.0625
141
12.0
290
     0
  0
SCALE
  5
428
102
{ACAD_REACTORS
330
412
102
}
330
412
100
AcDbScale
 70
     0
300
3/32" = 1'-0"
140
0.09375
141
12.0
290
     0
  0
SCALE
  5
429
102
{ACAD_REACTORS
330
412
102
}
330
412
100
AcDbScale
 70
     0
300
1/8" = 1'-0"
140
0.125
141
12.0
290
     0
  0
SCALE
  5
42A
102
{ACAD_REACTORS
330
412
102
}
330
412
100
AcDbScale
 70
     0
300
3/16" = 1'-0"
140
0.1875
141
12.0
290
     0
  0
SCALE
  5
42B
102
{ACAD_REACTORS
330
412
102
}
330
412
100
AcDbScale
 70
     0
300
1/4" = 1'-0"
140
0.25
141
12.0
290
     0
  0
SCALE
  5
42C
102
{ACAD_REACTORS
330
412
102
}
330
412
100
AcDbScale
 70
     0
300
3/8" = 1'-0"
140
0.375
141
12.0
290
     0
  0
SCALE
  5
42D
102
{ACAD_REACTORS
330
412
102
}
330
412
100
AcDbScale
 70
     0
300
1/2" = 1'-0"
140
0.5
141
12.0
290
     0
  0
SCALE
  5
42E
102
{ACAD_REACTORS
330
412
102
}
330
412
100
AcDbScale
 70
     0
300
3/4" = 1'-0"
140
0.75
141
12.0
290
     0
  0
SCALE
  5
42F
102
{ACAD_REACTORS
330
412
102
}
330
412
100
AcDbScale
 70
     0
300
1" = 1'-0"
140
1.0
141
12.0
290
     0
  0
SCALE
  5
430
102
{ACAD_REACTORS
330
412
102
}
330
412
100
AcDbScale
 70
     0
300
1-1/2" = 1'-0"
140
1.5
141
12.0
290
     0
  0
SCALE
  5
431
102
{ACAD_REACTORS
330
412
102
}
330
412
100
AcDbScale
 70
     0
300
3" = 1'-0"
140
3.0
141
12.0
290
     0
  0
SCALE
  5
432
102
{ACAD_REACTORS
330
412
102
}
330
412
100
AcDbScale
 70
     0
300
6" = 1'-0"
140
6.0
141
12.0
290
     0
  0
SCALE
  5
433
102
{ACAD_REACTORS
330
412
102
}
330
412
100
AcDbScale
 70
     0
300
1'-0" = 1'-0"
140
12.0
141
12.0
290
     0
  0
VISUALSTYLE
  5
2F
102
{ACAD_REACTORS
330
2A
102
}
102
{ACAD_XDICTIONARY
360
C7B
102
}
330
2A
100
AcDbVisualStyle
  2
2dWireframe
 70
     4
 71
     0
 72
     2
 73
     0
 90
        0
 40
-0.6
 41
-30.0
 62
     5
 63
     7
 74
     1
 91
        4
 64
     7
 65
   257
 75
     1
175
     1
 42
1.0
 92
        0
 66
   257
 43
1.0
 76
     1
 77
     6
 78
     2
 67
     7
 79
     5
170
     0
171
     0
290
     0
174
     0
 93
        1
 44
0.0
173
     0
291
     0
 45
0.0
1001
ACAD
1000
AcDbSavedByObjectVersion
1070
     0
  0
VISUALSTYLE
  5
31
102
{ACAD_REACTORS
330
2A
102
}
102
{ACAD_XDICTIONARY
360
C7F
102
}
330
2A
100
AcDbVisualStyle
  2
3D Hidden
 70
     6
 71
     1
 72
     2
 73
     2
 90
        0
 40
-0.6
 41
-30.0
 62
     5
 63
     7
 74
     2
 91
        2
 64
     7
 65
   257
 75
     2
175
     1
 42
40.0
 92
        0
 66
   257
 43
1.0
 76
     1
 77
     6
 78
     2
 67
     7
 79
     3
170
     0
171
     0
290
     0
174
     0
 93
        1
 44
0.0
173
     0
291
     0
 45
0.0
1001
ACAD
1000
AcDbSavedByObjectVersion
1070
     0
  0
VISUALSTYLE
  5
30
102
{ACAD_REACTORS
330
2A
102
}
102
{ACAD_XDICTIONARY
360
C7D
102
}
330
2A
100
AcDbVisualStyle
  2
3dWireframe
 70
     5
 71
     0
 72
     2
 73
     0
 90
        0
 40
-0.6
 41
-30.0
 62
     5
 63
     7
 74
     1
 91
        4
 64
     7
 65
   257
 75
     1
175
     1
 42
1.0
 92
        0
 66
   257
 43
1.0
 76
     1
 77
     6
 78
     2
 67
     7
 79
     5
170
     0
171
     0
290
     0
174
     0
 93
        1
 44
0.0
173
     0
291
     0
 45
0.0
1001
ACAD
1000
AcDbSavedByObjectVersion
1070
     0
  0
VISUALSTYLE
  5
32
102
{ACAD_REACTORS
330
2A
102
}
102
{ACAD_XDICTIONARY
360
C81
102
}
330
2A
100
AcDbVisualStyle
  2
Basic
 70
     7
 71
     1
 72
     0
 73
     1
 90
        0
 40
-0.6
 41
-30.0
 62
     5
 63
     7
 74
     0
 91
        4
 64
     7
 65
   257
 75
     1
175
     1
 42
1.0
 92
        8
 66
     7
 43
1.0
 76
     1
 77
     6
 78
     2
 67
     7
 79
     5
170
     0
171
     0
290
     0
174
     0
 93
        1
 44
0.0
173
     0
291
     1
 45
0.0
1001
ACAD
1000
AcDbSavedByObjectVersion
1070
     0
  0
VISUALSTYLE
  5
36
102
{ACAD_REACTORS
330
2A
102
}
102
{ACAD_XDICTIONARY
360
C89
102
}
330
2A
100
AcDbVisualStyle
  2
Brighten
 70
    12
 71
     2
 72
     2
 73
     0
 90
        0
 40
-0.6
 41
-30.0
 62
     5
 63
     7
 74
     1
 91
        4
 64
     7
 65
   257
 75
     1
175
     1
 42
1.0
 92
        8
 66
     7
 43
1.0
 76
     1
 77
     6
 78
     2
 67
     7
 79
     5
170
     0
171
     0
290
     0
174
     0
 93
        1
 44
50.0
173
     0
291
     1
 45
0.0
1001
ACAD
1000
AcDbSavedByObjectVersion
1070
     0
  0
VISUALSTYLE
  5
3A
102
{ACAD_REACTORS
330
2A
102
}
102
{ACAD_XDICTIONARY
360
C91
102
}
330
2A
100
AcDbVisualStyle
  2
ColorChange
 70
    16
 71
     2
 72
     2
 73
     3
 90
        0
 40
-0.6
 41
-30.0
 62
     5
 63
     8
 74
     1
 91
        4
 64
     7
 65
   257
 75
     1
175
     1
 42
1.0
 92
        8
 66
     8
 43
1.0
 76
     1
 77
     6
 78
     2
 67
     7
 79
     5
170
     0
171
     0
290
     0
174
     0
 93
        1
 44
0.0
173
     0
291
     1
 45
0.0
1001
ACAD
1000
AcDbSavedByObjectVersion
1070
     0
  0
VISUALSTYLE
  5
34
102
{ACAD_REACTORS
330
2A
102
}
102
{ACAD_XDICTIONARY
360
C85
102
}
330
2A
100
AcDbVisualStyle
  2
Conceptual
 70
     9
 71
     3
 72
     2
 73
     0
 90
        0
 40
-0.6
 41
-30.0
 62
     5
 63
     7
 74
     2
 91
        2
 64
     7
 65
   257
 75
     1
175
     1
 42
40.0
 92
        8
 66
     7
 43
1.0
 76
     1
 77
     6
 78
     2
 67
     7
 79
     3
170
     0
171
     0
290
     0
174
     0
 93
        1
 44
0.0
173
     0
291
     0
 45
0.0
1001
ACAD
1000
AcDbSavedByObjectVersion
1070
     0
  0
VISUALSTYLE
  5
35
102
{ACAD_REACTORS
330
2A
102
}
102
{ACAD_XDICTIONARY
360
C87
102
}
330
2A
100
AcDbVisualStyle
  2
Dim
 70
    11
 71
     2
 72
     2
 73
     0
 90
        0
 40
-0.6
 41
-30.0
 62
     5
 63
     7
 74
     1
 91
        4
 64
     7
 65
   257
 75
     1
175
     1
 42
1.0
 92
        8
 66
     7
 43
1.0
 76
     1
 77
     6
 78
     2
 67
     7
 79
     5
170
     0
171
     0
290
     0
174
     0
 93
        1
 44
-50.0
173
     0
291
     1
 45
0.0
1001
ACAD
1000
AcDbSavedByObjectVersion
1070
     0
  0
VISUALSTYLE
  5
39
102
{ACAD_REACTORS
330
2A
102
}
102
{ACAD_XDICTIONARY
360
C8F
102
}
330
2A
100
AcDbVisualStyle
  2
Facepattern
 70
    15
 71
     2
 72
     2
 73
     0
 90
        0
 40
-0.6
 41
-30.0
 62
     5
 63
     7
 74
     1
 91
        4
 64
     7
 65
   257
 75
     1
175
     1
 42
1.0
 92
        8
 66
     7
 43
1.0
 76
     1
 77
     6
 78
     2
 67
     7
 79
     5
170
     0
171
     0
290
     0
174
     0
 93
        1
 44
0.0
173
     0
291
     1
 45
0.0
1001
ACAD
1000
AcDbSavedByObjectVersion
1070
     0
  0
VISUALSTYLE
  5
2B
102
{ACAD_REACTORS
330
2A
102
}
102
{ACAD_XDICTIONARY
360
C73
102
}
330
2A
100
AcDbVisualStyle
  2
Flat
 70
     0
 71
     2
 72
     1
 73
     1
 90
        2
 40
-0.6
 41
30.0
 62
     5
 63
     7
 74
     0
 91
        4
 64
     7
 65
   257
 75
     1
175
     1
 42
1.0
 92
        8
 66
     7
 43
1.0
 76
     1
 77
     6
 78
     2
 67
     7
 79
     5
170
     0
171
     0
290
     0
174
     0
 93
       13
 44
0.0
173
     0
291
     1
 45
0.0
1001
ACAD
1000
AcDbSavedByObjectVersion
1070
     0
  0
VISUALSTYLE
  5
2C
102
{ACAD_REACTORS
330
2A
102
}
102
{ACAD_XDICTIONARY
360
C75
102
}
330
2A
100
AcDbVisualStyle
  2
FlatWithEdges
 70
     1
 71
     2
 72
     1
 73
     1
 90
        2
 40
-0.6
 41
30.0
 62
     5
 63
     7
 74
     1
 91
        4
 64
     7
 65
   257
 75
     1
175
     1
 42
1.0
 92
        0
 66
   257
 43
1.0
 76
     1
 77
     6
 78
     2
 67
     7
 79
     5
170
     0
171
     0
290
     0
174
     0
 93
       13
 44
0.0
173
     0
291
     1
 45
0.0
1001
ACAD
1000
AcDbSavedByObjectVersion
1070
     0
  0
VISUALSTYLE
  5
2D
102
{ACAD_REACTORS
330
2A
102
}
102
{ACAD_XDICTIONARY
360
C77
102
}
330
2A
100
AcDbVisualStyle
  2
Gouraud
 70
     2
 71
     2
 72
     2
 73
     1
 90
        2
 40
-0.6
 41
30.0
 62
     5
 63
     7
 74
     0
 91
        4
 64
     7
 65
   257
 75
     1
175
     1
 42
1.0
 92
        0
 66
     7
 43
1.0
 76
     1
 77
     6
 78
     2
 67
     7
 79
     5
170
     0
171
     0
290
     0
174
     0
 93
       13
 44
0.0
173
     0
291
     1
 45
0.0
1001
ACAD
1000
AcDbSavedByObjectVersion
1070
     0
  0
VISUALSTYLE
  5
2E
102
{ACAD_REACTORS
330
2A
102
}
102
{ACAD_XDICTIONARY
360
C79
102
}
330
2A
100
AcDbVisualStyle
  2
GouraudWithEdges
 70
     3
 71
     2
 72
     2
 73
     1
 90
        2
 40
-0.6
 41
30.0
 62
     5
 63
     7
 74
     1
 91
        4
 64
     7
 65
   257
 75
     1
175
     1
 42
1.0
 92
        0
 66
   257
 43
1.0
 76
     1
 77
     6
 78
     2
 67
     7
 79
     5
170
     0
171
     0
290
     0
174
     0
 93
       13
 44
0.0
173
     0
291
     1
 45
0.0
1001
ACAD
1000
AcDbSavedByObjectVersion
1070
     0
  0
VISUALSTYLE
  5
38
102
{ACAD_REACTORS
330
2A
102
}
102
{ACAD_XDICTIONARY
360
C8D
102
}
330
2A
100
AcDbVisualStyle
  2
Linepattern
 70
    14
 71
     2
 72
     2
 73
     0
 90
        0
 40
-0.6
 41
-30.0
 62
     5
 63
     7
 74
     1
 91
        4
 64
     7
 65
   257
 75
     7
175
     7
 42
1.0
 92
        8
 66
     7
 43
1.0
 76
     1
 77
     6
 78
     2
 67
     7
 79
     5
170
     0
171
     0
290
     0
174
     0
 93
        1
 44
0.0
173
     0
291
     1
 45
0.0
1001
ACAD
1000
AcDbSavedByObjectVersion
1070
     0
  0
VISUALSTYLE
  5
33
102
{ACAD_REACTORS
330
2A
102
}
102
{ACAD_XDICTIONARY
360
C83
102
}
330
2A
100
AcDbVisualStyle
  2
Realistic
 70
     8
 71
     2
 72
     2
 73
     0
 90
        0
 40
-0.6
 41
-30.0
 62
     5
 63
     7
 74
     1
 91
        0
 64
     7
 65
   257
 75
     1
175
     1
 42
1.0
 92
        8
 66
     8
 43
1.0
 76
     1
 77
     6
 78
     2
 67
     7
 79
     5
170
     0
171
     0
290
     0
174
     0
 93
       13
 44
0.0
173
     0
291
     0
 45
0.0
1001
ACAD
1000
AcDbSavedByObjectVersion
1070
     0
  0
VISUALSTYLE
  5
37
102
{ACAD_REACTORS
330
2A
102
}
102
{ACAD_XDICTIONARY
360
C8B
102
}
330
2A
100
AcDbVisualStyle
  2
Thicken
 70
    13
 71
     2
 72
     2
 73
     0
 90
        0
 40
-0.6
 41
-30.0
 62
     5
 63
     7
 74
     1
 91
        4
 64
     7
 65
   257
 75
     1
175
     1
 42
1.0
 92
       12
 66
     7
 43
1.0
 76
     1
 77
     6
 78
     2
 67
     7
 79
     5
170
     0
171
     0
290
     0
174
     0
 93
        1
 44
0.0
173
     0
291
     1
 45
0.0
1001
ACAD
1000
AcDbSavedByObjectVersion
1070
     0
  0
DICTIONARYVAR
  5
C70
102
{ACAD_REACTORS
330
C6B
102
}
330
C6B
100
DictionaryVariables
280
     0
  1
1:1
  0
DICTIONARYVAR
  5
C71
102
{ACAD_REACTORS
330
C6B
102
}
330
C6B
100
DictionaryVariables
280
     0
  1
2
  0
DICTIONARYVAR
  5
C72
102
{ACAD_REACTORS
330
C6B
102
}
330
C6B
100
DictionaryVariables
280
     0
  1
1
  0
DICTIONARYVAR
  5
C6F
102
{ACAD_REACTORS
330
C6B
102
}
330
C6B
100
DictionaryVariables
280
     0
  1
80.000000
  0
DICTIONARYVAR
  5
C6E
102
{ACAD_REACTORS
330
C6B
102
}
330
C6B
100
DictionaryVariables
280
     0
  1
5.000000
  0
DICTIONARY
  5
C95
330
3D
100
AcDbDictionary
280
     1
281
     1
  3
ACAD_XREC_ROUNDTRIP
360
C96
  0
DICTIONARY
  5
C93
330
3C
100
AcDbDictionary
280
     1
281
     1
  3
ACAD_XREC_ROUNDTRIP
360
C94
  0
DICTIONARY
  5
C97
330
3E
100
AcDbDictionary
280
     1
281
     1
  3
ACAD_XREC_ROUNDTRIP
360
C98
  0
DICTIONARY
  5
C7B
330
2F
100
AcDbDictionary
280
     1
281
     1
  3
ACAD_XREC_ROUNDTRIP
360
C7C
  0
DICTIONARY
  5
C7F
330
31
100
AcDbDictionary
280
     1
281
     1
  3
ACAD_XREC_ROUNDTRIP
360
C80
  0
DICTIONARY
  5
C7D
330
30
100
AcDbDictionary
280
     1
281
     1
  3
ACAD_XREC_ROUNDTRIP
360
C7E
  0
DICTIONARY
  5
C81
330
32
100
AcDbDictionary
280
     1
281
     1
  3
ACAD_XREC_ROUNDTRIP
360
C82
  0
DICTIONARY
  5
C89
330
36
100
AcDbDictionary
280
     1
281
     1
  3
ACAD_XREC_ROUNDTRIP
360
C8A
  0
DICTIONARY
  5
C91
330
3A
100
AcDbDictionary
280
     1
281
     1
  3
ACAD_XREC_ROUNDTRIP
360
C92
  0
DICTIONARY
  5
C85
330
34
100
AcDbDictionary
280
     1
281
     1
  3
ACAD_XREC_ROUNDTRIP
360
C86
  0
DICTIONARY
  5
C87
330
35
100
AcDbDictionary
280
     1
281
     1
  3
ACAD_XREC_ROUNDTRIP
360
C88
  0
DICTIONARY
  5
C8F
330
39
100
AcDbDictionary
280
     1
281
     1
  3
ACAD_XREC_ROUNDTRIP
360
C90
  0
DICTIONARY
  5
C73
330
2B
100
AcDbDictionary
280
     1
281
     1
  3
ACAD_XREC_ROUNDTRIP
360
C74
  0
DICTIONARY
  5
C75
330
2C
100
AcDbDictionary
280
     1
281
     1
  3
ACAD_XREC_ROUNDTRIP
360
C76
  0
DICTIONARY
  5
C77
330
2D
100
AcDbDictionary
280
     1
281
     1
  3
ACAD_XREC_ROUNDTRIP
360
C78
  0
DICTIONARY
  5
C79
330
2E
100
AcDbDictionary
280
     1
281
     1
  3
ACAD_XREC_ROUNDTRIP
360
C7A
  0
DICTIONARY
  5
C8D
330
38
100
AcDbDictionary
280
     1
281
     1
  3
ACAD_XREC_ROUNDTRIP
360
C8E
  0
DICTIONARY
  5
C83
330
33
100
AcDbDictionary
280
     1
281
     1
  3
ACAD_XREC_ROUNDTRIP
360
C84
  0
DICTIONARY
  5
C8B
330
37
100
AcDbDictionary
280
     1
281
     1
  3
ACAD_XREC_ROUNDTRIP
360
C8C
  0
XRECORD
  5
C96
102
{ACAD_REACTORS
330
C95
102
}
330
C95
100
AcDbXrecord
280
     1
102
MATERIAL
148
0.0
149
0.0
149
0.0
 93
        0
 94
      127
282
     0
 72
     1
 77
     1
171
     1
175
     1
179
     1
273
     0
  0
XRECORD
  5
C94
102
{ACAD_REACTORS
330
C93
102
}
330
C93
100
AcDbXrecord
280
     1
102
MATERIAL
148
0.0
149
0.0
149
0.0
 93
        0
 94
      127
282
     0
 72
     1
 77
     1
171
     1
175
     1
179
     1
273
     0
  0
XRECORD
  5
C98
102
{ACAD_REACTORS
330
C97
102
}
330
C97
100
AcDbXrecord
280
     1
102
MATERIAL
148
0.0
149
0.0
149
0.0
 93
        0
 94
      127
282
     0
 72
     1
 77
     1
171
     1
175
     1
179
     1
273
     0
  0
XRECORD
  5
C7C
102
{ACAD_REACTORS
330
C7B
102
}
330
C7B
100
AcDbXrecord
280
     1
102
RTVSPropertyOp0
 70
     1
102
RTVSPropertyOp1
 70
     1
102
RTVSPropertyOp2
 70
     1
102
RTVSPropertyOp3
 70
     1
102
RTVSPropertyOp4
 70
     1
102
RTVSPropertyOp5
 70
     1
102
RTVSPropertyOp6
 70
     1
102
RTVSPropertyOp7
 70
     1
102
RTVSPropertyOp8
 70
     1
102
RTVSPropertyOp9
 70
     1
102
RTVSPropertyOp10
 70
     1
102
RTVSPropertyOp11
 70
     1
102
RTVSPropertyOp12
 70
     1
102
RTVSPropertyOp13
 70
     1
102
RTVSPropertyOp14
 70
     1
102
RTVSPropertyOp15
 70
     1
102
RTVSPropertyOp16
 70
     1
102
RTVSPropertyOp17
 70
     1
102
RTVSPropertyOp18
 70
     1
102
RTVSPropertyOp19
 70
     1
102
RTVSPropertyOp20
 70
     1
102
RTVSPropertyOp21
 70
     1
102
RTVSPropertyOp22
 70
     1
102
RTVSPropertyOp23
 70
     1
102
RTVSPropertyOp24
 70
     1
102
RTVSPropertyOp25
 70
     1
102
RTVSPropertyOp26
 70
     1
102
RTVSPropertyOp27
 70
     1
  0
XRECORD
  5
C80
102
{ACAD_REACTORS
330
C7F
102
}
330
C7F
100
AcDbXrecord
280
     1
102
RTVSPropertyOp0
 70
     1
102
RTVSPropertyOp1
 70
     1
102
RTVSPropertyOp2
 70
     1
102
RTVSPropertyOp3
 70
     1
102
RTVSPropertyOp4
 70
     1
102
RTVSPropertyOp5
 70
     1
102
RTVSPropertyOp6
 70
     1
102
RTVSPropertyOp7
 70
     1
102
RTVSPropertyOp8
 70
     1
102
RTVSPropertyOp9
 70
     1
102
RTVSPropertyOp10
 70
     1
102
RTVSPropertyOp11
 70
     1
102
RTVSPropertyOp12
 70
     1
102
RTVSPropertyOp13
 70
     1
102
RTVSPropertyOp14
 70
     1
102
RTVSPropertyOp15
 70
     1
102
RTVSPropertyOp16
 70
     1
102
RTVSPropertyOp17
 70
     1
102
RTVSPropertyOp18
 70
     1
102
RTVSPropertyOp19
 70
     1
102
RTVSPropertyOp20
 70
     1
102
RTVSPropertyOp21
 70
     1
102
RTVSPropertyOp22
 70
     1
102
RTVSPropertyOp23
 70
     1
102
RTVSPropertyOp24
 70
     1
102
RTVSPropertyOp25
 70
     1
102
RTVSPropertyOp26
 70
     1
102
RTVSPropertyOp27
 70
     1
  0
XRECORD
  5
C7E
102
{ACAD_REACTORS
330
C7D
102
}
330
C7D
100
AcDbXrecord
280
     1
102
RTVSPropertyOp0
 70
     1
102
RTVSPropertyOp1
 70
     1
102
RTVSPropertyOp2
 70
     1
102
RTVSPropertyOp3
 70
     1
102
RTVSPropertyOp4
 70
     1
102
RTVSPropertyOp5
 70
     1
102
RTVSPropertyOp6
 70
     1
102
RTVSPropertyOp7
 70
     1
102
RTVSPropertyOp8
 70
     1
102
RTVSPropertyOp9
 70
     1
102
RTVSPropertyOp10
 70
     1
102
RTVSPropertyOp11
 70
     1
102
RTVSPropertyOp12
 70
     1
102
RTVSPropertyOp13
 70
     1
102
RTVSPropertyOp14
 70
     1
102
RTVSPropertyOp15
 70
     1
102
RTVSPropertyOp16
 70
     1
102
RTVSPropertyOp17
 70
     1
102
RTVSPropertyOp18
 70
     1
102
RTVSPropertyOp19
 70
     1
102
RTVSPropertyOp20
 70
     1
102
RTVSPropertyOp21
 70
     1
102
RTVSPropertyOp22
 70
     1
102
RTVSPropertyOp23
 70
     1
102
RTVSPropertyOp24
 70
     1
102
RTVSPropertyOp25
 70
     1
102
RTVSPropertyOp26
 70
     1
102
RTVSPropertyOp27
 70
     1
  0
XRECORD
  5
C82
102
{ACAD_REACTORS
330
C81
102
}
330
C81
100
AcDbXrecord
280
     1
102
RTVSPropertyOp0
 70
     1
102
RTVSPropertyOp1
 70
     1
102
RTVSPropertyOp2
 70
     1
102
RTVSPropertyOp3
 70
     1
102
RTVSPropertyOp4
 70
     1
102
RTVSPropertyOp5
 70
     1
102
RTVSPropertyOp6
 70
     1
102
RTVSPropertyOp7
 70
     1
102
RTVSPropertyOp8
 70
     1
102
RTVSPropertyOp9
 70
     1
102
RTVSPropertyOp10
 70
     1
102
RTVSPropertyOp11
 70
     1
102
RTVSPropertyOp12
 70
     1
102
RTVSPropertyOp13
 70
     1
102
RTVSPropertyOp14
 70
     1
102
RTVSPropertyOp15
 70
     1
102
RTVSPropertyOp16
 70
     1
102
RTVSPropertyOp17
 70
     1
102
RTVSPropertyOp18
 70
     1
102
RTVSPropertyOp19
 70
     1
102
RTVSPropertyOp20
 70
     1
102
RTVSPropertyOp21
 70
     1
102
RTVSPropertyOp22
 70
     1
102
RTVSPropertyOp23
 70
     1
102
RTVSPropertyOp24
 70
     1
102
RTVSPropertyOp25
 70
     1
102
RTVSPropertyOp26
 70
     1
102
RTVSPropertyOp27
 70
     1
  0
XRECORD
  5
C8A
102
{ACAD_REACTORS
330
C89
102
}
330
C89
100
AcDbXrecord
280
     1
102
RTVSPropertyOp0
 70
     1
102
RTVSPropertyOp1
 70
     1
102
RTVSPropertyOp2
 70
     1
102
RTVSPropertyOp3
 70
     1
102
RTVSPropertyOp4
 70
     1
102
RTVSPropertyOp5
 70
     1
102
RTVSPropertyOp6
 70
     1
102
RTVSPropertyOp7
 70
     1
102
RTVSPropertyOp8
 70
     1
102
RTVSPropertyOp9
 70
     1
102
RTVSPropertyOp10
 70
     1
102
RTVSPropertyOp11
 70
     1
102
RTVSPropertyOp12
 70
     1
102
RTVSPropertyOp13
 70
     1
102
RTVSPropertyOp14
 70
     1
102
RTVSPropertyOp15
 70
     1
102
RTVSPropertyOp16
 70
     1
102
RTVSPropertyOp17
 70
     1
102
RTVSPropertyOp18
 70
     1
102
RTVSPropertyOp19
 70
     1
102
RTVSPropertyOp20
 70
     1
102
RTVSPropertyOp21
 70
     1
102
RTVSPropertyOp22
 70
     1
102
RTVSPropertyOp23
 70
     1
102
RTVSPropertyOp24
 70
     1
102
RTVSPropertyOp25
 70
     1
102
RTVSPropertyOp26
 70
     1
102
RTVSPropertyOp27
 70
     1
  0
XRECORD
  5
C92
102
{ACAD_REACTORS
330
C91
102
}
330
C91
100
AcDbXrecord
280
     1
102
RTVSPropertyOp0
 70
     1
102
RTVSPropertyOp1
 70
     1
102
RTVSPropertyOp2
 70
     1
102
RTVSPropertyOp3
 70
     1
102
RTVSPropertyOp4
 70
     1
102
RTVSPropertyOp5
 70
     1
102
RTVSPropertyOp6
 70
     1
102
RTVSPropertyOp7
 70
     1
102
RTVSPropertyOp8
 70
     1
102
RTVSPropertyOp9
 70
     1
102
RTVSPropertyOp10
 70
     1
102
RTVSPropertyOp11
 70
     1
102
RTVSPropertyOp12
 70
     1
102
RTVSPropertyOp13
 70
     1
102
RTVSPropertyOp14
 70
     1
102
RTVSPropertyOp15
 70
     1
102
RTVSPropertyOp16
 70
     1
102
RTVSPropertyOp17
 70
     1
102
RTVSPropertyOp18
 70
     1
102
RTVSPropertyOp19
 70
     1
102
RTVSPropertyOp20
 70
     1
102
RTVSPropertyOp21
 70
     1
102
RTVSPropertyOp22
 70
     1
102
RTVSPropertyOp23
 70
     1
102
RTVSPropertyOp24
 70
     1
102
RTVSPropertyOp25
 70
     1
102
RTVSPropertyOp26
 70
     1
102
RTVSPropertyOp27
 70
     1
  0
XRECORD
  5
C86
102
{ACAD_REACTORS
330
C85
102
}
330
C85
100
AcDbXrecord
280
     1
102
RTVSPropertyOp0
 70
     1
102
RTVSPropertyOp1
 70
     1
102
RTVSPropertyOp2
 70
     1
102
RTVSPropertyOp3
 70
     1
102
RTVSPropertyOp4
 70
     1
102
RTVSPropertyOp5
 70
     1
102
RTVSPropertyOp6
 70
     1
102
RTVSPropertyOp7
 70
     1
102
RTVSPropertyOp8
 70
     1
102
RTVSPropertyOp9
 70
     1
102
RTVSPropertyOp10
 70
     1
102
RTVSPropertyOp11
 70
     1
102
RTVSPropertyOp12
 70
     1
102
RTVSPropertyOp13
 70
     1
102
RTVSPropertyOp14
 70
     1
102
RTVSPropertyOp15
 70
     1
102
RTVSPropertyOp16
 70
     1
102
RTVSPropertyOp17
 70
     1
102
RTVSPropertyOp18
 70
     1
102
RTVSPropertyOp19
 70
     1
102
RTVSPropertyOp20
 70
     1
102
RTVSPropertyOp21
 70
     1
102
RTVSPropertyOp22
 70
     1
102
RTVSPropertyOp23
 70
     1
102
RTVSPropertyOp24
 70
     1
102
RTVSPropertyOp25
 70
     1
102
RTVSPropertyOp26
 70
     1
102
RTVSPropertyOp27
 70
     1
  0
XRECORD
  5
C88
102
{ACAD_REACTORS
330
C87
102
}
330
C87
100
AcDbXrecord
280
     1
102
RTVSPropertyOp0
 70
     1
102
RTVSPropertyOp1
 70
     1
102
RTVSPropertyOp2
 70
     1
102
RTVSPropertyOp3
 70
     1
102
RTVSPropertyOp4
 70
     1
102
RTVSPropertyOp5
 70
     1
102
RTVSPropertyOp6
 70
     1
102
RTVSPropertyOp7
 70
     1
102
RTVSPropertyOp8
 70
     1
102
RTVSPropertyOp9
 70
     1
102
RTVSPropertyOp10
 70
     1
102
RTVSPropertyOp11
 70
     1
102
RTVSPropertyOp12
 70
     1
102
RTVSPropertyOp13
 70
     1
102
RTVSPropertyOp14
 70
     1
102
RTVSPropertyOp15
 70
     1
102
RTVSPropertyOp16
 70
     1
102
RTVSPropertyOp17
 70
     1
102
RTVSPropertyOp18
 70
     1
102
RTVSPropertyOp19
 70
     1
102
RTVSPropertyOp20
 70
     1
102
RTVSPropertyOp21
 70
     1
102
RTVSPropertyOp22
 70
     1
102
RTVSPropertyOp23
 70
     1
102
RTVSPropertyOp24
 70
     1
102
RTVSPropertyOp25
 70
     1
102
RTVSPropertyOp26
 70
     1
102
RTVSPropertyOp27
 70
     1
  0
XRECORD
  5
C90
102
{ACAD_REACTORS
330
C8F
102
}
330
C8F
100
AcDbXrecord
280
     1
102
RTVSPropertyOp0
 70
     1
102
RTVSPropertyOp1
 70
     1
102
RTVSPropertyOp2
 70
     1
102
RTVSPropertyOp3
 70
     1
102
RTVSPropertyOp4
 70
     1
102
RTVSPropertyOp5
 70
     1
102
RTVSPropertyOp6
 70
     1
102
RTVSPropertyOp7
 70
     1
102
RTVSPropertyOp8
 70
     1
102
RTVSPropertyOp9
 70
     1
102
RTVSPropertyOp10
 70
     1
102
RTVSPropertyOp11
 70
     1
102
RTVSPropertyOp12
 70
     1
102
RTVSPropertyOp13
 70
     1
102
RTVSPropertyOp14
 70
     1
102
RTVSPropertyOp15
 70
     1
102
RTVSPropertyOp16
 70
     1
102
RTVSPropertyOp17
 70
     1
102
RTVSPropertyOp18
 70
     1
102
RTVSPropertyOp19
 70
     1
102
RTVSPropertyOp20
 70
     1
102
RTVSPropertyOp21
 70
     1
102
RTVSPropertyOp22
 70
     1
102
RTVSPropertyOp23
 70
     1
102
RTVSPropertyOp24
 70
     1
102
RTVSPropertyOp25
 70
     1
102
RTVSPropertyOp26
 70
     1
102
RTVSPropertyOp27
 70
     1
  0
XRECORD
  5
C74
102
{ACAD_REACTORS
330
C73
102
}
330
C73
100
AcDbXrecord
280
     1
102
RTVSPropertyOp0
 70
     1
102
RTVSPropertyOp1
 70
     1
102
RTVSPropertyOp2
 70
     1
102
RTVSPropertyOp3
 70
     1
102
RTVSPropertyOp4
 70
     1
102
RTVSPropertyOp5
 70
     1
102
RTVSPropertyOp6
 70
     1
102
RTVSPropertyOp7
 70
     1
102
RTVSPropertyOp8
 70
     1
102
RTVSPropertyOp9
 70
     1
102
RTVSPropertyOp10
 70
     1
102
RTVSPropertyOp11
 70
     1
102
RTVSPropertyOp12
 70
     1
102
RTVSPropertyOp13
 70
     1
102
RTVSPropertyOp14
 70
     1
102
RTVSPropertyOp15
 70
     1
102
RTVSPropertyOp16
 70
     1
102
RTVSPropertyOp17
 70
     1
102
RTVSPropertyOp18
 70
     1
102
RTVSPropertyOp19
 70
     1
102
RTVSPropertyOp20
 70
     1
102
RTVSPropertyOp21
 70
     1
102
RTVSPropertyOp22
 70
     1
102
RTVSPropertyOp23
 70
     1
102
RTVSPropertyOp24
 70
     1
102
RTVSPropertyOp25
 70
     1
102
RTVSPropertyOp26
 70
     1
102
RTVSPropertyOp27
 70
     1
  0
XRECORD
  5
C76
102
{ACAD_REACTORS
330
C75
102
}
330
C75
100
AcDbXrecord
280
     1
102
RTVSPropertyOp0
 70
     1
102
RTVSPropertyOp1
 70
     1
102
RTVSPropertyOp2
 70
     1
102
RTVSPropertyOp3
 70
     1
102
RTVSPropertyOp4
 70
     1
102
RTVSPropertyOp5
 70
     1
102
RTVSPropertyOp6
 70
     1
102
RTVSPropertyOp7
 70
     1
102
RTVSPropertyOp8
 70
     1
102
RTVSPropertyOp9
 70
     1
102
RTVSPropertyOp10
 70
     1
102
RTVSPropertyOp11
 70
     1
102
RTVSPropertyOp12
 70
     1
102
RTVSPropertyOp13
 70
     1
102
RTVSPropertyOp14
 70
     1
102
RTVSPropertyOp15
 70
     1
102
RTVSPropertyOp16
 70
     1
102
RTVSPropertyOp17
 70
     1
102
RTVSPropertyOp18
 70
     1
102
RTVSPropertyOp19
 70
     1
102
RTVSPropertyOp20
 70
     1
102
RTVSPropertyOp21
 70
     1
102
RTVSPropertyOp22
 70
     1
102
RTVSPropertyOp23
 70
     1
102
RTVSPropertyOp24
 70
     1
102
RTVSPropertyOp25
 70
     1
102
RTVSPropertyOp26
 70
     1
102
RTVSPropertyOp27
 70
     1
  0
XRECORD
  5
C78
102
{ACAD_REACTORS
330
C77
102
}
330
C77
100
AcDbXrecord
280
     1
102
RTVSPropertyOp0
 70
     1
102
RTVSPropertyOp1
 70
     1
102
RTVSPropertyOp2
 70
     1
102
RTVSPropertyOp3
 70
     1
102
RTVSPropertyOp4
 70
     1
102
RTVSPropertyOp5
 70
     1
102
RTVSPropertyOp6
 70
     1
102
RTVSPropertyOp7
 70
     1
102
RTVSPropertyOp8
 70
     1
102
RTVSPropertyOp9
 70
     1
102
RTVSPropertyOp10
 70
     1
102
RTVSPropertyOp11
 70
     1
102
RTVSPropertyOp12
 70
     1
102
RTVSPropertyOp13
 70
     1
102
RTVSPropertyOp14
 70
     1
102
RTVSPropertyOp15
 70
     1
102
RTVSPropertyOp16
 70
     1
102
RTVSPropertyOp17
 70
     1
102
RTVSPropertyOp18
 70
     1
102
RTVSPropertyOp19
 70
     1
102
RTVSPropertyOp20
 70
     1
102
RTVSPropertyOp21
 70
     1
102
RTVSPropertyOp22
 70
     1
102
RTVSPropertyOp23
 70
     1
102
RTVSPropertyOp24
 70
     1
102
RTVSPropertyOp25
 70
     1
102
RTVSPropertyOp26
 70
     1
102
RTVSPropertyOp27
 70
     1
  0
XRECORD
  5
C7A
102
{ACAD_REACTORS
330
C79
102
}
330
C79
100
AcDbXrecord
280
     1
102
RTVSPropertyOp0
 70
     1
102
RTVSPropertyOp1
 70
     1
102
RTVSPropertyOp2
 70
     1
102
RTVSPropertyOp3
 70
     1
102
RTVSPropertyOp4
 70
     1
102
RTVSPropertyOp5
 70
     1
102
RTVSPropertyOp6
 70
     1
102
RTVSPropertyOp7
 70
     1
102
RTVSPropertyOp8
 70
     1
102
RTVSPropertyOp9
 70
     1
102
RTVSPropertyOp10
 70
     1
102
RTVSPropertyOp11
 70
     1
102
RTVSPropertyOp12
 70
     1
102
RTVSPropertyOp13
 70
     1
102
RTVSPropertyOp14
 70
     1
102
RTVSPropertyOp15
 70
     1
102
RTVSPropertyOp16
 70
     1
102
RTVSPropertyOp17
 70
     1
102
RTVSPropertyOp18
 70
     1
102
RTVSPropertyOp19
 70
     1
102
RTVSPropertyOp20
 70
     1
102
RTVSPropertyOp21
 70
     1
102
RTVSPropertyOp22
 70
     1
102
RTVSPropertyOp23
 70
     1
102
RTVSPropertyOp24
 70
     1
102
RTVSPropertyOp25
 70
     1
102
RTVSPropertyOp26
 70
     1
102
RTVSPropertyOp27
 70
     1
  0
XRECORD
  5
C8E
102
{ACAD_REACTORS
330
C8D
102
}
330
C8D
100
AcDbXrecord
280
     1
102
RTVSPropertyOp0
 70
     1
102
RTVSPropertyOp1
 70
     1
102
RTVSPropertyOp2
 70
     1
102
RTVSPropertyOp3
 70
     1
102
RTVSPropertyOp4
 70
     1
102
RTVSPropertyOp5
 70
     1
102
RTVSPropertyOp6
 70
     1
102
RTVSPropertyOp7
 70
     1
102
RTVSPropertyOp8
 70
     1
102
RTVSPropertyOp9
 70
     1
102
RTVSPropertyOp10
 70
     1
102
RTVSPropertyOp11
 70
     1
102
RTVSPropertyOp12
 70
     1
102
RTVSPropertyOp13
 70
     1
102
RTVSPropertyOp14
 70
     1
102
RTVSPropertyOp15
 70
     1
102
RTVSPropertyOp16
 70
     1
102
RTVSPropertyOp17
 70
     1
102
RTVSPropertyOp18
 70
     1
102
RTVSPropertyOp19
 70
     1
102
RTVSPropertyOp20
 70
     1
102
RTVSPropertyOp21
 70
     1
102
RTVSPropertyOp22
 70
     1
102
RTVSPropertyOp23
 70
     1
102
RTVSPropertyOp24
 70
     1
102
RTVSPropertyOp25
 70
     1
102
RTVSPropertyOp26
 70
     1
102
RTVSPropertyOp27
 70
     1
  0
XRECORD
  5
C84
102
{ACAD_REACTORS
330
C83
102
}
330
C83
100
AcDbXrecord
280
     1
102
RTVSPropertyOp0
 70
     1
102
RTVSPropertyOp1
 70
     1
102
RTVSPropertyOp2
 70
     1
102
RTVSPropertyOp3
 70
     1
102
RTVSPropertyOp4
 70
     1
102
RTVSPropertyOp5
 70
     1
102
RTVSPropertyOp6
 70
     1
102
RTVSPropertyOp7
 70
     1
102
RTVSPropertyOp8
 70
     1
102
RTVSPropertyOp9
 70
     1
102
RTVSPropertyOp10
 70
     1
102
RTVSPropertyOp11
 70
     1
102
RTVSPropertyOp12
 70
     1
102
RTVSPropertyOp13
 70
     1
102
RTVSPropertyOp14
 70
     1
102
RTVSPropertyOp15
 70
     1
102
RTVSPropertyOp16
 70
     1
102
RTVSPropertyOp17
 70
     1
102
RTVSPropertyOp18
 70
     1
102
RTVSPropertyOp19
 70
     1
102
RTVSPropertyOp20
 70
     1
102
RTVSPropertyOp21
 70
     1
102
RTVSPropertyOp22
 70
     1
102
RTVSPropertyOp23
 70
     1
102
RTVSPropertyOp24
 70
     1
102
RTVSPropertyOp25
 70
     1
102
RTVSPropertyOp26
 70
     1
102
RTVSPropertyOp27
 70
     1
  0
XRECORD
  5
C8C
102
{ACAD_REACTORS
330
C8B
102
}
330
C8B
100
AcDbXrecord
280
     1
102
RTVSPropertyOp0
 70
     1
102
RTVSPropertyOp1
 70
     1
102
RTVSPropertyOp2
 70
     1
102
RTVSPropertyOp3
 70
     1
102
RTVSPropertyOp4
 70
     1
102
RTVSPropertyOp5
 70
     1
102
RTVSPropertyOp6
 70
     1
102
RTVSPropertyOp7
 70
     1
102
RTVSPropertyOp8
 70
     1
102
RTVSPropertyOp9
 70
     1
102
RTVSPropertyOp10
 70
     1
102
RTVSPropertyOp11
 70
     1
102
RTVSPropertyOp12
 70
     1
102
RTVSPropertyOp13
 70
     1
102
RTVSPropertyOp14
 70
     1
102
RTVSPropertyOp15
 70
     1
102
RTVSPropertyOp16
 70
     1
102
RTVSPropertyOp17
 70
     1
102
RTVSPropertyOp18
 70
     1
102
RTVSPropertyOp19
 70
     1
102
RTVSPropertyOp20
 70
     1
102
RTVSPropertyOp21
 70
     1
102
RTVSPropertyOp22
 70
     1
102
RTVSPropertyOp23
 70
     1
102
RTVSPropertyOp24
 70
     1
102
RTVSPropertyOp25
 70
     1
102
RTVSPropertyOp26
 70
     1
102
RTVSPropertyOp27
 70
     1
  0
ENDSEC
  0
EOF
