  0
SECTION
  2
HEADER
  9
$ACADVER
  1
AC1015
  9
$ACADMAINTVER
 70
     6
  9
$DWGCODEPAGE
  3
ANSI_1252
  9
$INSBASE
 10
0.0
 20
0.0
 30
0.0
  9
$EXTMIN
 10
0.0
 20
0.0
 30
0.0
  9
$EXTMAX
 10
25.0
 20
35.0
 30
0.0
  9
$LIMMIN
 10
0.0
 20
0.0
  9
$LIMMAX
 10
420.0
 20
297.0
  9
$ORTHOMODE
 70
     0
  9
$REGENMODE
 70
     1
  9
$FILLMODE
 70
     1
  9
$QTEXTMODE
 70
     0
  9
$MIRRTEXT
 70
     1
  9
$LTSCALE
 40
5.7
  9
$ATTMODE
 70
     1
  9
$TEXTSIZE
 40
2.5
  9
$TRACEWID
 40
1.0
  9
$TEXTSTYLE
  7
Standard
  9
$CLAYER
  8
0
  9
$CELTYPE
  6
ByLayer
  9
$CECOLOR
 62
   256
  9
$CELTSCALE
 40
1.0
  9
$DISPSILH
 70
     0
  9
$DIMSCALE
 40
1.0
  9
$DIMASZ
 40
2.5
  9
$DIMEXO
 40
0.625
  9
$DIMDLI
 40
3.75
  9
$DIMRND
 40
0.0
  9
$DIMDLE
 40
0.0
  9
$DIMEXE
 40
1.25
  9
$DIMTP
 40
0.0
  9
$DIMTM
 40
0.0
  9
$DIMTXT
 40
2.5
  9
$DIMCEN
 40
2.5
  9
$DIMTSZ
 40
0.0
  9
$DIMTOL
 70
     0
  9
$DIMLIM
 70
     0
  9
$DIMTIH
 70
     0
  9
$DIMTOH
 70
     0
  9
$DIMSE1
 70
     0
  9
$DIMSE2
 70
     0
  9
$DIMTAD
 70
     1
  9
$DIMZIN
 70
     8
  9
$DIMBLK
  1

  9
$DIMASO
 70
     1
  9
$DIMSHO
 70
     1
  9
$DIMPOST
  1

  9
$DIMAPOST
  1

  9
$DIMALT
 70
     0
  9
$DIMALTD
 70
     3
  9
$DIMALTF
 40
0.03937007874016
  9
$DIMLFAC
 40
1.0
  9
$DIMTOFL
 70
     1
  9
$DIMTVP
 40
0.0
  9
$DIMTIX
 70
     0
  9
$DIMSOXD
 70
     0
  9
$DIMSAH
 70
     0
  9
$DIMBLK1
  1

  9
$DIMBLK2
  1

  9
$DIMSTYLE
  2
ISO-25
  9
$DIMCLRD
 70
     0
  9
$DIMCLRE
 70
     0
  9
$DIMCLRT
 70
     0
  9
$DIMTFAC
 40
1.0
  9
$DIMGAP
 40
0.625
  9
$DIMJUST
 70
     0
  9
$DIMSD1
 70
     0
  9
$DIMSD2
 70
     0
  9
$DIMTOLJ
 70
     0
  9
$DIMTZIN
 70
     8
  9
$DIMALTZ
 70
     0
  9
$DIMALTTZ
 70
     0
  9
$DIMUPT
 70
     0
  9
$DIMDEC
 70
     2
  9
$DIMTDEC
 70
     2
  9
$DIMALTU
 70
     2
  9
$DIMALTTD
 70
     3
  9
$DIMTXSTY
  7
Standard
  9
$DIMAUNIT
 70
     0
  9
$DIMADEC
 70
     0
  9
$DIMALTRND
 40
0.0
  9
$DIMAZIN
 70
     0
  9
$DIMDSEP
 70
    44
  9
$DIMATFIT
 70
     3
  9
$DIMFRAC
 70
     0
  9
$DIMLDRBLK
  1

  9
$DIMLUNIT
 70
     2
  9
$DIMLWD
 70
    -2
  9
$DIMLWE
 70
    -2
  9
$DIMTMOVE
 70
     0
  9
$LUNITS
 70
     2
  9
$LUPREC
 70
     4
  9
$SKETCHINC
 40
1.0
  9
$FILLETRAD
 40
10.0
  9
$AUNITS
 70
     0
  9
$AUPREC
 70
     0
  9
$MENU
  1
.
  9
$ELEVATION
 40
0.0
  9
$PELEVATION
 40
0.0
  9
$THICKNESS
 40
0.0
  9
$LIMCHECK
 70
     0
  9
$CHAMFERA
 40
10.0
  9
$CHAMFERB
 40
10.0
  9
$CHAMFERC
 40
20.0
  9
$CHAMFERD
 40
0.0
  9
$SKPOLY
 70
     0
  9
$TDCREATE
 40
2458989.614583333
  9
$TDUCREATE
 40
2458989.53125
  9
$TDUPDATE
 40
2458989.618055556
  9
$TDUUPDATE
 40
2458989.534722222
  9
$TDINDWG
 40
0.0000000116
  9
$TDUSRTIMER
 40
0.0000000116
  9
$USRTIMER
 70
     1
  9
$ANGBASE
 50
0.0
  9
$ANGDIR
 70
     0
  9
$PDMODE
 70
     0
  9
$PDSIZE
 40
0.0
  9
$PLINEWID
 40
0.0
  9
$SPLFRAME
 70
     0
  9
$SPLINETYPE
 70
     6
  9
$SPLINESEGS
 70
     8
  9
$HANDSEED
  5
C81
  9
$SURFTAB1
 70
     6
  9
$SURFTAB2
 70
     6
  9
$SURFTYPE
 70
     6
  9
$SURFU
 70
     6
  9
$SURFV
 70
     6
  9
$UCSBASE
  2

  9
$UCSNAME
  2

  9
$UCSORG
 10
0.0
 20
0.0
 30
0.0
  9
$UCSXDIR
 10
1.0
 20
0.0
 30
0.0
  9
$UCSYDIR
 10
0.0
 20
1.0
 30
0.0
  9
$UCSORTHOREF
  2

  9
$UCSORTHOVIEW
 70
     0
  9
$UCSORGTOP
 10
0.0
 20
0.0
 30
0.0
  9
$UCSORGBOTTOM
 10
0.0
 20
0.0
 30
0.0
  9
$UCSORGLEFT
 10
0.0
 20
0.0
 30
0.0
  9
$UCSORGRIGHT
 10
0.0
 20
0.0
 30
0.0
  9
$UCSORGFRONT
 10
0.0
 20
0.0
 30
0.0
  9
$UCSORGBACK
 10
0.0
 20
0.0
 30
0.0
  9
$PUCSBASE
  2

  9
$PUCSNAME
  2

  9
$PUCSORG
 10
0.0
 20
0.0
 30
0.0
  9
$PUCSXDIR
 10
1.0
 20
0.0
 30
0.0
  9
$PUCSYDIR
 10
0.0
 20
1.0
 30
0.0
  9
$PUCSORTHOREF
  2

  9
$PUCSORTHOVIEW
 70
     0
  9
$PUCSORGTOP
 10
0.0
 20
0.0
 30
0.0
  9
$PUCSORGBOTTOM
 10
0.0
 20
0.0
 30
0.0
  9
$PUCSORGLEFT
 10
0.0
 20
0.0
 30
0.0
  9
$PUCSORGRIGHT
 10
0.0
 20
0.0
 30
0.0
  9
$PUCSORGFRONT
 10
0.0
 20
0.0
 30
0.0
  9
$PUCSORGBACK
 10
0.0
 20
0.0
 30
0.0
  9
$USERI1
 70
     0
  9
$USERI2
 70
     0
  9
$USERI3
 70
     0
  9
$USERI4
 70
     0
  9
$USERI5
 70
     0
  9
$USERR1
 40
0.0
  9
$USERR2
 40
0.0
  9
$USERR3
 40
0.0
  9
$USERR4
 40
0.0
  9
$USERR5
 40
0.0
  9
$WORLDVIEW
 70
     1
  9
$SHADEDGE
 70
     3
  9
$SHADEDIF
 70
    70
  9
$TILEMODE
 70
     1
  9
$MAXACTVP
 70
    64
  9
$PINSBASE
 10
0.0
 20
0.0
 30
0.0
  9
$PLIMCHECK
 70
     0
  9
$PEXTMIN
 10
1.000000000000000E+20
 20
1.000000000000000E+20
 30
1.000000000000000E+20
  9
$PEXTMAX
 10
-1.000000000000000E+20
 20
-1.000000000000000E+20
 30
-1.000000000000000E+20
  9
$PLIMMIN
 10
0.0
 20
0.0
  9
$PLIMMAX
 10
420.0
 20
297.0
  9
$UNITMODE
 70
     0
  9
$VISRETAIN
 70
     1
  9
$PLINEGEN
 70
     0
  9
$PSLTSCALE
 70
     1
  9
$TREEDEPTH
 70
  3020
  9
$CMLSTYLE
  2
Standard
  9
$CMLJUST
 70
     0
  9
$CMLSCALE
 40
20.0
  9
$PROXYGRAPHICS
 70
     1
  9
$MEASUREMENT
 70
     1
  9
$CELWEIGHT
370
    -1
  9
$ENDCAPS
280
     0
  9
$JOINSTYLE
280
     0
  9
$LWDISPLAY
290
     0
  9
$INSUNITS
 70
     4
  9
$HYPERLINKBASE
  1

  9
$STYLESHEET
  1

  9
$XEDIT
290
     1
  9
$CEPSNTYPE
380
     0
  9
$PSTYLEMODE
290
     1
  9
$FINGERPRINTGUID
  2
{AD32C80C-5D8A-4780-9D27-FA4D3D584F9C}
  9
$VERSIONGUID
  2
{FAEB1C32-E019-11D5-929B-00C0DF256EC4}
  9
$EXTNAMES
290
     1
  9
$PSVPSCALE
 40
0.0
  9
$OLESTARTUP
290
     0
  0
ENDSEC
  0
SECTION
  2
CLASSES
  0
CLASS
  1
ACDBDICTIONARYWDFLT
  2
AcDbDictionaryWithDefault
  3
ObjectDBX Classes
 90
        0
280
     0
281
     0
  0
CLASS
  1
VISUALSTYLE
  2
AcDbVisualStyle
  3
ObjectDBX Classes
 90
     4095
280
     0
281
     0
  0
CLASS
  1
MATERIAL
  2
AcDbMaterial
  3
ObjectDBX Classes
 90
     1153
280
     0
281
     0
  0
CLASS
  1
SCALE
  2
AcDbScale
  3
ObjectDBX Classes
 90
     1153
280
     0
281
     0
  0
CLASS
  1
DICTIONARYVAR
  2
AcDbDictionaryVar
  3
ObjectDBX Classes
 90
        0
280
     0
281
     0
  0
CLASS
  1
ACDBPLACEHOLDER
  2
AcDbPlaceHolder
  3
ObjectDBX Classes
 90
        0
280
     0
281
     0
  0
CLASS
  1
LAYOUT
  2
AcDbLayout
  3
ObjectDBX Classes
 90
        0
280
     0
281
     0
  0
ENDSEC
  0
SECTION
  2
TABLES
  0
TABLE
  2
VPORT
  5
8
330
0
100
AcDbSymbolTable
 70
     1
  0
VPORT
  5
29
330
8
100
AcDbSymbolTableRecord
100
AcDbViewportTableRecord
  2
*Active
 70
     0
 10
0.0
 20
0.0
 11
1.0
 21
1.0
 12
11.26
 22
4.5
 13
0.0
 23
0.0
 14
10.0
 24
10.0
 15
10.0
 25
10.0
 16
0.0
 26
0.0
 36
1.0
 17
0.0
 27
0.0
 37
0.0
 40
9.0
 41
2.503333333333333
 42
50.0
 43
0.0
 44
0.0
 50
0.0
 51
0.0
 71
     0
 72
   100
 73
     1
 74
     3
 75
     0
 76
     0
 77
     0
 78
     0
281
     0
 65
     1
110
0.0
120
0.0
130
0.0
111
1.0
121
0.0
131
0.0
112
0.0
122
1.0
132
0.0
 79
     0
146
0.0
  0
ENDTAB
  0
TABLE
  2
LTYPE
  5
5
330
0
100
AcDbSymbolTable
 70
    10
  0
LTYPE
  5
14
330
5
100
AcDbSymbolTableRecord
100
AcDbLinetypeTableRecord
  2
ByBlock
 70
     0
  3

 72
    65
 73
     0
 40
0.0
  0
LTYPE
  5
15
330
5
100
AcDbSymbolTableRecord
100
AcDbLinetypeTableRecord
  2
ByLayer
 70
     0
  3

 72
    65
 73
     0
 40
0.0
  0
LTYPE
  5
16
330
5
100
AcDbSymbolTableRecord
100
AcDbLinetypeTableRecord
  2
Continuous
 70
     0
  3
Solid line
 72
    65
 73
     0
 40
0.0
  0
LTYPE
  5
45
330
5
100
AcDbSymbolTableRecord
100
AcDbLinetypeTableRecord
  2
phl_thick
 70
     0
  3
THICK
 72
    65
 73
     0
 40
0.0
  0
LTYPE
  5
3AC
330
5
100
AcDbSymbolTableRecord
100
AcDbLinetypeTableRecord
  2
CUT
 70
     0
  3
THICK
 72
    65
 73
     0
 40
0.0
  0
LTYPE
  5
3B4
330
5
100
AcDbSymbolTableRecord
100
AcDbLinetypeTableRecord
  2
NOCUT
 70
     0
  3
THICK
 72
    65
 73
     0
 40
0.0
  0
LTYPE
  5
3BE
330
5
100
AcDbSymbolTableRecord
100
AcDbLinetypeTableRecord
  2
SK1
 70
     0
  3
THICK
 72
    65
 73
     0
 40
0.0
  0
LTYPE
  5
3C6
330
5
100
AcDbSymbolTableRecord
100
AcDbLinetypeTableRecord
  2
ls_SK2
 70
     0
  3
THIN
 72
    65
 73
     0
 40
0.0
  0
LTYPE
  5
471
330
5
100
AcDbSymbolTableRecord
100
AcDbLinetypeTableRecord
  2
ls_2
 70
     0
  3
THIN
 72
    65
 73
     0
 40
0.0
  0
LTYPE
  5
622
330
5
100
AcDbSymbolTableRecord
100
AcDbLinetypeTableRecord
  2
ls_SK1
 70
     0
  3
THICK
 72
    65
 73
     0
 40
0.0
  0
LTYPE
  5
65C
330
5
100
AcDbSymbolTableRecord
100
AcDbLinetypeTableRecord
  2
LONGDASH_DASH
 70
     0
  3
THIN_DASHDOT
 72
    65
 73
     4
 40
0.85
 49
0.4
 74
     0
 49
-0.2
 74
     0
 49
0.05
 74
     0
 49
-0.2
 74
     0
  0
LTYPE
  5
661
330
5
100
AcDbSymbolTableRecord
100
AcDbLinetypeTableRecord
  2
INFTOTAL
 70
     0
  3
THIN
 72
    65
 73
     0
 40
0.0
  0
ENDTAB
  0
TABLE
  2
LAYER
  5
2
330
0
100
AcDbSymbolTable
 70
    10
  0
LAYER
  5
10
330
2
100
AcDbSymbolTableRecord
100
AcDbLayerTableRecord
  2
0
 70
     0
 62
     7
  6
Continuous
370
    -3
390
F
  0
LAYER
  5
44
330
2
100
AcDbSymbolTableRecord
100
AcDbLayerTableRecord
  2
1
 70
     0
 62
4
  6
CONTINUOUS
370
50
370
    -3
390
F
  0
LAYER
  5
3AB
330
2
100
AcDbSymbolTableRecord
100
AcDbLayerTableRecord
  2
CUT
 70
     0
 62
1
  6
CONTINUOUS
370
25
370
    -3
390
F
  0
LAYER
  5
3B3
330
2
100
AcDbSymbolTableRecord
100
AcDbLayerTableRecord
  2
NOCUT
 70
     0
 62
7
  6
CONTINUOUS
370
25
370
    -3
390
F
  0
LAYER
  5
3BD
330
2
100
AcDbSymbolTableRecord
100
AcDbLayerTableRecord
  2
SK1
 70
     0
 62
4
  6
CONTINUOUS
370
50
370
    -3
390
F
  0
LAYER
  5
3C5
330
2
100
AcDbSymbolTableRecord
100
AcDbLayerTableRecord
  2
SK2
 70
     0
 62
7
  6
CONTINUOUS
370
25
370
    -3
390
F
  0
LAYER
  5
470
330
2
100
AcDbSymbolTableRecord
100
AcDbLayerTableRecord
  2
2
 70
     0
 62
7
  6
CONTINUOUS
370
25
370
    -3
390
F
  0
LAYER
  5
65B
330
2
100
AcDbSymbolTableRecord
100
AcDbLayerTableRecord
  2
4
 70
     0
 62
2
  6
LONGDASH_DASH
370
25
370
    -3
390
F
  0
LAYER
  5
65E
330
2
100
AcDbSymbolTableRecord
100
AcDbLayerTableRecord
  2
SK4
 70
     0
 62
2
  6
LONGDASH_DASH
370
25
370
    -3
390
F
  0
LAYER
  5
660
330
2
100
AcDbSymbolTableRecord
100
AcDbLayerTableRecord
  2
INFTOTAL
 70
     0
 62
9
  6
CONTINUOUS
370
18
370
    -3
390
F
  0
ENDTAB
  0
TABLE
  2
STYLE
  5
3
330
0
100
AcDbSymbolTable
 70
     1
  0
STYLE
  5
11
330
3
100
AcDbSymbolTableRecord
100
AcDbTextStyleTableRecord
  2
Standard
 70
     0
 40
0.0
 41
1.0
 50
0.0
 71
     0
 42
2.5
  3
Monospac821 BT
  4

  0
ENDTAB
  0
TABLE
  2
VIEW
  5
6
330
0
100
AcDbSymbolTable
 70
     0
  0
ENDTAB
  0
TABLE
  2
UCS
  5
7
330
0
100
AcDbSymbolTable
 70
     0
  0
ENDTAB
  0
TABLE
  2
APPID
  5
9
330
0
100
AcDbSymbolTable
 70
     2
  0
APPID
  5
12
330
9
100
AcDbSymbolTableRecord
100
AcDbRegAppTableRecord
  2
ACAD
 70
     0
  0
APPID
  5
3F
330
9
100
AcDbSymbolTableRecord
100
AcDbRegAppTableRecord
  2
ccLab
 70
     0
  0
ENDTAB
  0
TABLE
  2
DIMSTYLE
  5
A
330
0
100
AcDbSymbolTable
 70
     1
100
AcDbDimStyleTable
  0
DIMSTYLE
105
27
330
A
100
AcDbSymbolTableRecord
100
AcDbDimStyleTableRecord
  2
ISO-25
 70
     0
 41
2.5
 42
0.625
 43
3.75
 44
1.25
 73
     0
 74
     0
 77
     1
 78
     8
140
2.5
141
2.5
143
0.03937007874016
147
0.625
171
     3
172
     1
271
     2
272
     2
274
     3
278
    44
283
     0
284
     8
340
11
  0
ENDTAB
  0
TABLE
  2
BLOCK_RECORD
  5
1
330
0
100
AcDbSymbolTable
 70
     2
  0
BLOCK_RECORD
  5
1F
330
1
100
AcDbSymbolTableRecord
100
AcDbBlockTableRecord
  2
*Model_Space
340
22
  0
BLOCK_RECORD
  5
1B
330
1
100
AcDbSymbolTableRecord
100
AcDbBlockTableRecord
  2
*Paper_Space
340
1E
  0
BLOCK_RECORD
  5
23
330
1
100
AcDbSymbolTableRecord
100
AcDbBlockTableRecord
  2
*Paper_Space0
340
26
  0
ENDTAB
  0
ENDSEC
  0
SECTION
  2
BLOCKS
  0
BLOCK
  5
20
330
1F
100
AcDbEntity
  8
0
100
AcDbBlockBegin
  2
*Model_Space
 70
     0
 10
0.0
 20
0.0
 30
0.0
  3
*Model_Space
  1

  0
ENDBLK
  5
21
330
1F
100
AcDbEntity
  8
0
100
AcDbBlockEnd
  0
BLOCK
  5
1C
330
1B
100
AcDbEntity
 67
     1
  8
0
100
AcDbBlockBegin
  2
*Paper_Space
 70
     0
 10
0.0
 20
0.0
 30
0.0
  3
*Paper_Space
  1

  0
ENDBLK
  5
1D
330
1B
100
AcDbEntity
 67
     1
  8
0
100
AcDbBlockEnd
  0
BLOCK
  5
24
330
23
100
AcDbEntity
  8
0
100
AcDbBlockBegin
  2
*Paper_Space0
 70
     0
 10
0.0
 20
0.0
 30
0.0
  3
*Paper_Space0
  1

  0
ENDBLK
  5
25
330
23
100
AcDbEntity
  8
0
100
AcDbBlockEnd
  0
ENDSEC
  0
SECTION
  2
ENTITIES
  0
LINE
  5
665
330
1F
100
AcDbEntity
  8
1
  6
CONTINUOUS
370
50
 62
4
100
AcDbLine
 10
8.459635
 20
-0.031639
 30
0.0
 11
8.459622
 21
-0.02981
 31
0.0
  0
LINE
  5
666
330
1F
100
AcDbEntity
  8
1
  6
CONTINUOUS
370
50
 62
4
100
AcDbLine
 10
8.305579
 20
0.025511
 30
0.0
 11
8.305560999999999
 21
0.028012
 31
0.0
  0
LINE
  5
667
330
1F
100
AcDbEntity
  8
1
  6
CONTINUOUS
370
50
 62
4
100
AcDbLine
 10
8.305577999999999
 20
0.025704
 30
0.0
 11
8.305562
 21
0.02788
 31
0.0
  0
LINE
  5
668
330
1F
100
AcDbEntity
  8
1
  6
CONTINUOUS
370
50
 62
4
100
AcDbLine
 10
8.426352
 20
0.085569
 30
0.0
 11
8.42634
 21
0.087135
 31
0.0
  0
LINE
  5
669
330
1F
100
AcDbEntity
  8
1
  6
CONTINUOUS
370
50
 62
4
100
AcDbLine
 10
8.458829999999999
 20
-0.065348
 30
0.0
 11
8.45876
 21
-0.059325
 31
0.0
  0
LINE
  5
66A
330
1F
100
AcDbEntity
  8
1
  6
CONTINUOUS
370
50
 62
4
100
AcDbLine
 10
8.305562
 20
0.02788
 30
0.0
 11
8.30552
 21
0.030085
 31
0.0
  0
LINE
  5
66B
330
1F
100
AcDbEntity
  8
1
  6
CONTINUOUS
370
50
 62
4
100
AcDbLine
 10
8.305560999999999
 20
0.028012
 30
0.0
 11
8.30551
 21
0.030549
 31
0.0
  0
LINE
  5
66C
330
1F
100
AcDbEntity
  8
1
  6
CONTINUOUS
370
50
 62
4
100
AcDbLine
 10
8.459622
 20
-0.02981
 30
0.0
 11
8.459584999999999
 21
-0.027984
 31
0.0
  0
LINE
  5
66D
330
1F
100
AcDbEntity
  8
1
  6
CONTINUOUS
370
50
 62
4
100
AcDbLine
 10
8.459007
 20
-0.07136
 30
0.0
 11
8.458829999999999
 21
-0.065348
 31
0.0
  0
LINE
  5
66E
330
1F
100
AcDbEntity
  8
1
  6
CONTINUOUS
370
50
 62
4
100
AcDbLine
 10
8.30552
 20
0.030085
 30
0.0
 11
8.305454
 21
0.032314
 31
0.0
  0
LINE
  5
66F
330
1F
100
AcDbEntity
  8
1
  6
CONTINUOUS
370
50
 62
4
100
AcDbLine
 10
8.426358
 20
0.010428
 30
0.0
 11
8.4263
 21
0.012277
 31
0.0
  0
LINE
  5
670
330
1F
100
AcDbEntity
  8
1
  6
CONTINUOUS
370
50
 62
4
100
AcDbLine
 10
8.477
 20
0.129915
 30
0.0
 11
8.476961
 21
0.131158
 31
0.0
  0
LINE
  5
671
330
1F
100
AcDbEntity
  8
1
  6
CONTINUOUS
370
50
 62
4
100
AcDbLine
 10
8.30551
 20
0.030549
 30
0.0
 11
8.305425999999999
 21
0.033113
 31
0.0
  0
LINE
  5
672
330
1F
100
AcDbEntity
  8
1
  6
CONTINUOUS
370
50
 62
4
100
AcDbLine
 10
8.459584999999999
 20
-0.027984
 30
0.0
 11
8.459522
 21
-0.026165
 31
0.0
  0
LINE
  5
673
330
1F
100
AcDbEntity
  8
1
  6
CONTINUOUS
370
50
 62
4
100
AcDbLine
 10
8.305454
 20
0.032314
 30
0.0
 11
8.305365
 21
0.034562
 31
0.0
  0
LINE
  5
674
330
1F
100
AcDbEntity
  8
1
  6
CONTINUOUS
370
50
 62
4
100
AcDbLine
 10
8.305425999999999
 20
0.033113
 30
0.0
 11
8.305311999999999
 21
0.035697
 31
0.0
  0
LINE
  5
675
330
1F
100
AcDbEntity
  8
1
  6
CONTINUOUS
370
50
 62
4
100
AcDbLine
 10
8.459292
 20
-0.077348
 30
0.0
 11
8.459007
 21
-0.07136
 31
0.0
  0
LINE
  5
676
330
1F
100
AcDbEntity
  8
1
  6
CONTINUOUS
370
50
 62
4
100
AcDbLine
 10
8.459522
 20
-0.026165
 30
0.0
 11
8.459435
 21
-0.024353
 31
0.0
  0
LINE
  5
677
330
1F
100
AcDbEntity
  8
1
  6
CONTINUOUS
370
50
 62
4
100
AcDbLine
 10
8.305365
 20
0.034562
 30
0.0
 11
8.305252
 21
0.036824
 31
0.0
  0
LINE
  5
678
330
1F
100
AcDbEntity
  8
1
  6
CONTINUOUS
370
50
 62
4
100
AcDbLine
 10
8.305311999999999
 20
0.035697
 30
0.0
 11
8.305169
 21
0.038294
 31
0.0
  0
LINE
  5
679
330
1F
100
AcDbEntity
  8
1
  6
CONTINUOUS
370
50
 62
4
100
AcDbLine
 10
8.204876
 20
0.057587
 30
0.0
 11
8.204758
 21
0.059633
 31
0.0
  0
LINE
  5
67A
330
1F
100
AcDbEntity
  8
1
  6
CONTINUOUS
370
50
 62
4
100
AcDbLine
 10
8.305252
 20
0.036824
 30
0.0
 11
8.305118
 21
0.039096
 31
0.0
  0
LINE
  5
67B
330
1F
100
AcDbEntity
  8
1
  6
CONTINUOUS
370
50
 62
4
100
AcDbLine
 10
8.459435
 20
-0.024353
 30
0.0
 11
8.459323999999999
 21
-0.022553
 31
0.0
  0
LINE
  5
67C
330
1F
100
AcDbEntity
  8
1
  6
CONTINUOUS
370
50
 62
4
100
AcDbLine
 10
8.305169
 20
0.038294
 30
0.0
 11
8.304998
 21
0.040896
 31
0.0
  0
LINE
  5
67D
330
1F
100
AcDbEntity
  8
1
  6
CONTINUOUS
370
50
 62
4
100
AcDbLine
 10
8.459685
 20
-0.08327
 30
0.0
 11
8.459292
 21
-0.077348
 31
0.0
  0
LINE
  5
67E
330
1F
100
AcDbEntity
  8
1
  6
CONTINUOUS
370
50
 62
4
100
AcDbLine
 10
8.42634
 20
0.087135
 30
0.0
 11
8.426229
 21
0.088793
 31
0.0
  0
LINE
  5
67F
330
1F
100
AcDbEntity
  8
1
  6
CONTINUOUS
370
50
 62
4
100
AcDbLine
 10
8.305118
 20
0.039096
 30
0.0
 11
8.304962999999999
 21
0.041369
 31
0.0
  0
LINE
  5
680
330
1F
100
AcDbEntity
  8
1
  6
CONTINUOUS
370
50
 62
4
100
AcDbLine
 10
8.304998
 20
0.040896
 30
0.0
 11
8.304803
 21
0.043493
 31
0.0
  0
LINE
  5
681
330
1F
100
AcDbEntity
  8
1
  6
CONTINUOUS
370
50
 62
4
100
AcDbLine
 10
8.304962999999999
 20
0.041369
 30
0.0
 11
8.304789999999999
 21
0.043629
 31
0.0
  0
LINE
  5
682
330
1F
100
AcDbEntity
  8
1
  6
CONTINUOUS
370
50
 62
4
100
AcDbLine
 10
8.4263
 20
0.012277
 30
0.0
 11
8.426154
 21
0.014056
 31
0.0
  0
LINE
  5
683
330
1F
100
AcDbEntity
  8
1
  6
CONTINUOUS
370
50
 62
4
100
AcDbLine
 10
8.304789999999999
 20
0.043629
 30
0.0
 11
8.304602
 21
0.045872
 31
0.0
  0
LINE
  5
684
330
1F
100
AcDbEntity
  8
1
  6
CONTINUOUS
370
50
 62
4
100
AcDbLine
 10
8.304803
 20
0.043493
 30
0.0
 11
8.304585
 21
0.046068
 31
0.0
  0
LINE
  5
685
330
1F
100
AcDbEntity
  8
1
  6
CONTINUOUS
370
50
 62
4
100
AcDbLine
 10
8.460182999999999
 20
-0.089089
 30
0.0
 11
8.459685
 21
-0.08327
 31
0.0
  0
LINE
  5
686
330
1F
100
AcDbEntity
  8
1
  6
CONTINUOUS
370
50
 62
4
100
AcDbLine
 10
8.304602
 20
0.045872
 30
0.0
 11
8.304397
 21
0.048093
 31
0.0
  0
LINE
  5
687
330
1F
100
AcDbEntity
  8
1
  6
CONTINUOUS
370
50
 62
4
100
AcDbLine
 10
8.304585
 20
0.046068
 30
0.0
 11
8.304348
 21
0.048612
 31
0.0
  0
LINE
  5
688
330
1F
100
AcDbEntity
  8
1
  6
CONTINUOUS
370
50
 62
4
100
AcDbLine
 10
8.476961
 20
0.131158
 30
0.0
 11
8.476844999999999
 21
0.132395
 31
0.0
  0
LINE
  5
689
330
1F
100
AcDbEntity
  8
1
  6
CONTINUOUS
370
50
 62
4
100
AcDbLine
 10
8.304397
 20
0.048093
 30
0.0
 11
8.304177
 21
0.050288
 31
0.0
  0
LINE
  5
68A
330
1F
100
AcDbEntity
  8
1
  6
CONTINUOUS
370
50
 62
4
100
AcDbLine
 10
8.304348
 20
0.048612
 30
0.0
 11
8.304093
 21
0.051118
 31
0.0
  0
LINE
  5
68B
330
1F
100
AcDbEntity
  8
1
  6
CONTINUOUS
370
50
 62
4
100
AcDbLine
 10
8.460782
 20
-0.094795
 30
0.0
 11
8.460182999999999
 21
-0.089089
 31
0.0
  0
LINE
  5
68C
330
1F
100
AcDbEntity
  8
1
  6
CONTINUOUS
370
50
 62
4
100
AcDbLine
 10
8.304177
 20
0.050288
 30
0.0
 11
8.303946
 21
0.052453
 31
0.0
  0
LINE
  5
68D
330
1F
100
AcDbEntity
  8
1
  6
CONTINUOUS
370
50
 62
4
100
AcDbLine
 10
8.304093
 20
0.051118
 30
0.0
 11
8.303823
 21
0.053582
 31
0.0
  0
LINE
  5
68E
330
1F
100
AcDbEntity
  8
1
  6
CONTINUOUS
370
50
 62
4
100
AcDbLine
 10
8.303946
 20
0.052453
 30
0.0
 11
8.303704
 21
0.054584
 31
0.0
  0
LINE
  5
68F
330
1F
100
AcDbEntity
  8
1
  6
CONTINUOUS
370
50
 62
4
100
AcDbLine
 10
8.426229
 20
0.088793
 30
0.0
 11
8.426025
 21
0.090535
 31
0.0
  0
LINE
  5
690
330
1F
100
AcDbEntity
  8
1
  6
CONTINUOUS
370
50
 62
4
100
AcDbLine
 10
8.303823
 20
0.053582
 30
0.0
 11
8.303537
 21
0.055997
 31
0.0
  0
LINE
  5
691
330
1F
100
AcDbEntity
  8
1
  6
CONTINUOUS
370
50
 62
4
100
AcDbLine
 10
8.303704
 20
0.054584
 30
0.0
 11
8.303452
 21
0.056675
 31
0.0
  0
LINE
  5
692
330
1F
100
AcDbEntity
  8
1
  6
CONTINUOUS
370
50
 62
4
100
AcDbLine
 10
8.461482
 20
-0.100377
 30
0.0
 11
8.460782
 21
-0.094795
 31
0.0
  0
LINE
  5
693
330
1F
100
AcDbEntity
  8
1
  6
CONTINUOUS
370
50
 62
4
100
AcDbLine
 10
8.303537
 20
0.055997
 30
0.0
 11
8.303241
 21
0.058357
 31
0.0
  0
LINE
  5
694
330
1F
100
AcDbEntity
  8
1
  6
CONTINUOUS
370
50
 62
4
100
AcDbLine
 10
8.303452
 20
0.056675
 30
0.0
 11
8.303191
 21
0.05872
 31
0.0
  0
LINE
  5
695
330
1F
100
AcDbEntity
  8
1
  6
CONTINUOUS
370
50
 62
4
100
AcDbLine
 10
8.303241
 20
0.058357
 30
0.0
 11
8.302935
 21
0.060654
 31
0.0
  0
LINE
  5
696
330
1F
100
AcDbEntity
  8
1
  6
CONTINUOUS
370
50
 62
4
100
AcDbLine
 10
8.303191
 20
0.05872
 30
0.0
 11
8.302923999999999
 21
0.060716
 31
0.0
  0
LINE
  5
697
330
1F
100
AcDbEntity
  8
1
  6
CONTINUOUS
370
50
 62
4
100
AcDbLine
 10
8.426154
 20
0.014056
 30
0.0
 11
8.425923
 21
0.015763
 31
0.0
  0
LINE
  5
698
330
1F
100
AcDbEntity
  8
1
  6
CONTINUOUS
370
50
 62
4
100
AcDbLine
 10
8.302935
 20
0.060654
 30
0.0
 11
8.302621
 21
0.06288
 31
0.0
  0
LINE
  5
699
330
1F
100
AcDbEntity
  8
1
  6
CONTINUOUS
370
50
 62
4
100
AcDbLine
 10
8.302923999999999
 20
0.060716
 30
0.0
 11
8.302648999999999
 21
0.062659
 31
0.0
  0
LINE
  5
69A
330
1F
100
AcDbEntity
  8
1
  6
CONTINUOUS
370
50
 62
4
100
AcDbLine
 10
8.46228
 20
-0.105826
 30
0.0
 11
8.461482
 21
-0.100377
 31
0.0
  0
LINE
  5
69B
330
1F
100
AcDbEntity
  8
1
  6
CONTINUOUS
370
50
 62
4
100
AcDbLine
 10
8.302648999999999
 20
0.062659
 30
0.0
 11
8.302370999999999
 21
0.064546
 31
0.0
  0
LINE
  5
69C
330
1F
100
AcDbEntity
  8
1
  6
CONTINUOUS
370
50
 62
4
100
AcDbLine
 10
8.302621
 20
0.06288
 30
0.0
 11
8.302299999999999
 21
0.065031
 31
0.0
  0
LINE
  5
69D
330
1F
100
AcDbEntity
  8
1
  6
CONTINUOUS
370
50
 62
4
100
AcDbLine
 10
8.302370999999999
 20
0.064546
 30
0.0
 11
8.302088
 21
0.066374
 31
0.0
  0
LINE
  5
69E
330
1F
100
AcDbEntity
  8
1
  6
CONTINUOUS
370
50
 62
4
100
AcDbLine
 10
8.302299999999999
 20
0.065031
 30
0.0
 11
8.301974999999999
 21
0.067102
 31
0.0
  0
LINE
  5
69F
330
1F
100
AcDbEntity
  8
1
  6
CONTINUOUS
370
50
 62
4
100
AcDbLine
 10
8.476844999999999
 20
0.132395
 30
0.0
 11
8.476652999999999
 21
0.133615
 31
0.0
  0
LINE
  5
6A0
330
1F
100
AcDbEntity
  8
1
  6
CONTINUOUS
370
50
 62
4
100
AcDbLine
 10
8.426025
 20
0.090535
 30
0.0
 11
8.425732
 21
0.092351
 31
0.0
  0
LINE
  5
6A1
330
1F
100
AcDbEntity
  8
1
  6
CONTINUOUS
370
50
 62
4
100
AcDbLine
 10
8.302088
 20
0.066374
 30
0.0
 11
8.301801
 21
0.068138
 31
0.0
  0
LINE
  5
6A2
330
1F
100
AcDbEntity
  8
1
  6
CONTINUOUS
370
50
 62
4
100
AcDbLine
 10
8.301974999999999
 20
0.067102
 30
0.0
 11
8.301644999999999
 21
0.069089
 31
0.0
  0
LINE
  5
6A3
330
1F
100
AcDbEntity
  8
1
  6
CONTINUOUS
370
50
 62
4
100
AcDbLine
 10
8.463175999999999
 20
-0.111131
 30
0.0
 11
8.46228
 21
-0.105826
 31
0.0
  0
LINE
  5
6A4
330
1F
100
AcDbEntity
  8
1
  6
CONTINUOUS
370
50
 62
4
100
AcDbLine
 10
8.301801
 20
0.068138
 30
0.0
 11
8.301511999999999
 21
0.069836
 31
0.0
  0
LINE
  5
6A5
330
1F
100
AcDbEntity
  8
1
  6
CONTINUOUS
370
50
 62
4
100
AcDbLine
 10
8.205224
 20
0.055553
 30
0.0
 11
8.204876
 21
0.057587
 31
0.0
  0
LINE
  5
6A6
330
1F
100
AcDbEntity
  8
1
  6
CONTINUOUS
370
50
 62
4
100
AcDbLine
 10
8.301644999999999
 20
0.069089
 30
0.0
 11
8.301311
 21
0.070987
 31
0.0
  0
LINE
  5
6A7
330
1F
100
AcDbEntity
  8
1
  6
CONTINUOUS
370
50
 62
4
100
AcDbLine
 10
8.301511999999999
 20
0.069836
 30
0.0
 11
8.301221
 21
0.071464
 31
0.0
  0
LINE
  5
6A8
330
1F
100
AcDbEntity
  8
1
  6
CONTINUOUS
370
50
 62
4
100
AcDbLine
 10
8.301311
 20
0.070987
 30
0.0
 11
8.300977
 21
0.072793
 31
0.0
  0
LINE
  5
6A9
330
1F
100
AcDbEntity
  8
1
  6
CONTINUOUS
370
50
 62
4
100
AcDbLine
 10
8.301221
 20
0.071464
 30
0.0
 11
8.300927999999999
 21
0.073021
 31
0.0
  0
LINE
  5
6AA
330
1F
100
AcDbEntity
  8
1
  6
CONTINUOUS
370
50
 62
4
100
AcDbLine
 10
8.425923
 20
0.015763
 30
0.0
 11
8.425612
 21
0.017396
 31
0.0
  0
LINE
  5
6AB
330
1F
100
AcDbEntity
  8
1
  6
CONTINUOUS
370
50
 62
4
100
AcDbLine
 10
8.464165
 20
-0.116282
 30
0.0
 11
8.463175999999999
 21
-0.111131
 31
0.0
  0
LINE
  5
6AC
330
1F
100
AcDbEntity
  8
1
  6
CONTINUOUS
370
50
 62
4
100
AcDbLine
 10
8.300977
 20
0.072793
 30
0.0
 11
8.30064
 21
0.074502
 31
0.0
  0
LINE
  5
6AD
330
1F
100
AcDbEntity
  8
1
  6
CONTINUOUS
370
50
 62
4
100
AcDbLine
 10
8.300927999999999
 20
0.073021
 30
0.0
 11
8.300635
 21
0.074503
 31
0.0
  0
LINE
  5
6AE
330
1F
100
AcDbEntity
  8
1
  6
CONTINUOUS
370
50
 62
4
100
AcDbLine
 10
8.425732
 20
0.092351
 30
0.0
 11
8.425352
 21
0.094243
 31
0.0
  0
LINE
  5
6AF
330
1F
100
AcDbEntity
  8
1
  6
CONTINUOUS
370
50
 62
4
100
AcDbLine
 10
8.300635
 20
0.074503
 30
0.0
 11
8.300117
 21
0.077062
 31
0.0
  0
LINE
  5
6B0
330
1F
100
AcDbEntity
  8
1
  6
CONTINUOUS
370
50
 62
4
100
AcDbLine
 10
8.30012
 20
0.077065
 30
0.0
 11
8.299601
 21
0.079627
 31
0.0
  0
LINE
  5
6B1
330
1F
100
AcDbEntity
  8
1
  6
CONTINUOUS
370
50
 62
4
100
AcDbLine
 10
8.298038
 20
0.087292
 30
0.0
 11
8.29752
 21
0.089849
 31
0.0
  0
LINE
  5
6B2
330
1F
100
AcDbEntity
  8
1
  6
CONTINUOUS
370
50
 62
4
100
AcDbLine
 10
8.30064
 20
0.074502
 30
0.0
 11
8.30012
 21
0.077065
 31
0.0
  0
LINE
  5
6B3
330
1F
100
AcDbEntity
  8
1
  6
CONTINUOUS
370
50
 62
4
100
AcDbLine
 10
8.29908
 20
0.08219
 30
0.0
 11
8.29752
 21
0.089876
 31
0.0
  0
LINE
  5
6B4
330
1F
100
AcDbEntity
  8
1
  6
CONTINUOUS
370
50
 62
4
100
AcDbLine
 10
8.299597
 20
0.07962
 30
0.0
 11
8.299078
 21
0.082177
 31
0.0
  0
LINE
  5
6B5
330
1F
100
AcDbEntity
  8
1
  6
CONTINUOUS
370
50
 62
4
100
AcDbLine
 10
8.29752
 20
0.089876
 30
0.0
 11
8.296999999999999
 21
0.092437
 31
0.0
  0
LINE
  5
6B6
330
1F
100
AcDbEntity
  8
1
  6
CONTINUOUS
370
50
 62
4
100
AcDbLine
 10
8.299601
 20
0.079627
 30
0.0
 11
8.29908
 21
0.08219
 31
0.0
  0
LINE
  5
6B7
330
1F
100
AcDbEntity
  8
1
  6
CONTINUOUS
370
50
 62
4
100
AcDbLine
 10
8.300117
 20
0.077062
 30
0.0
 11
8.299597
 21
0.07962
 31
0.0
  0
LINE
  5
6B8
330
1F
100
AcDbEntity
  8
1
  6
CONTINUOUS
370
50
 62
4
100
AcDbLine
 10
8.299078
 20
0.082177
 30
0.0
 11
8.298558
 21
0.084735
 31
0.0
  0
LINE
  5
6B9
330
1F
100
AcDbEntity
  8
1
  6
CONTINUOUS
370
50
 62
4
100
AcDbLine
 10
8.298558
 20
0.084735
 30
0.0
 11
8.298038
 21
0.087292
 31
0.0
  0
LINE
  5
6BA
330
1F
100
AcDbEntity
  8
1
  6
CONTINUOUS
370
50
 62
4
100
AcDbLine
 10
8.29752
 20
0.089849
 30
0.0
 11
8.296999999999999
 21
0.092405
 31
0.0
  0
LINE
  5
6BB
330
1F
100
AcDbEntity
  8
1
  6
CONTINUOUS
370
50
 62
4
100
AcDbLine
 10
8.465240999999999
 20
-0.121247
 30
0.0
 11
8.464165
 21
-0.116282
 31
0.0
  0
LINE
  5
6BC
330
1F
100
AcDbEntity
  8
1
  6
CONTINUOUS
370
50
 62
4
100
AcDbLine
 10
8.476652999999999
 20
0.133615
 30
0.0
 11
8.476386999999999
 21
0.134813
 31
0.0
  0
LINE
  5
6BD
330
1F
100
AcDbEntity
  8
1
  6
CONTINUOUS
370
50
 62
4
100
AcDbLine
 10
8.425352
 20
0.094243
 30
0.0
 11
8.424885999999999
 21
0.096213
 31
0.0
  0
LINE
  5
6BE
330
1F
100
AcDbEntity
  8
1
  6
CONTINUOUS
370
50
 62
4
100
AcDbLine
 10
8.4664
 20
-0.126008
 30
0.0
 11
8.465240999999999
 21
-0.121247
 31
0.0
  0
LINE
  5
6BF
330
1F
100
AcDbEntity
  8
1
  6
CONTINUOUS
370
50
 62
4
100
AcDbLine
 10
8.425612
 20
0.017396
 30
0.0
 11
8.425222
 21
0.018965
 31
0.0
  0
LINE
  5
6C0
330
1F
100
AcDbEntity
  8
1
  6
CONTINUOUS
370
50
 62
4
100
AcDbLine
 10
8.424885999999999
 20
0.096213
 30
0.0
 11
8.424336
 21
0.098255
 31
0.0
  0
LINE
  5
6C1
330
1F
100
AcDbEntity
  8
1
  6
CONTINUOUS
370
50
 62
4
100
AcDbLine
 10
8.467637
 20
-0.130558
 30
0.0
 11
8.4664
 21
-0.126008
 31
0.0
  0
LINE
  5
6C2
330
1F
100
AcDbEntity
  8
1
  6
CONTINUOUS
370
50
 62
4
100
AcDbLine
 10
8.205069
 20
-0.128122
 30
0.0
 11
8.204787
 21
-0.127087
 31
0.0
  0
LINE
  5
6C3
330
1F
100
AcDbEntity
  8
1
  6
CONTINUOUS
370
50
 62
4
100
AcDbLine
 10
8.205782
 20
0.053548
 30
0.0
 11
8.205224
 21
0.055553
 31
0.0
  0
LINE
  5
6C4
330
1F
100
AcDbEntity
  8
1
  6
CONTINUOUS
370
50
 62
4
100
AcDbLine
 10
8.476386999999999
 20
0.134813
 30
0.0
 11
8.476049
 21
0.135986
 31
0.0
  0
LINE
  5
6C5
330
1F
100
AcDbEntity
  8
1
  6
CONTINUOUS
370
50
 62
4
100
AcDbLine
 10
8.424336
 20
0.098255
 30
0.0
 11
8.423703999999999
 21
0.100365
 31
0.0
  0
LINE
  5
6C6
330
1F
100
AcDbEntity
  8
1
  6
CONTINUOUS
370
50
 62
4
100
AcDbLine
 10
8.468947
 20
-0.134893
 30
0.0
 11
8.467637
 21
-0.130558
 31
0.0
  0
LINE
  5
6C7
330
1F
100
AcDbEntity
  8
1
  6
CONTINUOUS
370
50
 62
4
100
AcDbLine
 10
8.425222
 20
0.018965
 30
0.0
 11
8.424754
 21
0.02047
 31
0.0
  0
LINE
  5
6C8
330
1F
100
AcDbEntity
  8
1
  6
CONTINUOUS
370
50
 62
4
100
AcDbLine
 10
8.476245
 20
0.022743
 30
0.0
 11
8.476023
 21
0.023428
 31
0.0
  0
LINE
  5
6C9
330
1F
100
AcDbEntity
  8
1
  6
CONTINUOUS
370
50
 62
4
100
AcDbLine
 10
8.45901
 20
0.075787
 30
0.0
 11
8.458822
 21
0.076367
 31
0.0
  0
LINE
  5
6CA
330
1F
100
AcDbEntity
  8
1
  6
CONTINUOUS
370
50
 62
4
100
AcDbLine
 10
8.473317
 20
0.031754
 30
0.0
 11
8.473021
 21
0.032667
 31
0.0
  0
LINE
  5
6CB
330
1F
100
AcDbEntity
  8
1
  6
CONTINUOUS
370
50
 62
4
100
AcDbLine
 10
8.475273
 20
0.025736
 30
0.0
 11
8.474998
 21
0.026584
 31
0.0
  0
LINE
  5
6CC
330
1F
100
AcDbEntity
  8
1
  6
CONTINUOUS
370
50
 62
4
100
AcDbLine
 10
8.470901999999999
 20
0.039187
 30
0.0
 11
8.470613
 21
0.040078
 31
0.0
  0
LINE
  5
6CD
330
1F
100
AcDbEntity
  8
1
  6
CONTINUOUS
370
50
 62
4
100
AcDbLine
 10
8.476639
 20
0.021531
 30
0.0
 11
8.476458
 21
0.022089
 31
0.0
  0
LINE
  5
6CE
330
1F
100
AcDbEntity
  8
1
  6
CONTINUOUS
370
50
 62
4
100
AcDbLine
 10
8.475539
 20
0.024916
 30
0.0
 11
8.475273
 21
0.025736
 31
0.0
  0
LINE
  5
6CF
330
1F
100
AcDbEntity
  8
1
  6
CONTINUOUS
370
50
 62
4
100
AcDbLine
 10
8.472719
 20
0.033595
 30
0.0
 11
8.472415
 21
0.034532
 31
0.0
  0
LINE
  5
6D0
330
1F
100
AcDbEntity
  8
1
  6
CONTINUOUS
370
50
 62
4
100
AcDbLine
 10
8.473889999999999
 20
0.029992
 30
0.0
 11
8.473608
 21
0.030861
 31
0.0
  0
LINE
  5
6D1
330
1F
100
AcDbEntity
  8
1
  6
CONTINUOUS
370
50
 62
4
100
AcDbLine
 10
8.474437
 20
0.028308
 30
0.0
 11
8.474162999999999
 21
0.029152
 31
0.0
  0
LINE
  5
6D2
330
1F
100
AcDbEntity
  8
1
  6
CONTINUOUS
370
50
 62
4
100
AcDbLine
 10
8.460329
 20
0.071727
 30
0.0
 11
8.459767
 21
0.073458
 31
0.0
  0
LINE
  5
6D3
330
1F
100
AcDbEntity
  8
1
  6
CONTINUOUS
370
50
 62
4
100
AcDbLine
 10
8.476789
 20
0.021069
 30
0.0
 11
8.476639
 21
0.021531
 31
0.0
  0
LINE
  5
6D4
330
1F
100
AcDbEntity
  8
1
  6
CONTINUOUS
370
50
 62
4
100
AcDbLine
 10
8.466107
 20
0.053944
 30
0.0
 11
8.464879
 21
0.057725
 31
0.0
  0
LINE
  5
6D5
330
1F
100
AcDbEntity
  8
1
  6
CONTINUOUS
370
50
 62
4
100
AcDbLine
 10
8.471803
 20
0.036415
 30
0.0
 11
8.471499
 21
0.037351
 31
0.0
  0
LINE
  5
6D6
330
1F
100
AcDbEntity
  8
1
  6
CONTINUOUS
370
50
 62
4
100
AcDbLine
 10
8.464879
 20
0.057725
 30
0.0
 11
8.463747999999999
 21
0.061207
 31
0.0
  0
LINE
  5
6D7
330
1F
100
AcDbEntity
  8
1
  6
CONTINUOUS
370
50
 62
4
100
AcDbLine
 10
8.472109
 20
0.035473
 30
0.0
 11
8.471803
 21
0.036415
 31
0.0
  0
LINE
  5
6D8
330
1F
100
AcDbEntity
  8
1
  6
CONTINUOUS
370
50
 62
4
100
AcDbLine
 10
8.462723
 20
0.064361
 30
0.0
 11
8.46181
 21
0.067171
 31
0.0
  0
LINE
  5
6D9
330
1F
100
AcDbEntity
  8
1
  6
CONTINUOUS
370
50
 62
4
100
AcDbLine
 10
8.461011
 20
0.069628
 30
0.0
 11
8.460329
 21
0.071727
 31
0.0
  0
LINE
  5
6DA
330
1F
100
AcDbEntity
  8
1
  6
CONTINUOUS
370
50
 62
4
100
AcDbLine
 10
8.476023
 20
0.023428
 30
0.0
 11
8.475791
 21
0.024142
 31
0.0
  0
LINE
  5
6DB
330
1F
100
AcDbEntity
  8
1
  6
CONTINUOUS
370
50
 62
4
100
AcDbLine
 10
8.470613
 20
0.040078
 30
0.0
 11
8.470329
 21
0.040952
 31
0.0
  0
LINE
  5
6DC
330
1F
100
AcDbEntity
  8
1
  6
CONTINUOUS
370
50
 62
4
100
AcDbLine
 10
8.468836999999999
 20
0.045543
 30
0.0
 11
8.467428
 21
0.049879
 31
0.0
  0
LINE
  5
6DD
330
1F
100
AcDbEntity
  8
1
  6
CONTINUOUS
370
50
 62
4
100
AcDbLine
 10
8.467428
 20
0.049879
 30
0.0
 11
8.466107
 21
0.053944
 31
0.0
  0
LINE
  5
6DE
330
1F
100
AcDbEntity
  8
1
  6
CONTINUOUS
370
50
 62
4
100
AcDbLine
 10
8.459767
 20
0.073458
 30
0.0
 11
8.459325999999999
 21
0.074815
 31
0.0
  0
LINE
  5
6DF
330
1F
100
AcDbEntity
  8
1
  6
CONTINUOUS
370
50
 62
4
100
AcDbLine
 10
8.470329
 20
0.040952
 30
0.0
 11
8.468836999999999
 21
0.045543
 31
0.0
  0
LINE
  5
6E0
330
1F
100
AcDbEntity
  8
1
  6
CONTINUOUS
370
50
 62
4
100
AcDbLine
 10
8.463747999999999
 20
0.061207
 30
0.0
 11
8.462723
 21
0.064361
 31
0.0
  0
LINE
  5
6E1
330
1F
100
AcDbEntity
  8
1
  6
CONTINUOUS
370
50
 62
4
100
AcDbLine
 10
8.476906
 20
0.020709
 30
0.0
 11
8.476789
 21
0.021069
 31
0.0
  0
LINE
  5
6E2
330
1F
100
AcDbEntity
  8
1
  6
CONTINUOUS
370
50
 62
4
100
AcDbLine
 10
8.474162999999999
 20
0.029152
 30
0.0
 11
8.473889999999999
 21
0.029992
 31
0.0
  0
LINE
  5
6E3
330
1F
100
AcDbEntity
  8
1
  6
CONTINUOUS
370
50
 62
4
100
AcDbLine
 10
8.471499
 20
0.037351
 30
0.0
 11
8.471198
 21
0.038277
 31
0.0
  0
LINE
  5
6E4
330
1F
100
AcDbEntity
  8
1
  6
CONTINUOUS
370
50
 62
4
100
AcDbLine
 10
8.459325999999999
 20
0.074815
 30
0.0
 11
8.45901
 21
0.075787
 31
0.0
  0
LINE
  5
6E5
330
1F
100
AcDbEntity
  8
1
  6
CONTINUOUS
370
50
 62
4
100
AcDbLine
 10
8.472415
 20
0.034532
 30
0.0
 11
8.472109
 21
0.035473
 31
0.0
  0
LINE
  5
6E6
330
1F
100
AcDbEntity
  8
1
  6
CONTINUOUS
370
50
 62
4
100
AcDbLine
 10
8.46181
 20
0.067171
 30
0.0
 11
8.461011
 21
0.069628
 31
0.0
  0
LINE
  5
6E7
330
1F
100
AcDbEntity
  8
1
  6
CONTINUOUS
370
50
 62
4
100
AcDbLine
 10
8.474717
 20
0.027447
 30
0.0
 11
8.474437
 21
0.028308
 31
0.0
  0
LINE
  5
6E8
330
1F
100
AcDbEntity
  8
1
  6
CONTINUOUS
370
50
 62
4
100
AcDbLine
 10
8.471198
 20
0.038277
 30
0.0
 11
8.470901999999999
 21
0.039187
 31
0.0
  0
LINE
  5
6E9
330
1F
100
AcDbEntity
  8
1
  6
CONTINUOUS
370
50
 62
4
100
AcDbLine
 10
8.476974
 20
0.0205
 30
0.0
 11
8.476906
 21
0.020709
 31
0.0
  0
LINE
  5
6EA
330
1F
100
AcDbEntity
  8
1
  6
CONTINUOUS
370
50
 62
4
100
AcDbLine
 10
8.473021
 20
0.032667
 30
0.0
 11
8.472719
 21
0.033595
 31
0.0
  0
LINE
  5
6EB
330
1F
100
AcDbEntity
  8
1
  6
CONTINUOUS
370
50
 62
4
100
AcDbLine
 10
8.475791
 20
0.024142
 30
0.0
 11
8.475539
 21
0.024916
 31
0.0
  0
LINE
  5
6EC
330
1F
100
AcDbEntity
  8
1
  6
CONTINUOUS
370
50
 62
4
100
AcDbLine
 10
8.474998
 20
0.026584
 30
0.0
 11
8.474717
 21
0.027447
 31
0.0
  0
LINE
  5
6ED
330
1F
100
AcDbEntity
  8
1
  6
CONTINUOUS
370
50
 62
4
100
AcDbLine
 10
8.476458
 20
0.022089
 30
0.0
 11
8.476245
 21
0.022743
 31
0.0
  0
LINE
  5
6EE
330
1F
100
AcDbEntity
  8
1
  6
CONTINUOUS
370
50
 62
4
100
AcDbLine
 10
8.473608
 20
0.030861
 30
0.0
 11
8.473317
 21
0.031754
 31
0.0
  0
LINE
  5
6EF
330
1F
100
AcDbEntity
  8
1
  6
CONTINUOUS
370
50
 62
4
100
AcDbLine
 10
8.458822
 20
0.076367
 30
0.0
 11
8.458758999999999
 21
0.07656
 31
0.0
  0
LINE
  5
6F0
330
1F
100
AcDbEntity
  8
1
  6
CONTINUOUS
370
50
 62
4
100
AcDbLine
 10
8.423703999999999
 20
0.100365
 30
0.0
 11
8.422991999999999
 21
0.102538
 31
0.0
  0
LINE
  5
6F1
330
1F
100
AcDbEntity
  8
1
  6
CONTINUOUS
370
50
 62
4
100
AcDbLine
 10
8.476999
 20
0.020424
 30
0.0
 11
8.476974
 21
0.0205
 31
0.0
  0
LINE
  5
6F2
330
1F
100
AcDbEntity
  8
1
  6
CONTINUOUS
370
50
 62
4
100
AcDbLine
 10
8.470329
 20
-0.139004
 30
0.0
 11
8.468947
 21
-0.134893
 31
0.0
  0
LINE
  5
6F3
330
1F
100
AcDbEntity
  8
1
  6
CONTINUOUS
370
50
 62
4
100
AcDbLine
 10
8.422991999999999
 20
0.102538
 30
0.0
 11
8.4222
 21
0.104768
 31
0.0
  0
LINE
  5
6F4
330
1F
100
AcDbEntity
  8
1
  6
CONTINUOUS
370
50
 62
4
100
AcDbLine
 10
8.476049
 20
0.135986
 30
0.0
 11
8.47564
 21
0.13713
 31
0.0
  0
LINE
  5
6F5
330
1F
100
AcDbEntity
  8
1
  6
CONTINUOUS
370
50
 62
4
100
AcDbLine
 10
8.424754
 20
0.02047
 30
0.0
 11
8.424209
 21
0.021907
 31
0.0
  0
LINE
  5
6F6
330
1F
100
AcDbEntity
  8
1
  6
CONTINUOUS
370
50
 62
4
100
AcDbLine
 10
8.4222
 20
0.104768
 30
0.0
 11
8.421332
 21
0.10705
 31
0.0
  0
LINE
  5
6F7
330
1F
100
AcDbEntity
  8
1
  6
CONTINUOUS
370
50
 62
4
100
AcDbLine
 10
8.206531
 20
0.05158
 30
0.0
 11
8.205782
 21
0.053548
 31
0.0
  0
LINE
  5
6F8
330
1F
100
AcDbEntity
  8
1
  6
CONTINUOUS
370
50
 62
4
100
AcDbLine
 10
8.421332
 20
0.10705
 30
0.0
 11
8.42039
 21
0.10938
 31
0.0
  0
LINE
  5
6F9
330
1F
100
AcDbEntity
  8
1
  6
CONTINUOUS
370
50
 62
4
100
AcDbLine
 10
8.419889
 20
0.110584
 30
0.0
 11
8.419724
 21
0.110985
 31
0.0
  0
LINE
  5
6FA
330
1F
100
AcDbEntity
  8
1
  6
CONTINUOUS
370
50
 62
4
100
AcDbLine
 10
8.420221999999999
 20
0.109781
 30
0.0
 11
8.420055999999999
 21
0.110182
 31
0.0
  0
LINE
  5
6FB
330
1F
100
AcDbEntity
  8
1
  6
CONTINUOUS
370
50
 62
4
100
AcDbLine
 10
8.419724
 20
0.110985
 30
0.0
 11
8.419392
 21
0.111787
 31
0.0
  0
LINE
  5
6FC
330
1F
100
AcDbEntity
  8
1
  6
CONTINUOUS
370
50
 62
4
100
AcDbLine
 10
8.420055999999999
 20
0.110182
 30
0.0
 11
8.419889
 21
0.110584
 31
0.0
  0
LINE
  5
6FD
330
1F
100
AcDbEntity
  8
1
  6
CONTINUOUS
370
50
 62
4
100
AcDbLine
 10
8.42039
 20
0.10938
 30
0.0
 11
8.420221999999999
 21
0.109781
 31
0.0
  0
LINE
  5
6FE
330
1F
100
AcDbEntity
  8
1
  6
CONTINUOUS
370
50
 62
4
100
AcDbLine
 10
8.47564
 20
0.13713
 30
0.0
 11
8.475163
 21
0.138243
 31
0.0
  0
LINE
  5
6FF
330
1F
100
AcDbEntity
  8
1
  6
CONTINUOUS
370
50
 62
4
100
AcDbLine
 10
8.424209
 20
0.021907
 30
0.0
 11
8.423589
 21
0.023274
 31
0.0
  0
LINE
  5
700
330
1F
100
AcDbEntity
  8
1
  6
CONTINUOUS
370
50
 62
4
100
AcDbLine
 10
8.20745
 20
0.049652
 30
0.0
 11
8.206531
 21
0.05158
 31
0.0
  0
LINE
  5
701
330
1F
100
AcDbEntity
  8
1
  6
CONTINUOUS
370
50
 62
4
100
AcDbLine
 10
8.475163
 20
0.138243
 30
0.0
 11
8.474622
 21
0.139315
 31
0.0
  0
LINE
  5
702
330
1F
100
AcDbEntity
  8
1
  6
CONTINUOUS
370
50
 62
4
100
AcDbLine
 10
8.434707999999999
 20
0.082067
 30
0.0
 11
8.419392
 21
0.111787
 31
0.0
  0
LINE
  5
703
330
1F
100
AcDbEntity
  8
1
  6
CONTINUOUS
370
50
 62
4
100
AcDbLine
 10
8.477
 20
0.004694
 30
0.0
 11
8.476961
 21
0.004767
 31
0.0
  0
LINE
  5
704
330
1F
100
AcDbEntity
  8
1
  6
CONTINUOUS
370
50
 62
4
100
AcDbLine
 10
8.423589
 20
0.023274
 30
0.0
 11
8.422895
 21
0.02457
 31
0.0
  0
LINE
  5
705
330
1F
100
AcDbEntity
  8
1
  6
CONTINUOUS
370
50
 62
4
100
AcDbLine
 10
8.205625
 20
-0.129094
 30
0.0
 11
8.205069
 21
-0.128122
 31
0.0
  0
LINE
  5
706
330
1F
100
AcDbEntity
  8
1
  6
CONTINUOUS
370
50
 62
4
100
AcDbLine
 10
8.474622
 20
0.139315
 30
0.0
 11
8.474021
 21
0.140341
 31
0.0
  0
LINE
  5
707
330
1F
100
AcDbEntity
  8
1
  6
CONTINUOUS
370
50
 62
4
100
AcDbLine
 10
8.229481999999999
 20
0.014475
 30
0.0
 11
8.225098
 21
0.021697
 31
0.0
  0
LINE
  5
708
330
1F
100
AcDbEntity
  8
1
  6
CONTINUOUS
370
50
 62
4
100
AcDbLine
 10
8.233905
 20
0.007212
 30
0.0
 11
8.229481999999999
 21
0.014475
 31
0.0
  0
LINE
  5
709
330
1F
100
AcDbEntity
  8
1
  6
CONTINUOUS
370
50
 62
4
100
AcDbLine
 10
8.225098
 20
0.021697
 30
0.0
 11
8.220735
 21
0.02884
 31
0.0
  0
LINE
  5
70A
330
1F
100
AcDbEntity
  8
1
  6
CONTINUOUS
370
50
 62
4
100
AcDbLine
 10
8.238353
 20
0.0
 30
0.0
 11
8.233905
 21
0.007212
 31
0.0
  0
LINE
  5
70B
330
1F
100
AcDbEntity
  8
1
  6
CONTINUOUS
370
50
 62
4
100
AcDbLine
 10
8.220735
 20
0.02884
 30
0.0
 11
8.216361
 21
0.035889
 31
0.0
  0
LINE
  5
70C
330
1F
100
AcDbEntity
  8
1
  6
CONTINUOUS
370
50
 62
4
100
AcDbLine
 10
8.422895
 20
0.02457
 30
0.0
 11
8.42213
 21
0.02579
 31
0.0
  0
LINE
  5
70D
330
1F
100
AcDbEntity
  8
1
  6
CONTINUOUS
370
50
 62
4
100
AcDbLine
 10
8.245348
 20
-0.011013
 30
0.0
 11
8.238353
 21
0.0
 31
0.0
  0
LINE
  5
70E
330
1F
100
AcDbEntity
  8
1
  6
CONTINUOUS
370
50
 62
4
100
AcDbLine
 10
8.216361
 20
0.035889
 30
0.0
 11
8.211945
 21
0.042831
 31
0.0
  0
LINE
  5
70F
330
1F
100
AcDbEntity
  8
1
  6
CONTINUOUS
370
50
 62
4
100
AcDbLine
 10
8.211945
 20
0.042831
 30
0.0
 11
8.20745
 21
0.049652
 31
0.0
  0
LINE
  5
710
330
1F
100
AcDbEntity
  8
1
  6
CONTINUOUS
370
50
 62
4
100
AcDbLine
 10
8.252585
 20
-0.021803
 30
0.0
 11
8.245348
 21
-0.011013
 31
0.0
  0
LINE
  5
711
330
1F
100
AcDbEntity
  8
1
  6
CONTINUOUS
370
50
 62
4
100
AcDbLine
 10
8.474021
 20
0.140341
 30
0.0
 11
8.473365
 21
0.141319
 31
0.0
  0
LINE
  5
712
330
1F
100
AcDbEntity
  8
1
  6
CONTINUOUS
370
50
 62
4
100
AcDbLine
 10
8.260182
 20
-0.032317
 30
0.0
 11
8.252585
 21
-0.021803
 31
0.0
  0
LINE
  5
713
330
1F
100
AcDbEntity
  8
1
  6
CONTINUOUS
370
50
 62
4
100
AcDbLine
 10
8.42213
 20
0.02579
 30
0.0
 11
8.421294
 21
0.026933
 31
0.0
  0
LINE
  5
714
330
1F
100
AcDbEntity
  8
1
  6
CONTINUOUS
370
50
 62
4
100
AcDbLine
 10
8.473365
 20
0.141319
 30
0.0
 11
8.472655
 21
0.142247
 31
0.0
  0
LINE
  5
715
330
1F
100
AcDbEntity
  8
1
  6
CONTINUOUS
370
50
 62
4
100
AcDbLine
 10
8.268265
 20
-0.042516
 30
0.0
 11
8.260182
 21
-0.032317
 31
0.0
  0
LINE
  5
716
330
1F
100
AcDbEntity
  8
1
  6
CONTINUOUS
370
50
 62
4
100
AcDbLine
 10
8.421294
 20
0.026933
 30
0.0
 11
8.42039
 21
0.027997
 31
0.0
  0
LINE
  5
717
330
1F
100
AcDbEntity
  8
1
  6
CONTINUOUS
370
50
 62
4
100
AcDbLine
 10
8.472655
 20
0.142247
 30
0.0
 11
8.471895
 21
0.143123
 31
0.0
  0
LINE
  5
718
330
1F
100
AcDbEntity
  8
1
  6
CONTINUOUS
370
50
 62
4
100
AcDbLine
 10
8.206427999999999
 20
-0.130002
 30
0.0
 11
8.205625
 21
-0.129094
 31
0.0
  0
LINE
  5
719
330
1F
100
AcDbEntity
  8
1
  6
CONTINUOUS
370
50
 62
4
100
AcDbLine
 10
8.276988
 20
-0.052366
 30
0.0
 11
8.268265
 21
-0.042516
 31
0.0
  0
LINE
  5
71A
330
1F
100
AcDbEntity
  8
1
  6
CONTINUOUS
370
50
 62
4
100
AcDbLine
 10
8.419889
 20
0.028546
 30
0.0
 11
8.419724
 21
0.02873
 31
0.0
  0
LINE
  5
71B
330
1F
100
AcDbEntity
  8
1
  6
CONTINUOUS
370
50
 62
4
100
AcDbLine
 10
8.419558
 20
0.028914
 30
0.0
 11
8.419392
 21
0.029099
 31
0.0
  0
LINE
  5
71C
330
1F
100
AcDbEntity
  8
1
  6
CONTINUOUS
370
50
 62
4
100
AcDbLine
 10
8.419724
 20
0.02873
 30
0.0
 11
8.419558
 21
0.028914
 31
0.0
  0
LINE
  5
71D
330
1F
100
AcDbEntity
  8
1
  6
CONTINUOUS
370
50
 62
4
100
AcDbLine
 10
8.420221999999999
 20
0.028179
 30
0.0
 11
8.420055999999999
 21
0.028362
 31
0.0
  0
LINE
  5
71E
330
1F
100
AcDbEntity
  8
1
  6
CONTINUOUS
370
50
 62
4
100
AcDbLine
 10
8.420055999999999
 20
0.028362
 30
0.0
 11
8.419889
 21
0.028546
 31
0.0
  0
LINE
  5
71F
330
1F
100
AcDbEntity
  8
1
  6
CONTINUOUS
370
50
 62
4
100
AcDbLine
 10
8.42039
 20
0.027997
 30
0.0
 11
8.420221999999999
 21
0.028179
 31
0.0
  0
LINE
  5
720
330
1F
100
AcDbEntity
  8
1
  6
CONTINUOUS
370
50
 62
4
100
AcDbLine
 10
8.471895
 20
0.143123
 30
0.0
 11
8.471089
 21
0.143944
 31
0.0
  0
LINE
  5
721
330
1F
100
AcDbEntity
  8
1
  6
CONTINUOUS
370
50
 62
4
100
AcDbLine
 10
8.286512
 20
-0.061831
 30
0.0
 11
8.276988
 21
-0.052366
 31
0.0
  0
LINE
  5
722
330
1F
100
AcDbEntity
  8
1
  6
CONTINUOUS
370
50
 62
4
100
AcDbLine
 10
8.476961
 20
0.004767
 30
0.0
 11
8.476844999999999
 21
0.004877
 31
0.0
  0
LINE
  5
723
330
1F
100
AcDbEntity
  8
1
  6
CONTINUOUS
370
50
 62
4
100
AcDbLine
 10
8.471089
 20
0.143944
 30
0.0
 11
8.470243
 21
0.144707
 31
0.0
  0
LINE
  5
724
330
1F
100
AcDbEntity
  8
1
  6
CONTINUOUS
370
50
 62
4
100
AcDbLine
 10
8.296999999999999
 20
-0.070871
 30
0.0
 11
8.286512
 21
-0.061831
 31
0.0
  0
LINE
  5
725
330
1F
100
AcDbEntity
  8
1
  6
CONTINUOUS
370
50
 62
4
100
AcDbLine
 10
8.303431999999999
 20
-0.096044
 30
0.0
 11
8.302776999999999
 21
-0.095503
 31
0.0
  0
LINE
  5
726
330
1F
100
AcDbEntity
  8
1
  6
CONTINUOUS
370
50
 62
4
100
AcDbLine
 10
8.20745
 20
-0.130846
 30
0.0
 11
8.206427999999999
 21
-0.130002
 31
0.0
  0
LINE
  5
727
330
1F
100
AcDbEntity
  8
1
  6
CONTINUOUS
370
50
 62
4
100
AcDbLine
 10
8.470243
 20
0.144707
 30
0.0
 11
8.46936
 21
0.145411
 31
0.0
  0
LINE
  5
728
330
1F
100
AcDbEntity
  8
1
  6
CONTINUOUS
370
50
 62
4
100
AcDbLine
 10
8.476844999999999
 20
0.004877
 30
0.0
 11
8.476652999999999
 21
0.005027
 31
0.0
  0
LINE
  5
729
330
1F
100
AcDbEntity
  8
1
  6
CONTINUOUS
370
50
 62
4
100
AcDbLine
 10
8.304117999999999
 20
-0.096579
 30
0.0
 11
8.303431999999999
 21
-0.096044
 31
0.0
  0
LINE
  5
72A
330
1F
100
AcDbEntity
  8
1
  6
CONTINUOUS
370
50
 62
4
100
AcDbLine
 10
8.304827
 20
-0.097105
 30
0.0
 11
8.304117999999999
 21
-0.096579
 31
0.0
  0
LINE
  5
72B
330
1F
100
AcDbEntity
  8
1
  6
CONTINUOUS
370
50
 62
4
100
AcDbLine
 10
8.305549
 20
-0.097618
 30
0.0
 11
8.304827
 21
-0.097105
 31
0.0
  0
LINE
  5
72C
330
1F
100
AcDbEntity
  8
1
  6
CONTINUOUS
370
50
 62
4
100
AcDbLine
 10
8.476652999999999
 20
0.005027
 30
0.0
 11
8.476386999999999
 21
0.005214
 31
0.0
  0
LINE
  5
72D
330
1F
100
AcDbEntity
  8
1
  6
CONTINUOUS
370
50
 62
4
100
AcDbLine
 10
8.46936
 20
0.145411
 30
0.0
 11
8.468444
 21
0.146054
 31
0.0
  0
LINE
  5
72E
330
1F
100
AcDbEntity
  8
1
  6
CONTINUOUS
370
50
 62
4
100
AcDbLine
 10
8.303431999999999
 20
0.115095
 30
0.0
 11
8.302776999999999
 21
0.115544
 31
0.0
  0
LINE
  5
72F
330
1F
100
AcDbEntity
  8
1
  6
CONTINUOUS
370
50
 62
4
100
AcDbLine
 10
8.306276
 20
-0.098116
 30
0.0
 11
8.305549
 21
-0.097618
 31
0.0
  0
LINE
  5
730
330
1F
100
AcDbEntity
  8
1
  6
CONTINUOUS
370
50
 62
4
100
AcDbLine
 10
8.476386999999999
 20
0.005214
 30
0.0
 11
8.476049
 21
0.00544
 31
0.0
  0
LINE
  5
731
330
1F
100
AcDbEntity
  8
1
  6
CONTINUOUS
370
50
 62
4
100
AcDbLine
 10
8.307
 20
-0.098596
 30
0.0
 11
8.306276
 21
-0.098116
 31
0.0
  0
LINE
  5
732
330
1F
100
AcDbEntity
  8
1
  6
CONTINUOUS
370
50
 62
4
100
AcDbLine
 10
8.297953
 20
-0.092447
 30
0.0
 11
8.296999999999999
 21
-0.091817
 31
0.0
  0
LINE
  5
733
330
1F
100
AcDbEntity
  8
1
  6
CONTINUOUS
370
50
 62
4
100
AcDbLine
 10
8.304117999999999
 20
0.114646
 30
0.0
 11
8.303431999999999
 21
0.115095
 31
0.0
  0
LINE
  5
734
330
1F
100
AcDbEntity
  8
1
  6
CONTINUOUS
370
50
 62
4
100
AcDbLine
 10
8.29891
 20
-0.093071
 30
0.0
 11
8.297953
 21
-0.092447
 31
0.0
  0
LINE
  5
735
330
1F
100
AcDbEntity
  8
1
  6
CONTINUOUS
370
50
 62
4
100
AcDbLine
 10
8.476049
 20
0.00544
 30
0.0
 11
8.47564
 21
0.005704
 31
0.0
  0
LINE
  5
736
330
1F
100
AcDbEntity
  8
1
  6
CONTINUOUS
370
50
 62
4
100
AcDbLine
 10
8.29987
 20
-0.093689
 30
0.0
 11
8.29891
 21
-0.093071
 31
0.0
  0
LINE
  5
737
330
1F
100
AcDbEntity
  8
1
  6
CONTINUOUS
370
50
 62
4
100
AcDbLine
 10
8.300836
 20
-0.0943
 30
0.0
 11
8.29987
 21
-0.093689
 31
0.0
  0
LINE
  5
738
330
1F
100
AcDbEntity
  8
1
  6
CONTINUOUS
370
50
 62
4
100
AcDbLine
 10
8.47564
 20
0.005704
 30
0.0
 11
8.475163
 21
0.006005
 31
0.0
  0
LINE
  5
739
330
1F
100
AcDbEntity
  8
1
  6
CONTINUOUS
370
50
 62
4
100
AcDbLine
 10
8.304827
 20
0.114202
 30
0.0
 11
8.304117999999999
 21
0.114646
 31
0.0
  0
LINE
  5
73A
330
1F
100
AcDbEntity
  8
1
  6
CONTINUOUS
370
50
 62
4
100
AcDbLine
 10
8.475163
 20
0.006005
 30
0.0
 11
8.474622
 21
0.006343
 31
0.0
  0
LINE
  5
73B
330
1F
100
AcDbEntity
  8
1
  6
CONTINUOUS
370
50
 62
4
100
AcDbLine
 10
8.301805
 20
-0.094904
 30
0.0
 11
8.300836
 21
-0.0943
 31
0.0
  0
LINE
  5
73C
330
1F
100
AcDbEntity
  8
1
  6
CONTINUOUS
370
50
 62
4
100
AcDbLine
 10
8.302776999999999
 20
-0.095503
 30
0.0
 11
8.301805
 21
-0.094904
 31
0.0
  0
LINE
  5
73D
330
1F
100
AcDbEntity
  8
1
  6
CONTINUOUS
370
50
 62
4
100
AcDbLine
 10
8.474622
 20
0.006343
 30
0.0
 11
8.474021
 21
0.006713
 31
0.0
  0
LINE
  5
73E
330
1F
100
AcDbEntity
  8
1
  6
CONTINUOUS
370
50
 62
4
100
AcDbLine
 10
8.468444
 20
0.146054
 30
0.0
 11
8.467497
 21
0.146637
 31
0.0
  0
LINE
  5
73F
330
1F
100
AcDbEntity
  8
1
  6
CONTINUOUS
370
50
 62
4
100
AcDbLine
 10
8.474021
 20
0.006713
 30
0.0
 11
8.473365
 21
0.007115
 31
0.0
  0
LINE
  5
740
330
1F
100
AcDbEntity
  8
1
  6
CONTINUOUS
370
50
 62
4
100
AcDbLine
 10
8.473365
 20
0.007115
 30
0.0
 11
8.472655
 21
0.007548
 31
0.0
  0
LINE
  5
741
330
1F
100
AcDbEntity
  8
1
  6
CONTINUOUS
370
50
 62
4
100
AcDbLine
 10
8.472655
 20
0.007548
 30
0.0
 11
8.471895
 21
0.00801
 31
0.0
  0
LINE
  5
742
330
1F
100
AcDbEntity
  8
1
  6
CONTINUOUS
370
50
 62
4
100
AcDbLine
 10
8.471895
 20
0.00801
 30
0.0
 11
8.471089
 21
0.008499
 31
0.0
  0
LINE
  5
743
330
1F
100
AcDbEntity
  8
1
  6
CONTINUOUS
370
50
 62
4
100
AcDbLine
 10
8.305549
 20
0.113764
 30
0.0
 11
8.304827
 21
0.114202
 31
0.0
  0
LINE
  5
744
330
1F
100
AcDbEntity
  8
1
  6
CONTINUOUS
370
50
 62
4
100
AcDbLine
 10
8.471089
 20
0.008499
 30
0.0
 11
8.470243
 21
0.009011
 31
0.0
  0
LINE
  5
745
330
1F
100
AcDbEntity
  8
1
  6
CONTINUOUS
370
50
 62
4
100
AcDbLine
 10
8.470243
 20
0.009011
 30
0.0
 11
8.46936
 21
0.009544
 31
0.0
  0
LINE
  5
746
330
1F
100
AcDbEntity
  8
1
  6
CONTINUOUS
370
50
 62
4
100
AcDbLine
 10
8.46936
 20
0.009544
 30
0.0
 11
8.468444
 21
0.010095
 31
0.0
  0
LINE
  5
747
330
1F
100
AcDbEntity
  8
1
  6
CONTINUOUS
370
50
 62
4
100
AcDbLine
 10
8.468444
 20
0.010095
 30
0.0
 11
8.467497
 21
0.010664
 31
0.0
  0
LINE
  5
748
330
1F
100
AcDbEntity
  8
1
  6
CONTINUOUS
370
50
 62
4
100
AcDbLine
 10
8.467497
 20
0.010664
 30
0.0
 11
8.466522
 21
0.011248
 31
0.0
  0
LINE
  5
749
330
1F
100
AcDbEntity
  8
1
  6
CONTINUOUS
370
50
 62
4
100
AcDbLine
 10
8.466522
 20
0.011248
 30
0.0
 11
8.465522
 21
0.011845
 31
0.0
  0
LINE
  5
74A
330
1F
100
AcDbEntity
  8
1
  6
CONTINUOUS
370
50
 62
4
100
AcDbLine
 10
8.465522
 20
0.011845
 30
0.0
 11
8.4645
 21
0.012453
 31
0.0
  0
LINE
  5
74B
330
1F
100
AcDbEntity
  8
1
  6
CONTINUOUS
370
50
 62
4
100
AcDbLine
 10
8.4645
 20
0.012453
 30
0.0
 11
8.463460999999999
 21
0.013069
 31
0.0
  0
LINE
  5
74C
330
1F
100
AcDbEntity
  8
1
  6
CONTINUOUS
370
50
 62
4
100
AcDbLine
 10
8.306276
 20
0.113335
 30
0.0
 11
8.305549
 21
0.113764
 31
0.0
  0
LINE
  5
74D
330
1F
100
AcDbEntity
  8
1
  6
CONTINUOUS
370
50
 62
4
100
AcDbLine
 10
8.463460999999999
 20
0.013069
 30
0.0
 11
8.462406999999999
 21
0.01369
 31
0.0
  0
LINE
  5
74E
330
1F
100
AcDbEntity
  8
1
  6
CONTINUOUS
370
50
 62
4
100
AcDbLine
 10
8.462406999999999
 20
0.01369
 30
0.0
 11
8.46134
 21
0.014315
 31
0.0
  0
LINE
  5
74F
330
1F
100
AcDbEntity
  8
1
  6
CONTINUOUS
370
50
 62
4
100
AcDbLine
 10
8.46134
 20
0.014315
 30
0.0
 11
8.460263
 21
0.014941
 31
0.0
  0
LINE
  5
750
330
1F
100
AcDbEntity
  8
1
  6
CONTINUOUS
370
50
 62
4
100
AcDbLine
 10
8.460263
 20
0.014941
 30
0.0
 11
8.45918
 21
0.015566
 31
0.0
  0
LINE
  5
751
330
1F
100
AcDbEntity
  8
1
  6
CONTINUOUS
370
50
 62
4
100
AcDbLine
 10
8.307
 20
0.112919
 30
0.0
 11
8.306276
 21
0.113335
 31
0.0
  0
LINE
  5
752
330
1F
100
AcDbEntity
  8
1
  6
CONTINUOUS
370
50
 62
4
100
AcDbLine
 10
8.45918
 20
0.015566
 30
0.0
 11
8.458091
 21
0.016189
 31
0.0
  0
LINE
  5
753
330
1F
100
AcDbEntity
  8
1
  6
CONTINUOUS
370
50
 62
4
100
AcDbLine
 10
8.427068
 20
0.033755
 30
0.0
 11
8.401913
 21
0.048032
 31
0.0
  0
LINE
  5
754
330
1F
100
AcDbEntity
  8
1
  6
CONTINUOUS
370
50
 62
4
100
AcDbLine
 10
8.458091
 20
0.016189
 30
0.0
 11
8.456999999999999
 21
0.016807
 31
0.0
  0
LINE
  5
755
330
1F
100
AcDbEntity
  8
1
  6
CONTINUOUS
370
50
 62
4
100
AcDbLine
 10
8.456999999999999
 20
0.016807
 30
0.0
 11
8.427068
 21
0.033755
 31
0.0
  0
LINE
  5
756
330
1F
100
AcDbEntity
  8
1
  6
CONTINUOUS
370
50
 62
4
100
AcDbLine
 10
8.401913
 20
0.048032
 30
0.0
 11
8.381321
 21
0.059495
 31
0.0
  0
LINE
  5
757
330
1F
100
AcDbEntity
  8
1
  6
CONTINUOUS
370
50
 62
4
100
AcDbLine
 10
8.456999999999999
 20
0.040696
 30
0.0
 11
8.438025
 21
0.051004
 31
0.0
  0
LINE
  5
758
330
1F
100
AcDbEntity
  8
1
  6
CONTINUOUS
370
50
 62
4
100
AcDbLine
 10
8.438025
 20
0.051004
 30
0.0
 11
8.419127
 21
0.061175
 31
0.0
  0
LINE
  5
759
330
1F
100
AcDbEntity
  8
1
  6
CONTINUOUS
370
50
 62
4
100
AcDbLine
 10
8.467497
 20
0.146637
 30
0.0
 11
8.466522
 21
0.147159
 31
0.0
  0
LINE
  5
75A
330
1F
100
AcDbEntity
  8
1
  6
CONTINUOUS
370
50
 62
4
100
AcDbLine
 10
8.419127
 20
0.061175
 30
0.0
 11
8.399668
 21
0.071481
 31
0.0
  0
LINE
  5
75B
330
1F
100
AcDbEntity
  8
1
  6
CONTINUOUS
370
50
 62
4
100
AcDbLine
 10
8.381321
 20
0.059495
 30
0.0
 11
8.362855
 21
0.069274
 31
0.0
  0
LINE
  5
75C
330
1F
100
AcDbEntity
  8
1
  6
CONTINUOUS
370
50
 62
4
100
AcDbLine
 10
8.212622999999999
 20
-0.133569
 30
0.0
 11
8.20745
 21
-0.130846
 31
0.0
  0
LINE
  5
75D
330
1F
100
AcDbEntity
  8
1
  6
CONTINUOUS
370
50
 62
4
100
AcDbLine
 10
8.457602999999999
 20
0.040382
 30
0.0
 11
8.456999999999999
 21
0.040696
 31
0.0
  0
LINE
  5
75E
330
1F
100
AcDbEntity
  8
1
  6
CONTINUOUS
370
50
 62
4
100
AcDbLine
 10
8.297953
 20
0.117999
 30
0.0
 11
8.296999999999999
 21
0.118489
 31
0.0
  0
LINE
  5
75F
330
1F
100
AcDbEntity
  8
1
  6
CONTINUOUS
370
50
 62
4
100
AcDbLine
 10
8.29891
 20
0.117508
 30
0.0
 11
8.297953
 21
0.117999
 31
0.0
  0
LINE
  5
760
330
1F
100
AcDbEntity
  8
1
  6
CONTINUOUS
370
50
 62
4
100
AcDbLine
 10
8.29987
 20
0.117017
 30
0.0
 11
8.29891
 21
0.117508
 31
0.0
  0
LINE
  5
761
330
1F
100
AcDbEntity
  8
1
  6
CONTINUOUS
370
50
 62
4
100
AcDbLine
 10
8.399668
 20
0.071481
 30
0.0
 11
8.378881999999999
 21
0.082054
 31
0.0
  0
LINE
  5
762
330
1F
100
AcDbEntity
  8
1
  6
CONTINUOUS
370
50
 62
4
100
AcDbLine
 10
8.423573
 20
0.026974
 30
0.0
 11
8.422187
 21
0.027679
 31
0.0
  0
LINE
  5
763
330
1F
100
AcDbEntity
  8
1
  6
CONTINUOUS
370
50
 62
4
100
AcDbLine
 10
8.300836
 20
0.116526
 30
0.0
 11
8.29987
 21
0.117017
 31
0.0
  0
LINE
  5
764
330
1F
100
AcDbEntity
  8
1
  6
CONTINUOUS
370
50
 62
4
100
AcDbLine
 10
8.420793
 20
0.028387
 30
0.0
 11
8.419392
 21
0.029099
 31
0.0
  0
LINE
  5
765
330
1F
100
AcDbEntity
  8
1
  6
CONTINUOUS
370
50
 62
4
100
AcDbLine
 10
8.434616
 20
0.021364
 30
0.0
 11
8.427681
 21
0.024888
 31
0.0
  0
LINE
  5
766
330
1F
100
AcDbEntity
  8
1
  6
CONTINUOUS
370
50
 62
4
100
AcDbLine
 10
8.455744
 20
0.010633
 30
0.0
 11
8.448665
 21
0.014229
 31
0.0
  0
LINE
  5
767
330
1F
100
AcDbEntity
  8
1
  6
CONTINUOUS
370
50
 62
4
100
AcDbLine
 10
8.424953
 20
0.026273
 30
0.0
 11
8.423573
 21
0.026974
 31
0.0
  0
LINE
  5
768
330
1F
100
AcDbEntity
  8
1
  6
CONTINUOUS
370
50
 62
4
100
AcDbLine
 10
8.462837
 20
0.00703
 30
0.0
 11
8.455744
 21
0.010633
 31
0.0
  0
LINE
  5
769
330
1F
100
AcDbEntity
  8
1
  6
CONTINUOUS
370
50
 62
4
100
AcDbLine
 10
8.448665
 20
0.014229
 30
0.0
 11
8.441616999999999
 21
0.017809
 31
0.0
  0
LINE
  5
76A
330
1F
100
AcDbEntity
  8
1
  6
CONTINUOUS
370
50
 62
4
100
AcDbLine
 10
8.477
 20
-0.000163
 30
0.0
 11
8.469928
 21
0.003429
 31
0.0
  0
LINE
  5
76B
330
1F
100
AcDbEntity
  8
1
  6
CONTINUOUS
370
50
 62
4
100
AcDbLine
 10
8.422187
 20
0.027679
 30
0.0
 11
8.420793
 21
0.028387
 31
0.0
  0
LINE
  5
76C
330
1F
100
AcDbEntity
  8
1
  6
CONTINUOUS
370
50
 62
4
100
AcDbLine
 10
8.469928
 20
0.003429
 30
0.0
 11
8.462837
 21
0.00703
 31
0.0
  0
LINE
  5
76D
330
1F
100
AcDbEntity
  8
1
  6
CONTINUOUS
370
50
 62
4
100
AcDbLine
 10
8.441616999999999
 20
0.017809
 30
0.0
 11
8.434616
 21
0.021364
 31
0.0
  0
LINE
  5
76E
330
1F
100
AcDbEntity
  8
1
  6
CONTINUOUS
370
50
 62
4
100
AcDbLine
 10
8.427681
 20
0.024888
 30
0.0
 11
8.426321999999999
 21
0.025578
 31
0.0
  0
LINE
  5
76F
330
1F
100
AcDbEntity
  8
1
  6
CONTINUOUS
370
50
 62
4
100
AcDbLine
 10
8.426321999999999
 20
0.025578
 30
0.0
 11
8.424953
 21
0.026273
 31
0.0
  0
LINE
  5
770
330
1F
100
AcDbEntity
  8
1
  6
CONTINUOUS
370
50
 62
4
100
AcDbLine
 10
8.301805
 20
0.116035
 30
0.0
 11
8.300836
 21
0.116526
 31
0.0
  0
LINE
  5
771
330
1F
100
AcDbEntity
  8
1
  6
CONTINUOUS
370
50
 62
4
100
AcDbLine
 10
8.302776999999999
 20
0.115544
 30
0.0
 11
8.301805
 21
0.116035
 31
0.0
  0
LINE
  5
772
330
1F
100
AcDbEntity
  8
1
  6
CONTINUOUS
370
50
 62
4
100
AcDbLine
 10
8.362855
 20
0.069274
 30
0.0
 11
8.344263999999999
 21
0.078582
 31
0.0
  0
LINE
  5
773
330
1F
100
AcDbEntity
  8
1
  6
CONTINUOUS
370
50
 62
4
100
AcDbLine
 10
8.378881999999999
 20
0.082054
 30
0.0
 11
8.356613
 21
0.09268
 31
0.0
  0
LINE
  5
774
330
1F
100
AcDbEntity
  8
1
  6
CONTINUOUS
370
50
 62
4
100
AcDbLine
 10
8.458218
 20
0.040089
 30
0.0
 11
8.457602999999999
 21
0.040382
 31
0.0
  0
LINE
  5
775
330
1F
100
AcDbEntity
  8
1
  6
CONTINUOUS
370
50
 62
4
100
AcDbLine
 10
8.344263999999999
 20
0.078582
 30
0.0
 11
8.325622
 21
0.087397
 31
0.0
  0
LINE
  5
776
330
1F
100
AcDbEntity
  8
1
  6
CONTINUOUS
370
50
 62
4
100
AcDbLine
 10
8.296999999999999
 20
0.120679
 30
0.0
 11
8.296258
 21
0.121027
 31
0.0
  0
LINE
  5
777
330
1F
100
AcDbEntity
  8
1
  6
CONTINUOUS
370
50
 62
4
100
AcDbLine
 10
8.296258
 20
0.121027
 30
0.0
 11
8.295522
 21
0.121372
 31
0.0
  0
LINE
  5
778
330
1F
100
AcDbEntity
  8
1
  6
CONTINUOUS
370
50
 62
4
100
AcDbLine
 10
8.294789
 20
0.121715
 30
0.0
 11
8.294063
 21
0.122055
 31
0.0
  0
LINE
  5
779
330
1F
100
AcDbEntity
  8
1
  6
CONTINUOUS
370
50
 62
4
100
AcDbLine
 10
8.295522
 20
0.121372
 30
0.0
 11
8.294789
 21
0.121715
 31
0.0
  0
LINE
  5
77A
330
1F
100
AcDbEntity
  8
1
  6
CONTINUOUS
370
50
 62
4
100
AcDbLine
 10
8.294063
 20
0.122055
 30
0.0
 11
8.293341999999999
 21
0.122392
 31
0.0
  0
LINE
  5
77B
330
1F
100
AcDbEntity
  8
1
  6
CONTINUOUS
370
50
 62
4
100
AcDbLine
 10
8.293341999999999
 20
0.122392
 30
0.0
 11
8.292624
 21
0.122727
 31
0.0
  0
LINE
  5
77C
330
1F
100
AcDbEntity
  8
1
  6
CONTINUOUS
370
50
 62
4
100
AcDbLine
 10
8.293484
 20
0.122326
 30
0.0
 11
8.292624
 21
0.122727
 31
0.0
  0
LINE
  5
77D
330
1F
100
AcDbEntity
  8
1
  6
CONTINUOUS
370
50
 62
4
100
AcDbLine
 10
8.295204
 20
0.121526
 30
0.0
 11
8.293484
 21
0.122326
 31
0.0
  0
LINE
  5
77E
330
1F
100
AcDbEntity
  8
1
  6
CONTINUOUS
370
50
 62
4
100
AcDbLine
 10
8.297787
 20
0.120329
 30
0.0
 11
8.295204
 21
0.121526
 31
0.0
  0
LINE
  5
77F
330
1F
100
AcDbEntity
  8
1
  6
CONTINUOUS
370
50
 62
4
100
AcDbLine
 10
8.300343999999999
 20
0.119148
 30
0.0
 11
8.29778
 21
0.120332
 31
0.0
  0
LINE
  5
780
330
1F
100
AcDbEntity
  8
1
  6
CONTINUOUS
370
50
 62
4
100
AcDbLine
 10
8.292624
 20
0.122727
 30
0.0
 11
8.285815999999999
 21
0.125867
 31
0.0
  0
LINE
  5
781
330
1F
100
AcDbEntity
  8
1
  6
CONTINUOUS
370
50
 62
4
100
AcDbLine
 10
8.301911
 20
0.118426
 30
0.0
 11
8.300343999999999
 21
0.119148
 31
0.0
  0
LINE
  5
782
330
1F
100
AcDbEntity
  8
1
  6
CONTINUOUS
370
50
 62
4
100
AcDbLine
 10
8.466522
 20
0.147159
 30
0.0
 11
8.465522
 21
0.147619
 31
0.0
  0
LINE
  5
783
330
1F
100
AcDbEntity
  8
1
  6
CONTINUOUS
370
50
 62
4
100
AcDbLine
 10
8.30367
 20
0.117618
 30
0.0
 11
8.301911
 21
0.118426
 31
0.0
  0
LINE
  5
784
330
1F
100
AcDbEntity
  8
1
  6
CONTINUOUS
370
50
 62
4
100
AcDbLine
 10
8.305335
 20
0.116856
 30
0.0
 11
8.30367
 21
0.117618
 31
0.0
  0
LINE
  5
785
330
1F
100
AcDbEntity
  8
1
  6
CONTINUOUS
370
50
 62
4
100
AcDbLine
 10
8.307
 20
0.116095
 30
0.0
 11
8.305335
 21
0.116856
 31
0.0
  0
LINE
  5
786
330
1F
100
AcDbEntity
  8
1
  6
CONTINUOUS
370
50
 62
4
100
AcDbLine
 10
8.285815999999999
 20
0.125867
 30
0.0
 11
8.279428
 21
0.128725
 31
0.0
  0
LINE
  5
787
330
1F
100
AcDbEntity
  8
1
  6
CONTINUOUS
370
50
 62
4
100
AcDbLine
 10
8.325622
 20
0.087397
 30
0.0
 11
8.307
 21
0.095698
 31
0.0
  0
LINE
  5
788
330
1F
100
AcDbEntity
  8
1
  6
CONTINUOUS
370
50
 62
4
100
AcDbLine
 10
8.217701
 20
-0.13582
 30
0.0
 11
8.212622999999999
 21
-0.133569
 31
0.0
  0
LINE
  5
789
330
1F
100
AcDbEntity
  8
1
  6
CONTINUOUS
370
50
 62
4
100
AcDbLine
 10
8.356613
 20
0.09268
 30
0.0
 11
8.332704999999999
 21
0.103143
 31
0.0
  0
LINE
  5
78A
330
1F
100
AcDbEntity
  8
1
  6
CONTINUOUS
370
50
 62
4
100
AcDbLine
 10
8.458846
 20
0.039819
 30
0.0
 11
8.458218
 21
0.040089
 31
0.0
  0
LINE
  5
78B
330
1F
100
AcDbEntity
  8
1
  6
CONTINUOUS
370
50
 62
4
100
AcDbLine
 10
8.42039
 20
0.028015
 30
0.0
 11
8.401491
 21
0.03609
 31
0.0
  0
LINE
  5
78C
330
1F
100
AcDbEntity
  8
1
  6
CONTINUOUS
370
50
 62
4
100
AcDbLine
 10
8.279428
 20
0.128725
 30
0.0
 11
8.273413999999999
 21
0.131286
 31
0.0
  0
LINE
  5
78D
330
1F
100
AcDbEntity
  8
1
  6
CONTINUOUS
370
50
 62
4
100
AcDbLine
 10
8.435901
 20
0.021421
 30
0.0
 11
8.427681
 21
0.024913
 31
0.0
  0
LINE
  5
78E
330
1F
100
AcDbEntity
  8
1
  6
CONTINUOUS
370
50
 62
4
100
AcDbLine
 10
8.477
 20
0.003991
 30
0.0
 11
8.468781
 21
0.007481
 31
0.0
  0
LINE
  5
78F
330
1F
100
AcDbEntity
  8
1
  6
CONTINUOUS
370
50
 62
4
100
AcDbLine
 10
8.401491
 20
0.03609
 30
0.0
 11
8.382591999999999
 21
0.044107
 31
0.0
  0
LINE
  5
790
330
1F
100
AcDbEntity
  8
1
  6
CONTINUOUS
370
50
 62
4
100
AcDbLine
 10
8.44412
 20
0.017935
 30
0.0
 11
8.435901
 21
0.021421
 31
0.0
  0
LINE
  5
791
330
1F
100
AcDbEntity
  8
1
  6
CONTINUOUS
370
50
 62
4
100
AcDbLine
 10
8.468781
 20
0.007481
 30
0.0
 11
8.460561
 21
0.010966
 31
0.0
  0
LINE
  5
792
330
1F
100
AcDbEntity
  8
1
  6
CONTINUOUS
370
50
 62
4
100
AcDbLine
 10
8.45234
 20
0.01445
 30
0.0
 11
8.44412
 21
0.017935
 31
0.0
  0
LINE
  5
793
330
1F
100
AcDbEntity
  8
1
  6
CONTINUOUS
370
50
 62
4
100
AcDbLine
 10
8.460561
 20
0.010966
 30
0.0
 11
8.45234
 21
0.01445
 31
0.0
  0
LINE
  5
794
330
1F
100
AcDbEntity
  8
1
  6
CONTINUOUS
370
50
 62
4
100
AcDbLine
 10
8.332704999999999
 20
-0.108805
 30
0.0
 11
8.307
 21
-0.09824
 31
0.0
  0
LINE
  5
795
330
1F
100
AcDbEntity
  8
1
  6
CONTINUOUS
370
50
 62
4
100
AcDbLine
 10
8.382591999999999
 20
0.044107
 30
0.0
 11
8.363693999999999
 21
0.051771
 31
0.0
  0
LINE
  5
796
330
1F
100
AcDbEntity
  8
1
  6
CONTINUOUS
370
50
 62
4
100
AcDbLine
 10
8.273413999999999
 20
0.131286
 30
0.0
 11
8.267725
 21
0.13354
 31
0.0
  0
LINE
  5
797
330
1F
100
AcDbEntity
  8
1
  6
CONTINUOUS
370
50
 62
4
100
AcDbLine
 10
8.332704999999999
 20
0.103143
 30
0.0
 11
8.307
 21
0.113229
 31
0.0
  0
LINE
  5
798
330
1F
100
AcDbEntity
  8
1
  6
CONTINUOUS
370
50
 62
4
100
AcDbLine
 10
8.465522
 20
0.147619
 30
0.0
 11
8.4645
 21
0.148017
 31
0.0
  0
LINE
  5
799
330
1F
100
AcDbEntity
  8
1
  6
CONTINUOUS
370
50
 62
4
100
AcDbLine
 10
8.363693999999999
 20
0.051771
 30
0.0
 11
8.344795999999999
 21
0.059054
 31
0.0
  0
LINE
  5
79A
330
1F
100
AcDbEntity
  8
1
  6
CONTINUOUS
370
50
 62
4
100
AcDbLine
 10
8.459484
 20
0.039577
 30
0.0
 11
8.458846
 21
0.039819
 31
0.0
  0
LINE
  5
79B
330
1F
100
AcDbEntity
  8
1
  6
CONTINUOUS
370
50
 62
4
100
AcDbLine
 10
8.356613
 20
-0.11786
 30
0.0
 11
8.332704999999999
 21
-0.108805
 31
0.0
  0
LINE
  5
79C
330
1F
100
AcDbEntity
  8
1
  6
CONTINUOUS
370
50
 62
4
100
AcDbLine
 10
8.344795999999999
 20
0.059054
 30
0.0
 11
8.325897
 21
0.065943
 31
0.0
  0
LINE
  5
79D
330
1F
100
AcDbEntity
  8
1
  6
CONTINUOUS
370
50
 62
4
100
AcDbLine
 10
8.267725
 20
0.13354
 30
0.0
 11
8.262315
 21
0.135475
 31
0.0
  0
LINE
  5
79E
330
1F
100
AcDbEntity
  8
1
  6
CONTINUOUS
370
50
 62
4
100
AcDbLine
 10
8.222733
 20
-0.137593
 30
0.0
 11
8.217701
 21
-0.13582
 31
0.0
  0
LINE
  5
79F
330
1F
100
AcDbEntity
  8
1
  6
CONTINUOUS
370
50
 62
4
100
AcDbLine
 10
8.325622
 20
-0.121808
 30
0.0
 11
8.307
 21
-0.115385
 31
0.0
  0
LINE
  5
7A0
330
1F
100
AcDbEntity
  8
1
  6
CONTINUOUS
370
50
 62
4
100
AcDbLine
 10
8.378881999999999
 20
-0.125503
 30
0.0
 11
8.356613
 21
-0.11786
 31
0.0
  0
LINE
  5
7A1
330
1F
100
AcDbEntity
  8
1
  6
CONTINUOUS
370
50
 62
4
100
AcDbLine
 10
8.325897
 20
0.065943
 30
0.0
 11
8.306999
 21
0.072421
 31
0.0
  0
LINE
  5
7A2
330
1F
100
AcDbEntity
  8
1
  6
CONTINUOUS
370
50
 62
4
100
AcDbLine
 10
8.29778
 20
0.120332
 30
0.0
 11
8.297647
 21
0.120377
 31
0.0
  0
LINE
  5
7A3
330
1F
100
AcDbEntity
  8
1
  6
CONTINUOUS
370
50
 62
4
100
AcDbLine
 10
8.297787
 20
0.120329
 30
0.0
 11
8.297652
 21
0.120374
 31
0.0
  0
LINE
  5
7A4
330
1F
100
AcDbEntity
  8
1
  6
CONTINUOUS
370
50
 62
4
100
AcDbLine
 10
8.460130999999999
 20
0.039364
 30
0.0
 11
8.459484
 21
0.039577
 31
0.0
  0
LINE
  5
7A5
330
1F
100
AcDbEntity
  8
1
  6
CONTINUOUS
370
50
 62
4
100
AcDbLine
 10
8.403191
 20
-0.018479
 30
0.0
 11
8.384409
 21
-0.012397
 31
0.0
  0
LINE
  5
7A6
330
1F
100
AcDbEntity
  8
1
  6
CONTINUOUS
370
50
 62
4
100
AcDbLine
 10
8.4645
 20
0.148017
 30
0.0
 11
8.463460999999999
 21
0.148353
 31
0.0
  0
LINE
  5
7A7
330
1F
100
AcDbEntity
  8
1
  6
CONTINUOUS
370
50
 62
4
100
AcDbLine
 10
8.384409
 20
-0.012397
 30
0.0
 11
8.365627
 21
-0.006324
 31
0.0
  0
LINE
  5
7A8
330
1F
100
AcDbEntity
  8
1
  6
CONTINUOUS
370
50
 62
4
100
AcDbLine
 10
8.402543999999999
 20
-0.018241
 30
0.0
 11
8.384287
 21
-0.012342
 31
0.0
  0
LINE
  5
7A9
330
1F
100
AcDbEntity
  8
1
  6
CONTINUOUS
370
50
 62
4
100
AcDbLine
 10
8.365627
 20
-0.006324
 30
0.0
 11
8.346846
 21
-0.000293
 31
0.0
  0
LINE
  5
7AA
330
1F
100
AcDbEntity
  8
1
  6
CONTINUOUS
370
50
 62
4
100
AcDbLine
 10
8.384287
 20
-0.012342
 30
0.0
 11
8.365605
 21
-0.006368
 31
0.0
  0
LINE
  5
7AB
330
1F
100
AcDbEntity
  8
1
  6
CONTINUOUS
370
50
 62
4
100
AcDbLine
 10
8.346846
 20
-0.000293
 30
0.0
 11
8.340206
 21
0.001825
 31
0.0
  0
LINE
  5
7AC
330
1F
100
AcDbEntity
  8
1
  6
CONTINUOUS
370
50
 62
4
100
AcDbLine
 10
8.340206
 20
0.001825
 30
0.0
 11
8.333567
 21
0.003934
 31
0.0
  0
LINE
  5
7AD
330
1F
100
AcDbEntity
  8
1
  6
CONTINUOUS
370
50
 62
4
100
AcDbLine
 10
8.333567
 20
0.003934
 30
0.0
 11
8.326927
 21
0.006034
 31
0.0
  0
LINE
  5
7AE
330
1F
100
AcDbEntity
  8
1
  6
CONTINUOUS
370
50
 62
4
100
AcDbLine
 10
8.344263999999999
 20
-0.127687
 30
0.0
 11
8.325622
 21
-0.121808
 31
0.0
  0
LINE
  5
7AF
330
1F
100
AcDbEntity
  8
1
  6
CONTINUOUS
370
50
 62
4
100
AcDbLine
 10
8.365605
 20
-0.006368
 30
0.0
 11
8.346828
 21
-0.000447
 31
0.0
  0
LINE
  5
7B0
330
1F
100
AcDbEntity
  8
1
  6
CONTINUOUS
370
50
 62
4
100
AcDbLine
 10
8.326927
 20
0.006034
 30
0.0
 11
8.320288
 21
0.008123
 31
0.0
  0
LINE
  5
7B1
330
1F
100
AcDbEntity
  8
1
  6
CONTINUOUS
370
50
 62
4
100
AcDbLine
 10
8.320288
 20
0.008123
 30
0.0
 11
8.313647999999999
 21
0.010202
 31
0.0
  0
LINE
  5
7B2
330
1F
100
AcDbEntity
  8
1
  6
CONTINUOUS
370
50
 62
4
100
AcDbLine
 10
8.421327
 20
-0.024121
 30
0.0
 11
8.402543999999999
 21
-0.018241
 31
0.0
  0
LINE
  5
7B3
330
1F
100
AcDbEntity
  8
1
  6
CONTINUOUS
370
50
 62
4
100
AcDbLine
 10
8.421972
 20
-0.024348
 30
0.0
 11
8.403191
 21
-0.018479
 31
0.0
  0
LINE
  5
7B4
330
1F
100
AcDbEntity
  8
1
  6
CONTINUOUS
370
50
 62
4
100
AcDbLine
 10
8.313647999999999
 20
0.010202
 30
0.0
 11
8.307008999999999
 21
0.012268
 31
0.0
  0
LINE
  5
7B5
330
1F
100
AcDbEntity
  8
1
  6
CONTINUOUS
370
50
 62
4
100
AcDbLine
 10
8.262315
 20
0.135475
 30
0.0
 11
8.257136
 21
0.137078
 31
0.0
  0
LINE
  5
7B6
330
1F
100
AcDbEntity
  8
1
  6
CONTINUOUS
370
50
 62
4
100
AcDbLine
 10
8.477
 20
0.096171
 30
0.0
 11
8.469928
 21
0.098338
 31
0.0
  0
LINE
  5
7B7
330
1F
100
AcDbEntity
  8
1
  6
CONTINUOUS
370
50
 62
4
100
AcDbLine
 10
8.399668
 20
-0.131828
 30
0.0
 11
8.378881999999999
 21
-0.125503
 31
0.0
  0
LINE
  5
7B8
330
1F
100
AcDbEntity
  8
1
  6
CONTINUOUS
370
50
 62
4
100
AcDbLine
 10
8.469928
 20
0.098338
 30
0.0
 11
8.462837
 21
0.100458
 31
0.0
  0
LINE
  5
7B9
330
1F
100
AcDbEntity
  8
1
  6
CONTINUOUS
370
50
 62
4
100
AcDbLine
 10
8.440755
 20
-0.029959
 30
0.0
 11
8.421972
 21
-0.024348
 31
0.0
  0
LINE
  5
7BA
330
1F
100
AcDbEntity
  8
1
  6
CONTINUOUS
370
50
 62
4
100
AcDbLine
 10
8.440404
 20
-0.029816
 30
0.0
 11
8.421327
 21
-0.024121
 31
0.0
  0
LINE
  5
7BB
330
1F
100
AcDbEntity
  8
1
  6
CONTINUOUS
370
50
 62
4
100
AcDbLine
 10
8.462837
 20
0.100458
 30
0.0
 11
8.455744
 21
0.102524
 31
0.0
  0
LINE
  5
7BC
330
1F
100
AcDbEntity
  8
1
  6
CONTINUOUS
370
50
 62
4
100
AcDbLine
 10
6.476999999999999
 20
0.13995
 30
0.0
 11
-0.01
 21
1.99995
 31
0.0
  0
LINE
  5
7BD
330
1F
100
AcDbEntity
  8
1
  6
CONTINUOUS
370
50
 62
4
100
AcDbLine
 10
8.459539
 20
-0.035334
 30
0.0
 11
8.440755
 21
-0.029959
 31
0.0
  0
LINE
  5
7BE
330
1F
100
AcDbEntity
  8
1
  6
CONTINUOUS
370
50
 62
4
100
AcDbLine
 10
8.459581
 20
-0.035288
 30
0.0
 11
8.440404
 21
-0.029816
 31
0.0
  0
LINE
  5
7BF
330
1F
100
AcDbEntity
  8
1
  6
CONTINUOUS
370
50
 62
4
100
AcDbLine
 10
8.362855
 20
-0.132979
 30
0.0
 11
8.344263999999999
 21
-0.127687
 31
0.0
  0
LINE
  5
7C0
330
1F
100
AcDbEntity
  8
1
  6
CONTINUOUS
370
50
 62
4
100
AcDbLine
 10
8.455744
 20
0.102524
 30
0.0
 11
8.448665
 21
0.104531
 31
0.0
  0
LINE
  5
7C1
330
1F
100
AcDbEntity
  8
1
  6
CONTINUOUS
370
50
 62
4
100
AcDbLine
 10
8.460785
 20
0.039182
 30
0.0
 11
8.460130999999999
 21
0.039364
 31
0.0
  0
LINE
  5
7C2
330
1F
100
AcDbEntity
  8
1
  6
CONTINUOUS
370
50
 62
4
100
AcDbLine
 10
8.448665
 20
0.104531
 30
0.0
 11
8.441616999999999
 21
0.106472
 31
0.0
  0
LINE
  5
7C3
330
1F
100
AcDbEntity
  8
1
  6
CONTINUOUS
370
50
 62
4
100
AcDbLine
 10
8.380481
 20
0.096145
 30
0.0
 11
8.364272
 21
0.100549
 31
0.0
  0
LINE
  5
7C4
330
1F
100
AcDbEntity
  8
1
  6
CONTINUOUS
370
50
 62
4
100
AcDbLine
 10
8.388663
 20
0.093922
 30
0.0
 11
8.380481
 21
0.096145
 31
0.0
  0
LINE
  5
7C5
330
1F
100
AcDbEntity
  8
1
  6
CONTINUOUS
370
50
 62
4
100
AcDbLine
 10
8.364272
 20
0.100549
 30
0.0
 11
8.347832
 21
0.105011
 31
0.0
  0
LINE
  5
7C6
330
1F
100
AcDbEntity
  8
1
  6
CONTINUOUS
370
50
 62
4
100
AcDbLine
 10
8.347832
 20
0.105011
 30
0.0
 11
8.337185999999999
 21
0.107897
 31
0.0
  0
LINE
  5
7C7
330
1F
100
AcDbEntity
  8
1
  6
CONTINUOUS
370
50
 62
4
100
AcDbLine
 10
8.337185999999999
 20
0.107897
 30
0.0
 11
8.322133
 21
0.111976
 31
0.0
  0
LINE
  5
7C8
330
1F
100
AcDbEntity
  8
1
  6
CONTINUOUS
370
50
 62
4
100
AcDbLine
 10
8.322133
 20
0.111976
 30
0.0
 11
8.306996999999999
 21
0.116076
 31
0.0
  0
LINE
  5
7C9
330
1F
100
AcDbEntity
  8
1
  6
CONTINUOUS
370
50
 62
4
100
AcDbLine
 10
8.405524999999999
 20
0.089378
 30
0.0
 11
8.388663
 21
0.093922
 31
0.0
  0
LINE
  5
7CA
330
1F
100
AcDbEntity
  8
1
  6
CONTINUOUS
370
50
 62
4
100
AcDbLine
 10
8.441616999999999
 20
0.106472
 30
0.0
 11
8.434616
 21
0.10834
 31
0.0
  0
LINE
  5
7CB
330
1F
100
AcDbEntity
  8
1
  6
CONTINUOUS
370
50
 62
4
100
AcDbLine
 10
8.419127
 20
-0.136932
 30
0.0
 11
8.399668
 21
-0.131828
 31
0.0
  0
LINE
  5
7CC
330
1F
100
AcDbEntity
  8
1
  6
CONTINUOUS
370
50
 62
4
100
AcDbLine
 10
8.463460999999999
 20
0.148353
 30
0.0
 11
8.462406999999999
 21
0.148626
 31
0.0
  0
LINE
  5
7CD
330
1F
100
AcDbEntity
  8
1
  6
CONTINUOUS
370
50
 62
4
100
AcDbLine
 10
8.434616
 20
0.10834
 30
0.0
 11
8.427681
 21
0.11013
 31
0.0
  0
LINE
  5
7CE
330
1F
100
AcDbEntity
  8
1
  6
CONTINUOUS
370
50
 62
4
100
AcDbLine
 10
8.422683
 20
0.084988
 30
0.0
 11
8.405524999999999
 21
0.089378
 31
0.0
  0
LINE
  5
7CF
330
1F
100
AcDbEntity
  8
1
  6
CONTINUOUS
370
50
 62
4
100
AcDbLine
 10
8.227772
 20
-0.138878
 30
0.0
 11
8.222733
 21
-0.137593
 31
0.0
  0
LINE
  5
7D0
330
1F
100
AcDbEntity
  8
1
  6
CONTINUOUS
370
50
 62
4
100
AcDbLine
 10
8.426097
 20
-0.014293
 30
0.0
 11
8.42038
 21
-0.012842
 31
0.0
  0
LINE
  5
7D1
330
1F
100
AcDbEntity
  8
1
  6
CONTINUOUS
370
50
 62
4
100
AcDbLine
 10
8.257136
 20
0.137078
 30
0.0
 11
8.252148
 21
0.138339
 31
0.0
  0
LINE
  5
7D2
330
1F
100
AcDbEntity
  8
1
  6
CONTINUOUS
370
50
 62
4
100
AcDbLine
 10
8.381321
 20
-0.137645
 30
0.0
 11
8.362855
 21
-0.132979
 31
0.0
  0
LINE
  5
7D3
330
1F
100
AcDbEntity
  8
1
  6
CONTINUOUS
370
50
 62
4
100
AcDbLine
 10
8.431733
 20
-0.015715
 30
0.0
 11
8.426097
 21
-0.014293
 31
0.0
  0
LINE
  5
7D4
330
1F
100
AcDbEntity
  8
1
  6
CONTINUOUS
370
50
 62
4
100
AcDbLine
 10
8.437278
 20
-0.017106
 30
0.0
 11
8.431733
 21
-0.015715
 31
0.0
  0
LINE
  5
7D5
330
1F
100
AcDbEntity
  8
1
  6
CONTINUOUS
370
50
 62
4
100
AcDbLine
 10
8.442794
 20
-0.018481
 30
0.0
 11
8.437278
 21
-0.017106
 31
0.0
  0
LINE
  5
7D6
330
1F
100
AcDbEntity
  8
1
  6
CONTINUOUS
370
50
 62
4
100
AcDbLine
 10
8.448305999999999
 20
-0.019847
 30
0.0
 11
8.442794
 21
-0.018481
 31
0.0
  0
LINE
  5
7D7
330
1F
100
AcDbEntity
  8
1
  6
CONTINUOUS
370
50
 62
4
100
AcDbLine
 10
8.453814999999999
 20
-0.021205
 30
0.0
 11
8.448305999999999
 21
-0.019847
 31
0.0
  0
LINE
  5
7D8
330
1F
100
AcDbEntity
  8
1
  6
CONTINUOUS
370
50
 62
4
100
AcDbLine
 10
8.429488
 20
0.083317
 30
0.0
 11
8.422683
 21
0.084988
 31
0.0
  0
LINE
  5
7D9
330
1F
100
AcDbEntity
  8
1
  6
CONTINUOUS
370
50
 62
4
100
AcDbLine
 10
8.459323999999999
 20
-0.022553
 30
0.0
 11
8.453814999999999
 21
-0.021205
 31
0.0
  0
LINE
  5
7DA
330
1F
100
AcDbEntity
  8
1
  6
CONTINUOUS
370
50
 62
4
100
AcDbLine
 10
8.427681
 20
0.11013
 30
0.0
 11
8.426321999999999
 21
0.110461
 31
0.0
  0
LINE
  5
7DB
330
1F
100
AcDbEntity
  8
1
  6
CONTINUOUS
370
50
 62
4
100
AcDbLine
 10
8.444046
 20
0.079873
 30
0.0
 11
8.429488
 21
0.083317
 31
0.0
  0
LINE
  5
7DC
330
1F
100
AcDbEntity
  8
1
  6
CONTINUOUS
370
50
 62
4
100
AcDbLine
 10
8.461442
 20
0.039033
 30
0.0
 11
8.460785
 21
0.039182
 31
0.0
  0
LINE
  5
7DD
330
1F
100
AcDbEntity
  8
1
  6
CONTINUOUS
370
50
 62
4
100
AcDbLine
 10
8.426321999999999
 20
0.110461
 30
0.0
 11
8.424953
 21
0.11077
 31
0.0
  0
LINE
  5
7DE
330
1F
100
AcDbEntity
  8
1
  6
CONTINUOUS
370
50
 62
4
100
AcDbLine
 10
8.458758999999999
 20
0.076559
 30
0.0
 11
8.444046
 21
0.079873
 31
0.0
  0
LINE
  5
7DF
330
1F
100
AcDbEntity
  8
1
  6
CONTINUOUS
370
50
 62
4
100
AcDbLine
 10
8.438025
 20
-0.14105
 30
0.0
 11
8.419127
 21
-0.136932
 31
0.0
  0
LINE
  5
7E0
330
1F
100
AcDbEntity
  8
1
  6
CONTINUOUS
370
50
 62
4
100
AcDbLine
 10
8.401913
 20
-0.14207
 30
0.0
 11
8.381321
 21
-0.137645
 31
0.0
  0
LINE
  5
7E1
330
1F
100
AcDbEntity
  8
1
  6
CONTINUOUS
370
50
 62
4
100
AcDbLine
 10
8.424953
 20
0.11077
 30
0.0
 11
8.423573
 21
0.111056
 31
0.0
  0
LINE
  5
7E2
330
1F
100
AcDbEntity
  8
1
  6
CONTINUOUS
370
50
 62
4
100
AcDbLine
 10
8.462406999999999
 20
0.148626
 30
0.0
 11
8.46134
 21
0.148837
 31
0.0
  0
LINE
  5
7E3
330
1F
100
AcDbEntity
  8
1
  6
CONTINUOUS
370
50
 62
4
100
AcDbLine
 10
8.423573
 20
0.111056
 30
0.0
 11
8.422187
 21
0.11132
 31
0.0
  0
LINE
  5
7E4
330
1F
100
AcDbEntity
  8
1
  6
CONTINUOUS
370
50
 62
4
100
AcDbLine
 10
8.252148
 20
0.138339
 30
0.0
 11
8.247315
 21
0.139246
 31
0.0
  0
LINE
  5
7E5
330
1F
100
AcDbEntity
  8
1
  6
CONTINUOUS
370
50
 62
4
100
AcDbLine
 10
8.456999999999999
 20
-0.144374
 30
0.0
 11
8.438025
 21
-0.14105
 31
0.0
  0
LINE
  5
7E6
330
1F
100
AcDbEntity
  8
1
  6
CONTINUOUS
370
50
 62
4
100
AcDbLine
 10
8.422187
 20
0.11132
 30
0.0
 11
8.420793
 21
0.111564
 31
0.0
  0
LINE
  5
7E7
330
1F
100
AcDbEntity
  8
1
  6
CONTINUOUS
370
50
 62
4
100
AcDbLine
 10
8.462094
 20
0.038921
 30
0.0
 11
8.461442
 21
0.039033
 31
0.0
  0
LINE
  5
7E8
330
1F
100
AcDbEntity
  8
1
  6
CONTINUOUS
370
50
 62
4
100
AcDbLine
 10
8.427068
 20
-0.146138
 30
0.0
 11
8.401913
 21
-0.14207
 31
0.0
  0
LINE
  5
7E9
330
1F
100
AcDbEntity
  8
1
  6
CONTINUOUS
370
50
 62
4
100
AcDbLine
 10
8.420793
 20
0.111564
 30
0.0
 11
8.419392
 21
0.111786
 31
0.0
  0
LINE
  5
7EA
330
1F
100
AcDbEntity
  8
1
  6
CONTINUOUS
370
50
 62
4
100
AcDbLine
 10
8.232859
 20
-0.139665
 30
0.0
 11
8.227772
 21
-0.138878
 31
0.0
  0
LINE
  5
7EB
330
1F
100
AcDbEntity
  8
1
  6
CONTINUOUS
370
50
 62
4
100
AcDbLine
 10
8.46134
 20
0.148837
 30
0.0
 11
8.460263
 21
0.148985
 31
0.0
  0
LINE
  5
7EC
330
1F
100
AcDbEntity
  8
1
  6
CONTINUOUS
370
50
 62
4
100
AcDbLine
 10
8.457602999999999
 20
-0.144453
 30
0.0
 11
8.456999999999999
 21
-0.144374
 31
0.0
  0
LINE
  5
7ED
330
1F
100
AcDbEntity
  8
1
  6
CONTINUOUS
370
50
 62
4
100
AcDbLine
 10
8.462742
 20
0.038845
 30
0.0
 11
8.462094
 21
0.038921
 31
0.0
  0
LINE
  5
7EE
330
1F
100
AcDbEntity
  8
1
  6
CONTINUOUS
370
50
 62
4
100
AcDbLine
 10
8.247315
 20
0.139246
 30
0.0
 11
8.242604
 21
0.139787
 31
0.0
  0
LINE
  5
7EF
330
1F
100
AcDbEntity
  8
1
  6
CONTINUOUS
370
50
 62
4
100
AcDbLine
 10
8.456999999999999
 20
-0.149055
 30
0.0
 11
8.427068
 21
-0.146138
 31
0.0
  0
LINE
  5
7F0
330
1F
100
AcDbEntity
  8
1
  6
CONTINUOUS
370
50
 62
4
100
AcDbLine
 10
8.458218
 20
-0.144505
 30
0.0
 11
8.457602999999999
 21
-0.144453
 31
0.0
  0
LINE
  5
7F1
330
1F
100
AcDbEntity
  8
1
  6
CONTINUOUS
370
50
 62
4
100
AcDbLine
 10
8.460263
 20
0.148985
 30
0.0
 11
8.45918
 21
0.14907
 31
0.0
  0
LINE
  5
7F2
330
1F
100
AcDbEntity
  8
1
  6
CONTINUOUS
370
50
 62
4
100
AcDbLine
 10
8.297647
 20
0.120377
 30
0.0
 11
8.297514999999999
 21
0.120387
 31
0.0
  0
LINE
  5
7F3
330
1F
100
AcDbEntity
  8
1
  6
CONTINUOUS
370
50
 62
4
100
AcDbLine
 10
8.297652
 20
0.120374
 30
0.0
 11
8.297519
 21
0.120383
 31
0.0
  0
LINE
  5
7F4
330
1F
100
AcDbEntity
  8
1
  6
CONTINUOUS
370
50
 62
4
100
AcDbLine
 10
8.463384
 20
0.038805
 30
0.0
 11
8.462742
 21
0.038845
 31
0.0
  0
LINE
  5
7F5
330
1F
100
AcDbEntity
  8
1
  6
CONTINUOUS
370
50
 62
4
100
AcDbLine
 10
8.23798
 20
-0.139949
 30
0.0
 11
8.232859
 21
-0.139665
 31
0.0
  0
LINE
  5
7F6
330
1F
100
AcDbEntity
  8
1
  6
CONTINUOUS
370
50
 62
4
100
AcDbLine
 10
8.458846
 20
-0.14453
 30
0.0
 11
8.458218
 21
-0.144505
 31
0.0
  0
LINE
  5
7F7
330
1F
100
AcDbEntity
  8
1
  6
CONTINUOUS
370
50
 62
4
100
AcDbLine
 10
8.458091
 20
-0.149094
 30
0.0
 11
8.456999999999999
 21
-0.149055
 31
0.0
  0
LINE
  5
7F8
330
1F
100
AcDbEntity
  8
1
  6
CONTINUOUS
370
50
 62
4
100
AcDbLine
 10
8.242604
 20
0.139787
 30
0.0
 11
8.23798
 21
0.139949
 31
0.0
  0
LINE
  5
7F9
330
1F
100
AcDbEntity
  8
1
  6
CONTINUOUS
370
50
 62
4
100
AcDbLine
 10
8.45918
 20
0.14907
 30
0.0
 11
8.458091
 21
0.149094
 31
0.0
  0
LINE
  5
7FA
330
1F
100
AcDbEntity
  8
1
  6
CONTINUOUS
370
50
 62
4
100
AcDbLine
 10
8.46402
 20
0.0388
 30
0.0
 11
8.463384
 21
0.038805
 31
0.0
  0
LINE
  5
7FB
330
1F
100
AcDbEntity
  8
1
  6
CONTINUOUS
370
50
 62
4
100
AcDbLine
 10
6.476999999999999
 20
-0.13995
 30
0.0
 11
8.238356
 21
-0.13995
 31
0.0
  0
LINE
  5
7FC
330
1F
100
AcDbEntity
  8
1
  6
CONTINUOUS
370
50
 62
4
100
AcDbLine
 10
6.476999999999999
 20
0.13995
 30
0.0
 11
8.238356
 21
0.13995
 31
0.0
  0
LINE
  5
7FD
330
1F
100
AcDbEntity
  8
1
  6
CONTINUOUS
370
50
 62
4
100
AcDbLine
 10
8.458846
 20
-0.14453
 30
0.0
 11
8.459484
 21
-0.144524
 31
0.0
  0
LINE
  5
7FE
330
1F
100
AcDbEntity
  8
1
  6
CONTINUOUS
370
50
 62
4
100
AcDbLine
 10
8.305333
 20
-0.115366
 30
0.0
 11
8.307
 21
-0.115348
 31
0.0
  0
LINE
  5
7FF
330
1F
100
AcDbEntity
  8
1
  6
CONTINUOUS
370
50
 62
4
100
AcDbLine
 10
8.300333
 20
-0.115424
 30
0.0
 11
8.302
 21
-0.115405
 31
0.0
  0
LINE
  5
800
330
1F
100
AcDbEntity
  8
1
  6
CONTINUOUS
370
50
 62
4
100
AcDbLine
 10
8.303666999999999
 20
-0.115385
 30
0.0
 11
8.305333
 21
-0.115366
 31
0.0
  0
LINE
  5
801
330
1F
100
AcDbEntity
  8
1
  6
CONTINUOUS
370
50
 62
4
100
AcDbLine
 10
8.29222
 20
-0.107856
 30
0.0
 11
8.296999999999999
 21
-0.107799
 31
0.0
  0
LINE
  5
802
330
1F
100
AcDbEntity
  8
1
  6
CONTINUOUS
370
50
 62
4
100
AcDbLine
 10
8.296999999999999
 20
-0.115464
 30
0.0
 11
8.298667
 21
-0.115444
 31
0.0
  0
LINE
  5
803
330
1F
100
AcDbEntity
  8
1
  6
CONTINUOUS
370
50
 62
4
100
AcDbLine
 10
8.302
 20
-0.115405
 30
0.0
 11
8.303666999999999
 21
-0.115385
 31
0.0
  0
LINE
  5
804
330
1F
100
AcDbEntity
  8
1
  6
CONTINUOUS
370
50
 62
4
100
AcDbLine
 10
8.298667
 20
-0.115444
 30
0.0
 11
8.300333
 21
-0.115424
 31
0.0
  0
LINE
  5
805
330
1F
100
AcDbEntity
  8
1
  6
CONTINUOUS
370
50
 62
4
100
AcDbLine
 10
8.28744
 20
-0.107914
 30
0.0
 11
8.29222
 21
-0.107856
 31
0.0
  0
LINE
  5
806
330
1F
100
AcDbEntity
  8
1
  6
CONTINUOUS
370
50
 62
4
100
AcDbLine
 10
8.28266
 20
-0.107974
 30
0.0
 11
8.28744
 21
-0.107914
 31
0.0
  0
LINE
  5
807
330
1F
100
AcDbEntity
  8
1
  6
CONTINUOUS
370
50
 62
4
100
AcDbLine
 10
8.277882
 20
-0.108036
 30
0.0
 11
8.28266
 21
-0.107974
 31
0.0
  0
LINE
  5
808
330
1F
100
AcDbEntity
  8
1
  6
CONTINUOUS
370
50
 62
4
100
AcDbLine
 10
8.273102
 20
-0.1081
 30
0.0
 11
8.277882
 21
-0.108036
 31
0.0
  0
LINE
  5
809
330
1F
100
AcDbEntity
  8
1
  6
CONTINUOUS
370
50
 62
4
100
AcDbLine
 10
8.268322
 20
-0.108166
 30
0.0
 11
8.273102
 21
-0.1081
 31
0.0
  0
LINE
  5
80A
330
1F
100
AcDbEntity
  8
1
  6
CONTINUOUS
370
50
 62
4
100
AcDbLine
 10
8.263543
 20
-0.108233
 30
0.0
 11
8.268322
 21
-0.108166
 31
0.0
  0
LINE
  5
80B
330
1F
100
AcDbEntity
  8
1
  6
CONTINUOUS
370
50
 62
4
100
AcDbLine
 10
8.305333
 20
0.095719
 30
0.0
 11
8.307
 21
0.095743
 31
0.0
  0
LINE
  5
80C
330
1F
100
AcDbEntity
  8
1
  6
CONTINUOUS
370
50
 62
4
100
AcDbLine
 10
8.303666999999999
 20
0.095695
 30
0.0
 11
8.305333
 21
0.095719
 31
0.0
  0
LINE
  5
80D
330
1F
100
AcDbEntity
  8
1
  6
CONTINUOUS
370
50
 62
4
100
AcDbLine
 10
8.29222
 20
0.08918
 30
0.0
 11
8.296999999999999
 21
0.089249
 31
0.0
  0
LINE
  5
80E
330
1F
100
AcDbEntity
  8
1
  6
CONTINUOUS
370
50
 62
4
100
AcDbLine
 10
8.28744
 20
0.08911
 30
0.0
 11
8.29222
 21
0.08918
 31
0.0
  0
LINE
  5
80F
330
1F
100
AcDbEntity
  8
1
  6
CONTINUOUS
370
50
 62
4
100
AcDbLine
 10
8.296999999999999
 20
0.095594
 30
0.0
 11
8.298667
 21
0.095619
 31
0.0
  0
LINE
  5
810
330
1F
100
AcDbEntity
  8
1
  6
CONTINUOUS
370
50
 62
4
100
AcDbLine
 10
8.300333
 20
0.095645
 30
0.0
 11
8.303666999999999
 21
0.095695
 31
0.0
  0
LINE
  5
811
330
1F
100
AcDbEntity
  8
1
  6
CONTINUOUS
370
50
 62
4
100
AcDbLine
 10
8.28266
 20
0.089037
 30
0.0
 11
8.28744
 21
0.08911
 31
0.0
  0
LINE
  5
812
330
1F
100
AcDbEntity
  8
1
  6
CONTINUOUS
370
50
 62
4
100
AcDbLine
 10
8.298667
 20
0.095619
 30
0.0
 11
8.300333
 21
0.095645
 31
0.0
  0
LINE
  5
813
330
1F
100
AcDbEntity
  8
1
  6
CONTINUOUS
370
50
 62
4
100
AcDbLine
 10
8.277882
 20
0.088961
 30
0.0
 11
8.28266
 21
0.089037
 31
0.0
  0
LINE
  5
814
330
1F
100
AcDbEntity
  8
1
  6
CONTINUOUS
370
50
 62
4
100
AcDbLine
 10
8.273102
 20
0.088884
 30
0.0
 11
8.277882
 21
0.088961
 31
0.0
  0
LINE
  5
815
330
1F
100
AcDbEntity
  8
1
  6
CONTINUOUS
370
50
 62
4
100
AcDbLine
 10
8.268322
 20
0.088804
 30
0.0
 11
8.273102
 21
0.088884
 31
0.0
  0
LINE
  5
816
330
1F
100
AcDbEntity
  8
1
  6
CONTINUOUS
370
50
 62
4
100
AcDbLine
 10
8.263543
 20
0.088722
 30
0.0
 11
8.268322
 21
0.088804
 31
0.0
  0
LINE
  5
817
330
1F
100
AcDbEntity
  8
1
  6
CONTINUOUS
370
50
 62
4
100
AcDbLine
 10
8.468781
 20
0.112681
 30
0.0
 11
8.477
 21
0.112848
 31
0.0
  0
LINE
  5
818
330
1F
100
AcDbEntity
  8
1
  6
CONTINUOUS
370
50
 62
4
100
AcDbLine
 10
8.458091
 20
-0.149094
 30
0.0
 11
8.45918
 21
-0.14907
 31
0.0
  0
LINE
  5
819
330
1F
100
AcDbEntity
  8
1
  6
CONTINUOUS
370
50
 62
4
100
AcDbLine
 10
8.260745
 20
-0.108296
 30
0.0
 11
8.263543
 21
-0.108233
 31
0.0
  0
LINE
  5
81A
330
1F
100
AcDbEntity
  8
1
  6
CONTINUOUS
370
50
 62
4
100
AcDbLine
 10
8.260812
 20
0.088648
 30
0.0
 11
8.263543
 21
0.088722
 31
0.0
  0
LINE
  5
81B
330
1F
100
AcDbEntity
  8
1
  6
CONTINUOUS
370
50
 62
4
100
AcDbLine
 10
8.460561
 20
0.112403
 30
0.0
 11
8.468781
 21
0.112681
 31
0.0
  0
LINE
  5
81C
330
1F
100
AcDbEntity
  8
1
  6
CONTINUOUS
370
50
 62
4
100
AcDbLine
 10
8.23798
 20
-0.139949
 30
0.0
 11
8.242604
 21
-0.139787
 31
0.0
  0
LINE
  5
81D
330
1F
100
AcDbEntity
  8
1
  6
CONTINUOUS
370
50
 62
4
100
AcDbLine
 10
8.456999999999999
 20
0.149055
 30
0.0
 11
8.458091
 21
0.149094
 31
0.0
  0
LINE
  5
81E
330
1F
100
AcDbEntity
  8
1
  6
CONTINUOUS
370
50
 62
4
100
AcDbLine
 10
8.257944
 20
-0.108407
 30
0.0
 11
8.260745
 21
-0.108296
 31
0.0
  0
LINE
  5
81F
330
1F
100
AcDbEntity
  8
1
  6
CONTINUOUS
370
50
 62
4
100
AcDbLine
 10
8.258077
 20
0.088519
 30
0.0
 11
8.260812
 21
0.088648
 31
0.0
  0
LINE
  5
820
330
1F
100
AcDbEntity
  8
1
  6
CONTINUOUS
370
50
 62
4
100
AcDbLine
 10
8.45234
 20
0.112014
 30
0.0
 11
8.460561
 21
0.112403
 31
0.0
  0
LINE
  5
821
330
1F
100
AcDbEntity
  8
1
  6
CONTINUOUS
370
50
 62
4
100
AcDbLine
 10
8.46402
 20
0.0388
 30
0.0
 11
8.464647
 21
0.038831
 31
0.0
  0
LINE
  5
822
330
1F
100
AcDbEntity
  8
1
  6
CONTINUOUS
370
50
 62
4
100
AcDbLine
 10
8.470329
 20
-0.139004
 30
0.0
 11
8.470613
 21
-0.138989
 31
0.0
  0
LINE
  5
823
330
1F
100
AcDbEntity
  8
1
  6
CONTINUOUS
370
50
 62
4
100
AcDbLine
 10
8.255144
 20
-0.108564
 30
0.0
 11
8.257944
 21
-0.108407
 31
0.0
  0
LINE
  5
824
330
1F
100
AcDbEntity
  8
1
  6
CONTINUOUS
370
50
 62
4
100
AcDbLine
 10
8.459484
 20
-0.144524
 30
0.0
 11
8.460130999999999
 21
-0.144487
 31
0.0
  0
LINE
  5
825
330
1F
100
AcDbEntity
  8
1
  6
CONTINUOUS
370
50
 62
4
100
AcDbLine
 10
8.44412
 20
0.11151
 30
0.0
 11
8.45234
 21
0.112014
 31
0.0
  0
LINE
  5
826
330
1F
100
AcDbEntity
  8
1
  6
CONTINUOUS
370
50
 62
4
100
AcDbLine
 10
8.255341999999999
 20
0.088336
 30
0.0
 11
8.258077
 21
0.088519
 31
0.0
  0
LINE
  5
827
330
1F
100
AcDbEntity
  8
1
  6
CONTINUOUS
370
50
 62
4
100
AcDbLine
 10
8.25235
 20
-0.108767
 30
0.0
 11
8.255144
 21
-0.108564
 31
0.0
  0
LINE
  5
828
330
1F
100
AcDbEntity
  8
1
  6
CONTINUOUS
370
50
 62
4
100
AcDbLine
 10
8.435901
 20
0.11089
 30
0.0
 11
8.44412
 21
0.11151
 31
0.0
  0
LINE
  5
829
330
1F
100
AcDbEntity
  8
1
  6
CONTINUOUS
370
50
 62
4
100
AcDbLine
 10
8.45918
 20
-0.14907
 30
0.0
 11
8.460263
 21
-0.148985
 31
0.0
  0
LINE
  5
82A
330
1F
100
AcDbEntity
  8
1
  6
CONTINUOUS
370
50
 62
4
100
AcDbLine
 10
8.252613
 20
0.088096
 30
0.0
 11
8.255341999999999
 21
0.088336
 31
0.0
  0
LINE
  5
82B
330
1F
100
AcDbEntity
  8
1
  6
CONTINUOUS
370
50
 62
4
100
AcDbLine
 10
8.427681
 20
0.110152
 30
0.0
 11
8.435901
 21
0.11089
 31
0.0
  0
LINE
  5
82C
330
1F
100
AcDbEntity
  8
1
  6
CONTINUOUS
370
50
 62
4
100
AcDbLine
 10
8.249566
 20
-0.109018
 30
0.0
 11
8.25235
 21
-0.108767
 31
0.0
  0
LINE
  5
82D
330
1F
100
AcDbEntity
  8
1
  6
CONTINUOUS
370
50
 62
4
100
AcDbLine
 10
8.422808999999999
 20
0.145556
 30
0.0
 11
8.456999999999999
 21
0.149055
 31
0.0
  0
LINE
  5
82E
330
1F
100
AcDbEntity
  8
1
  6
CONTINUOUS
370
50
 62
4
100
AcDbLine
 10
8.460130999999999
 20
-0.144487
 30
0.0
 11
8.460785
 21
-0.144418
 31
0.0
  0
LINE
  5
82F
330
1F
100
AcDbEntity
  8
1
  6
CONTINUOUS
370
50
 62
4
100
AcDbLine
 10
8.464647
 20
0.038831
 30
0.0
 11
8.465259999999999
 21
0.038896
 31
0.0
  0
LINE
  5
830
330
1F
100
AcDbEntity
  8
1
  6
CONTINUOUS
370
50
 62
4
100
AcDbLine
 10
8.246798
 20
-0.109315
 30
0.0
 11
8.249566
 21
-0.109018
 31
0.0
  0
LINE
  5
831
330
1F
100
AcDbEntity
  8
1
  6
CONTINUOUS
370
50
 62
4
100
AcDbLine
 10
8.249894
 20
0.087799
 30
0.0
 11
8.252613
 21
0.088096
 31
0.0
  0
LINE
  5
832
330
1F
100
AcDbEntity
  8
1
  6
CONTINUOUS
370
50
 62
4
100
AcDbLine
 10
8.242604
 20
-0.139787
 30
0.0
 11
8.247315
 21
-0.139246
 31
0.0
  0
LINE
  5
833
330
1F
100
AcDbEntity
  8
1
  6
CONTINUOUS
370
50
 62
4
100
AcDbLine
 10
8.470613
 20
-0.138989
 30
0.0
 11
8.470901999999999
 21
-0.138955
 31
0.0
  0
LINE
  5
834
330
1F
100
AcDbEntity
  8
1
  6
CONTINUOUS
370
50
 62
4
100
AcDbLine
 10
8.411064999999999
 20
0.108287
 30
0.0
 11
8.42039
 21
0.109395
 31
0.0
  0
LINE
  5
835
330
1F
100
AcDbEntity
  8
1
  6
CONTINUOUS
370
50
 62
4
100
AcDbLine
 10
8.24405
 20
-0.109659
 30
0.0
 11
8.246798
 21
-0.109315
 31
0.0
  0
LINE
  5
836
330
1F
100
AcDbEntity
  8
1
  6
CONTINUOUS
370
50
 62
4
100
AcDbLine
 10
8.247188999999999
 20
0.087445
 30
0.0
 11
8.249894
 21
0.087799
 31
0.0
  0
LINE
  5
837
330
1F
100
AcDbEntity
  8
1
  6
CONTINUOUS
370
50
 62
4
100
AcDbLine
 10
8.40174
 20
0.107017
 30
0.0
 11
8.411064999999999
 21
0.108287
 31
0.0
  0
LINE
  5
838
330
1F
100
AcDbEntity
  8
1
  6
CONTINUOUS
370
50
 62
4
100
AcDbLine
 10
8.460263
 20
-0.148985
 30
0.0
 11
8.46134
 21
-0.148837
 31
0.0
  0
LINE
  5
839
330
1F
100
AcDbEntity
  8
1
  6
CONTINUOUS
370
50
 62
4
100
AcDbLine
 10
8.241328
 20
-0.11005
 30
0.0
 11
8.24405
 21
-0.109659
 31
0.0
  0
LINE
  5
83A
330
1F
100
AcDbEntity
  8
1
  6
CONTINUOUS
370
50
 62
4
100
AcDbLine
 10
8.392415
 20
0.105586
 30
0.0
 11
8.40174
 21
0.107017
 31
0.0
  0
LINE
  5
83B
330
1F
100
AcDbEntity
  8
1
  6
CONTINUOUS
370
50
 62
4
100
AcDbLine
 10
8.244503
 20
0.087031
 30
0.0
 11
8.247188999999999
 21
0.087445
 31
0.0
  0
LINE
  5
83C
330
1F
100
AcDbEntity
  8
1
  6
CONTINUOUS
370
50
 62
4
100
AcDbLine
 10
8.460785
 20
-0.144418
 30
0.0
 11
8.461442
 21
-0.144315
 31
0.0
  0
LINE
  5
83D
330
1F
100
AcDbEntity
  8
1
  6
CONTINUOUS
370
50
 62
4
100
AcDbLine
 10
8.238636
 20
-0.110487
 30
0.0
 11
8.241328
 21
-0.11005
 31
0.0
  0
LINE
  5
83E
330
1F
100
AcDbEntity
  8
1
  6
CONTINUOUS
370
50
 62
4
100
AcDbLine
 10
8.465259999999999
 20
0.038896
 30
0.0
 11
8.465853
 21
0.038993
 31
0.0
  0
LINE
  5
83F
330
1F
100
AcDbEntity
  8
1
  6
CONTINUOUS
370
50
 62
4
100
AcDbLine
 10
8.38309
 20
0.104018
 30
0.0
 11
8.392415
 21
0.105586
 31
0.0
  0
LINE
  5
840
330
1F
100
AcDbEntity
  8
1
  6
CONTINUOUS
370
50
 62
4
100
AcDbLine
 10
8.394968
 20
0.140682
 30
0.0
 11
8.422808999999999
 21
0.145556
 31
0.0
  0
LINE
  5
841
330
1F
100
AcDbEntity
  8
1
  6
CONTINUOUS
370
50
 62
4
100
AcDbLine
 10
8.24184
 20
0.086558
 30
0.0
 11
8.244503
 21
0.087031
 31
0.0
  0
LINE
  5
842
330
1F
100
AcDbEntity
  8
1
  6
CONTINUOUS
370
50
 62
4
100
AcDbLine
 10
8.470901999999999
 20
-0.138955
 30
0.0
 11
8.471198
 21
-0.138902
 31
0.0
  0
LINE
  5
843
330
1F
100
AcDbEntity
  8
1
  6
CONTINUOUS
370
50
 62
4
100
AcDbLine
 10
8.235999
 20
-0.110967
 30
0.0
 11
8.238636
 21
-0.110487
 31
0.0
  0
LINE
  5
844
330
1F
100
AcDbEntity
  8
1
  6
CONTINUOUS
370
50
 62
4
100
AcDbLine
 10
8.373764999999999
 20
0.102318
 30
0.0
 11
8.38309
 21
0.104018
 31
0.0
  0
LINE
  5
845
330
1F
100
AcDbEntity
  8
1
  6
CONTINUOUS
370
50
 62
4
100
AcDbLine
 10
8.247315
 20
-0.139246
 30
0.0
 11
8.252148
 21
-0.138339
 31
0.0
  0
LINE
  5
846
330
1F
100
AcDbEntity
  8
1
  6
CONTINUOUS
370
50
 62
4
100
AcDbLine
 10
8.364441
 20
0.100492
 30
0.0
 11
8.373764999999999
 21
0.102318
 31
0.0
  0
LINE
  5
847
330
1F
100
AcDbEntity
  8
1
  6
CONTINUOUS
370
50
 62
4
100
AcDbLine
 10
8.297387
 20
0.120357
 30
0.0
 11
8.297519
 21
0.120383
 31
0.0
  0
LINE
  5
848
330
1F
100
AcDbEntity
  8
1
  6
CONTINUOUS
370
50
 62
4
100
AcDbLine
 10
8.46134
 20
-0.148837
 30
0.0
 11
8.462406999999999
 21
-0.148626
 31
0.0
  0
LINE
  5
849
330
1F
100
AcDbEntity
  8
1
  6
CONTINUOUS
370
50
 62
4
100
AcDbLine
 10
8.297384
 20
0.120361
 30
0.0
 11
8.297514999999999
 21
0.120387
 31
0.0
  0
LINE
  5
84A
330
1F
100
AcDbEntity
  8
1
  6
CONTINUOUS
370
50
 62
4
100
AcDbLine
 10
8.233435
 20
-0.111485
 30
0.0
 11
8.235999
 21
-0.110967
 31
0.0
  0
LINE
  5
84B
330
1F
100
AcDbEntity
  8
1
  6
CONTINUOUS
370
50
 62
4
100
AcDbLine
 10
8.239205
 20
0.086023
 30
0.0
 11
8.24184
 21
0.086558
 31
0.0
  0
LINE
  5
84C
330
1F
100
AcDbEntity
  8
1
  6
CONTINUOUS
370
50
 62
4
100
AcDbLine
 10
8.461442
 20
-0.144315
 30
0.0
 11
8.462094
 21
-0.144179
 31
0.0
  0
LINE
  5
84D
330
1F
100
AcDbEntity
  8
1
  6
CONTINUOUS
370
50
 62
4
100
AcDbLine
 10
8.465853
 20
0.038993
 30
0.0
 11
8.466427
 21
0.039119
 31
0.0
  0
LINE
  5
84E
330
1F
100
AcDbEntity
  8
1
  6
CONTINUOUS
370
50
 62
4
100
AcDbLine
 10
8.230947
 20
-0.11204
 30
0.0
 11
8.233435
 21
-0.111485
 31
0.0
  0
LINE
  5
84F
330
1F
100
AcDbEntity
  8
1
  6
CONTINUOUS
370
50
 62
4
100
AcDbLine
 10
8.42038
 20
-0.012842
 30
0.0
 11
8.428215999999999
 21
-0.011065
 31
0.0
  0
LINE
  5
850
330
1F
100
AcDbEntity
  8
1
  6
CONTINUOUS
370
50
 62
4
100
AcDbLine
 10
8.42832
 20
-0.011041
 30
0.0
 11
8.432
 21
-0.010206
 31
0.0
  0
LINE
  5
851
330
1F
100
AcDbEntity
  8
1
  6
CONTINUOUS
370
50
 62
4
100
AcDbLine
 10
8.236615
 20
0.08543
 30
0.0
 11
8.239205
 21
0.086023
 31
0.0
  0
LINE
  5
852
330
1F
100
AcDbEntity
  8
1
  6
CONTINUOUS
370
50
 62
4
100
AcDbLine
 10
8.372648
 20
0.135529
 30
0.0
 11
8.394968
 21
0.140682
 31
0.0
  0
LINE
  5
853
330
1F
100
AcDbEntity
  8
1
  6
CONTINUOUS
370
50
 62
4
100
AcDbLine
 10
8.471198
 20
-0.138902
 30
0.0
 11
8.471499
 21
-0.138829
 31
0.0
  0
LINE
  5
854
330
1F
100
AcDbEntity
  8
1
  6
CONTINUOUS
370
50
 62
4
100
AcDbLine
 10
8.228539999999999
 20
-0.11263
 30
0.0
 11
8.230947
 21
-0.11204
 31
0.0
  0
LINE
  5
855
330
1F
100
AcDbEntity
  8
1
  6
CONTINUOUS
370
50
 62
4
100
AcDbLine
 10
8.252148
 20
-0.138339
 30
0.0
 11
8.257136
 21
-0.137078
 31
0.0
  0
LINE
  5
856
330
1F
100
AcDbEntity
  8
1
  6
CONTINUOUS
370
50
 62
4
100
AcDbLine
 10
8.234093999999999
 20
0.084781
 30
0.0
 11
8.236615
 21
0.08543
 31
0.0
  0
LINE
  5
857
330
1F
100
AcDbEntity
  8
1
  6
CONTINUOUS
370
50
 62
4
100
AcDbLine
 10
8.462406999999999
 20
-0.148626
 30
0.0
 11
8.463460999999999
 21
-0.148353
 31
0.0
  0
LINE
  5
858
330
1F
100
AcDbEntity
  8
1
  6
CONTINUOUS
370
50
 62
4
100
AcDbLine
 10
8.462094
 20
-0.144179
 30
0.0
 11
8.462742
 21
-0.144011
 31
0.0
  0
LINE
  5
859
330
1F
100
AcDbEntity
  8
1
  6
CONTINUOUS
370
50
 62
4
100
AcDbLine
 10
8.306996999999999
 20
-0.116076
 30
0.0
 11
8.307181
 21
-0.116027
 31
0.0
  0
LINE
  5
85A
330
1F
100
AcDbEntity
  8
1
  6
CONTINUOUS
370
50
 62
4
100
AcDbLine
 10
8.307732999999999
 20
-0.115877
 30
0.0
 11
8.307915999999999
 21
-0.115828
 31
0.0
  0
LINE
  5
85B
330
1F
100
AcDbEntity
  8
1
  6
CONTINUOUS
370
50
 62
4
100
AcDbLine
 10
8.226220999999999
 20
-0.113251
 30
0.0
 11
8.228539999999999
 21
-0.11263
 31
0.0
  0
LINE
  5
85C
330
1F
100
AcDbEntity
  8
1
  6
CONTINUOUS
370
50
 62
4
100
AcDbLine
 10
8.307364
 20
-0.115977
 30
0.0
 11
8.307549
 21
-0.115927
 31
0.0
  0
LINE
  5
85D
330
1F
100
AcDbEntity
  8
1
  6
CONTINUOUS
370
50
 62
4
100
AcDbLine
 10
8.351196999999999
 20
0.129728
 30
0.0
 11
8.372648
 21
0.135529
 31
0.0
  0
LINE
  5
85E
330
1F
100
AcDbEntity
  8
1
  6
CONTINUOUS
370
50
 62
4
100
AcDbLine
 10
8.307549
 20
-0.115927
 30
0.0
 11
8.307732999999999
 21
-0.115877
 31
0.0
  0
LINE
  5
85F
330
1F
100
AcDbEntity
  8
1
  6
CONTINUOUS
370
50
 62
4
100
AcDbLine
 10
8.307915999999999
 20
-0.115828
 30
0.0
 11
8.3081
 21
-0.115778
 31
0.0
  0
LINE
  5
860
330
1F
100
AcDbEntity
  8
1
  6
CONTINUOUS
370
50
 62
4
100
AcDbLine
 10
8.307181
 20
-0.116027
 30
0.0
 11
8.307364
 21
-0.115977
 31
0.0
  0
LINE
  5
861
330
1F
100
AcDbEntity
  8
1
  6
CONTINUOUS
370
50
 62
4
100
AcDbLine
 10
8.466427
 20
0.039119
 30
0.0
 11
8.466982
 21
0.039274
 31
0.0
  0
LINE
  5
862
330
1F
100
AcDbEntity
  8
1
  6
CONTINUOUS
370
50
 62
4
100
AcDbLine
 10
-0.01
 20
-1.99995
 30
0.0
 11
6.476999999999999
 21
-0.13995
 31
0.0
  0
LINE
  5
863
330
1F
100
AcDbEntity
  8
1
  6
CONTINUOUS
370
50
 62
4
100
AcDbLine
 10
8.231644
 20
0.084078
 30
0.0
 11
8.234093999999999
 21
0.084781
 31
0.0
  0
LINE
  5
864
330
1F
100
AcDbEntity
  8
1
  6
CONTINUOUS
370
50
 62
4
100
AcDbLine
 10
8.223993
 20
-0.113902
 30
0.0
 11
8.226220999999999
 21
-0.113251
 31
0.0
  0
LINE
  5
865
330
1F
100
AcDbEntity
  8
1
  6
CONTINUOUS
370
50
 62
4
100
AcDbLine
 10
8.32964
 20
0.123123
 30
0.0
 11
8.351196999999999
 21
0.129728
 31
0.0
  0
LINE
  5
866
330
1F
100
AcDbEntity
  8
1
  6
CONTINUOUS
370
50
 62
4
100
AcDbLine
 10
8.471499
 20
-0.138829
 30
0.0
 11
8.471803
 21
-0.138735
 31
0.0
  0
LINE
  5
867
330
1F
100
AcDbEntity
  8
1
  6
CONTINUOUS
370
50
 62
4
100
AcDbLine
 10
8.257136
 20
-0.137078
 30
0.0
 11
8.262315
 21
-0.135475
 31
0.0
  0
LINE
  5
868
330
1F
100
AcDbEntity
  8
1
  6
CONTINUOUS
370
50
 62
4
100
AcDbLine
 10
8.462742
 20
-0.144011
 30
0.0
 11
8.463384
 21
-0.143811
 31
0.0
  0
LINE
  5
869
330
1F
100
AcDbEntity
  8
1
  6
CONTINUOUS
370
50
 62
4
100
AcDbLine
 10
8.221862999999999
 20
-0.114581
 30
0.0
 11
8.223993
 21
-0.113902
 31
0.0
  0
LINE
  5
86A
330
1F
100
AcDbEntity
  8
1
  6
CONTINUOUS
370
50
 62
4
100
AcDbLine
 10
8.22927
 20
0.08332
 30
0.0
 11
8.231644
 21
0.084078
 31
0.0
  0
LINE
  5
86B
330
1F
100
AcDbEntity
  8
1
  6
CONTINUOUS
370
50
 62
4
100
AcDbLine
 10
8.463460999999999
 20
-0.148353
 30
0.0
 11
8.4645
 21
-0.148017
 31
0.0
  0
LINE
  5
86C
330
1F
100
AcDbEntity
  8
1
  6
CONTINUOUS
370
50
 62
4
100
AcDbLine
 10
8.466982
 20
0.039274
 30
0.0
 11
8.467518
 21
0.039454
 31
0.0
  0
LINE
  5
86D
330
1F
100
AcDbEntity
  8
1
  6
CONTINUOUS
370
50
 62
4
100
AcDbLine
 10
8.308091
 20
0.115776
 30
0.0
 11
8.32964
 21
0.123123
 31
0.0
  0
LINE
  5
86E
330
1F
100
AcDbEntity
  8
1
  6
CONTINUOUS
370
50
 62
4
100
AcDbLine
 10
8.219832
 20
-0.115285
 30
0.0
 11
8.221862999999999
 21
-0.114581
 31
0.0
  0
LINE
  5
86F
330
1F
100
AcDbEntity
  8
1
  6
CONTINUOUS
370
50
 62
4
100
AcDbLine
 10
8.226977999999999
 20
0.082508
 30
0.0
 11
8.22927
 21
0.08332
 31
0.0
  0
LINE
  5
870
330
1F
100
AcDbEntity
  8
1
  6
CONTINUOUS
370
50
 62
4
100
AcDbLine
 10
8.262315
 20
-0.135475
 30
0.0
 11
8.267725
 21
-0.13354
 31
0.0
  0
LINE
  5
871
330
1F
100
AcDbEntity
  8
1
  6
CONTINUOUS
370
50
 62
4
100
AcDbLine
 10
8.463384
 20
-0.143811
 30
0.0
 11
8.46402
 21
-0.143578
 31
0.0
  0
LINE
  5
872
330
1F
100
AcDbEntity
  8
1
  6
CONTINUOUS
370
50
 62
4
100
AcDbLine
 10
8.471803
 20
-0.138735
 30
0.0
 11
8.472109
 21
-0.138621
 31
0.0
  0
LINE
  5
873
330
1F
100
AcDbEntity
  8
1
  6
CONTINUOUS
370
50
 62
4
100
AcDbLine
 10
8.217895
 20
-0.116018
 30
0.0
 11
8.219832
 21
-0.115285
 31
0.0
  0
LINE
  5
874
330
1F
100
AcDbEntity
  8
1
  6
CONTINUOUS
370
50
 62
4
100
AcDbLine
 10
8.4645
 20
-0.148017
 30
0.0
 11
8.465522
 21
-0.147619
 31
0.0
  0
LINE
  5
875
330
1F
100
AcDbEntity
  8
1
  6
CONTINUOUS
370
50
 62
4
100
AcDbLine
 10
8.224771
 20
0.081643
 30
0.0
 11
8.226977999999999
 21
0.082508
 31
0.0
  0
LINE
  5
876
330
1F
100
AcDbEntity
  8
1
  6
CONTINUOUS
370
50
 62
4
100
AcDbLine
 10
8.467518
 20
0.039454
 30
0.0
 11
8.468035
 21
0.039657
 31
0.0
  0
LINE
  5
877
330
1F
100
AcDbEntity
  8
1
  6
CONTINUOUS
370
50
 62
4
100
AcDbLine
 10
8.267725
 20
-0.13354
 30
0.0
 11
8.273413999999999
 21
-0.131286
 31
0.0
  0
LINE
  5
878
330
1F
100
AcDbEntity
  8
1
  6
CONTINUOUS
370
50
 62
4
100
AcDbLine
 10
8.216016
 20
-0.116795
 30
0.0
 11
8.217895
 21
-0.116018
 31
0.0
  0
LINE
  5
879
330
1F
100
AcDbEntity
  8
1
  6
CONTINUOUS
370
50
 62
4
100
AcDbLine
 10
8.46402
 20
-0.143578
 30
0.0
 11
8.464647
 21
-0.143313
 31
0.0
  0
LINE
  5
87A
330
1F
100
AcDbEntity
  8
1
  6
CONTINUOUS
370
50
 62
4
100
AcDbLine
 10
8.273413999999999
 20
-0.131286
 30
0.0
 11
8.279428
 21
-0.128725
 31
0.0
  0
LINE
  5
87B
330
1F
100
AcDbEntity
  8
1
  6
CONTINUOUS
370
50
 62
4
100
AcDbLine
 10
8.222655999999999
 20
0.080726
 30
0.0
 11
8.224771
 21
0.081643
 31
0.0
  0
LINE
  5
87C
330
1F
100
AcDbEntity
  8
1
  6
CONTINUOUS
370
50
 62
4
100
AcDbLine
 10
8.472109
 20
-0.138621
 30
0.0
 11
8.472415
 21
-0.138485
 31
0.0
  0
LINE
  5
87D
330
1F
100
AcDbEntity
  8
1
  6
CONTINUOUS
370
50
 62
4
100
AcDbLine
 10
8.279428
 20
-0.128725
 30
0.0
 11
8.285815999999999
 21
-0.125867
 31
0.0
  0
LINE
  5
87E
330
1F
100
AcDbEntity
  8
1
  6
CONTINUOUS
370
50
 62
4
100
AcDbLine
 10
8.468035
 20
0.039657
 30
0.0
 11
8.468532999999999
 21
0.039882
 31
0.0
  0
LINE
  5
87F
330
1F
100
AcDbEntity
  8
1
  6
CONTINUOUS
370
50
 62
4
100
AcDbLine
 10
8.214214
 20
-0.117616
 30
0.0
 11
8.216016
 21
-0.116795
 31
0.0
  0
LINE
  5
880
330
1F
100
AcDbEntity
  8
1
  6
CONTINUOUS
370
50
 62
4
100
AcDbLine
 10
8.305335
 20
-0.116856
 30
0.0
 11
8.307
 21
-0.116095
 31
0.0
  0
LINE
  5
881
330
1F
100
AcDbEntity
  8
1
  6
CONTINUOUS
370
50
 62
4
100
AcDbLine
 10
8.30367
 20
-0.117618
 30
0.0
 11
8.305335
 21
-0.116856
 31
0.0
  0
LINE
  5
882
330
1F
100
AcDbEntity
  8
1
  6
CONTINUOUS
370
50
 62
4
100
AcDbLine
 10
8.301911
 20
-0.118426
 30
0.0
 11
8.30367
 21
-0.117618
 31
0.0
  0
LINE
  5
883
330
1F
100
AcDbEntity
  8
1
  6
CONTINUOUS
370
50
 62
4
100
AcDbLine
 10
8.465522
 20
-0.147619
 30
0.0
 11
8.466522
 21
-0.147159
 31
0.0
  0
LINE
  5
884
330
1F
100
AcDbEntity
  8
1
  6
CONTINUOUS
370
50
 62
4
100
AcDbLine
 10
8.300343999999999
 20
-0.119148
 30
0.0
 11
8.301911
 21
-0.118426
 31
0.0
  0
LINE
  5
885
330
1F
100
AcDbEntity
  8
1
  6
CONTINUOUS
370
50
 62
4
100
AcDbLine
 10
8.297255999999999
 20
0.120302
 30
0.0
 11
8.297384
 21
0.120361
 31
0.0
  0
LINE
  5
886
330
1F
100
AcDbEntity
  8
1
  6
CONTINUOUS
370
50
 62
4
100
AcDbLine
 10
8.285815999999999
 20
-0.125867
 30
0.0
 11
8.292624
 21
-0.122727
 31
0.0
  0
LINE
  5
887
330
1F
100
AcDbEntity
  8
1
  6
CONTINUOUS
370
50
 62
4
100
AcDbLine
 10
8.29778
 20
-0.120332
 30
0.0
 11
8.300343999999999
 21
-0.119148
 31
0.0
  0
LINE
  5
888
330
1F
100
AcDbEntity
  8
1
  6
CONTINUOUS
370
50
 62
4
100
AcDbLine
 10
8.295204
 20
-0.121526
 30
0.0
 11
8.297787
 21
-0.120329
 31
0.0
  0
LINE
  5
889
330
1F
100
AcDbEntity
  8
1
  6
CONTINUOUS
370
50
 62
4
100
AcDbLine
 10
8.293484
 20
-0.122326
 30
0.0
 11
8.295204
 21
-0.121526
 31
0.0
  0
LINE
  5
88A
330
1F
100
AcDbEntity
  8
1
  6
CONTINUOUS
370
50
 62
4
100
AcDbLine
 10
8.292624
 20
-0.122727
 30
0.0
 11
8.293484
 21
-0.122326
 31
0.0
  0
LINE
  5
88B
330
1F
100
AcDbEntity
  8
1
  6
CONTINUOUS
370
50
 62
4
100
AcDbLine
 10
8.297257
 20
0.120296
 30
0.0
 11
8.297387
 21
0.120357
 31
0.0
  0
LINE
  5
88C
330
1F
100
AcDbEntity
  8
1
  6
CONTINUOUS
370
50
 62
4
100
AcDbLine
 10
8.464647
 20
-0.143313
 30
0.0
 11
8.465259999999999
 21
-0.14302
 31
0.0
  0
LINE
  5
88D
330
1F
100
AcDbEntity
  8
1
  6
CONTINUOUS
370
50
 62
4
100
AcDbLine
 10
8.220634
 20
0.079757
 30
0.0
 11
8.222655999999999
 21
0.080726
 31
0.0
  0
LINE
  5
88E
330
1F
100
AcDbEntity
  8
1
  6
CONTINUOUS
370
50
 62
4
100
AcDbLine
 10
8.212508999999999
 20
-0.118476
 30
0.0
 11
8.214214
 21
-0.117616
 31
0.0
  0
LINE
  5
88F
330
1F
100
AcDbEntity
  8
1
  6
CONTINUOUS
370
50
 62
4
100
AcDbLine
 10
8.446003
 20
-0.01558
 30
0.0
 11
8.451072
 21
-0.013006
 31
0.0
  0
LINE
  5
890
330
1F
100
AcDbEntity
  8
1
  6
CONTINUOUS
370
50
 62
4
100
AcDbLine
 10
8.456164
 20
-0.010419
 30
0.0
 11
8.461276
 21
-0.007823
 31
0.0
  0
LINE
  5
891
330
1F
100
AcDbEntity
  8
1
  6
CONTINUOUS
370
50
 62
4
100
AcDbLine
 10
8.466403
 20
-0.005219
 30
0.0
 11
8.471537999999999
 21
-0.002611
 31
0.0
  0
LINE
  5
892
330
1F
100
AcDbEntity
  8
1
  6
CONTINUOUS
370
50
 62
4
100
AcDbLine
 10
8.461276
 20
-0.007823
 30
0.0
 11
8.466403
 21
-0.005219
 31
0.0
  0
LINE
  5
893
330
1F
100
AcDbEntity
  8
1
  6
CONTINUOUS
370
50
 62
4
100
AcDbLine
 10
8.471537999999999
 20
-0.002611
 30
0.0
 11
8.476676
 21
-0.000001
 31
0.0
  0
LINE
  5
894
330
1F
100
AcDbEntity
  8
1
  6
CONTINUOUS
370
50
 62
4
100
AcDbLine
 10
8.451072
 20
-0.013006
 30
0.0
 11
8.456164
 21
-0.010419
 31
0.0
  0
LINE
  5
895
330
1F
100
AcDbEntity
  8
1
  6
CONTINUOUS
370
50
 62
4
100
AcDbLine
 10
8.468532999999999
 20
0.039882
 30
0.0
 11
8.469009999999999
 21
0.040125
 31
0.0
  0
LINE
  5
896
330
1F
100
AcDbEntity
  8
1
  6
CONTINUOUS
370
50
 62
4
100
AcDbLine
 10
8.472415
 20
-0.138485
 30
0.0
 11
8.472719
 21
-0.138328
 31
0.0
  0
LINE
  5
897
330
1F
100
AcDbEntity
  8
1
  6
CONTINUOUS
370
50
 62
4
100
AcDbLine
 10
8.218710999999999
 20
0.078735
 30
0.0
 11
8.220634
 21
0.079757
 31
0.0
  0
LINE
  5
898
330
1F
100
AcDbEntity
  8
1
  6
CONTINUOUS
370
50
 62
4
100
AcDbLine
 10
8.465259999999999
 20
-0.14302
 30
0.0
 11
8.465853
 21
-0.142703
 31
0.0
  0
LINE
  5
899
330
1F
100
AcDbEntity
  8
1
  6
CONTINUOUS
370
50
 62
4
100
AcDbLine
 10
8.466522
 20
-0.147159
 30
0.0
 11
8.467497
 21
-0.146637
 31
0.0
  0
LINE
  5
89A
330
1F
100
AcDbEntity
  8
1
  6
CONTINUOUS
370
50
 62
4
100
AcDbLine
 10
8.469009999999999
 20
0.040125
 30
0.0
 11
8.469469
 21
0.040386
 31
0.0
  0
LINE
  5
89B
330
1F
100
AcDbEntity
  8
1
  6
CONTINUOUS
370
50
 62
4
100
AcDbLine
 10
8.21077
 20
-0.119465
 30
0.0
 11
8.212508999999999
 21
-0.118476
 31
0.0
  0
LINE
  5
89C
330
1F
100
AcDbEntity
  8
1
  6
CONTINUOUS
370
50
 62
4
100
AcDbLine
 10
8.216849999999999
 20
0.077637
 30
0.0
 11
8.218710999999999
 21
0.078735
 31
0.0
  0
LINE
  5
89D
330
1F
100
AcDbEntity
  8
1
  6
CONTINUOUS
370
50
 62
4
100
AcDbLine
 10
8.472719
 20
-0.138328
 30
0.0
 11
8.473021
 21
-0.138149
 31
0.0
  0
LINE
  5
89E
330
1F
100
AcDbEntity
  8
1
  6
CONTINUOUS
370
50
 62
4
100
AcDbLine
 10
8.465853
 20
-0.142703
 30
0.0
 11
8.466427
 21
-0.142362
 31
0.0
  0
LINE
  5
89F
330
1F
100
AcDbEntity
  8
1
  6
CONTINUOUS
370
50
 62
4
100
AcDbLine
 10
8.467497
 20
-0.146637
 30
0.0
 11
8.468444
 21
-0.146054
 31
0.0
  0
LINE
  5
8A0
330
1F
100
AcDbEntity
  8
1
  6
CONTINUOUS
370
50
 62
4
100
AcDbLine
 10
8.469469
 20
0.040386
 30
0.0
 11
8.469909
 21
0.040662
 31
0.0
  0
LINE
  5
8A1
330
1F
100
AcDbEntity
  8
1
  6
CONTINUOUS
370
50
 62
4
100
AcDbLine
 10
8.466427
 20
-0.142362
 30
0.0
 11
8.466982
 21
-0.142
 31
0.0
  0
LINE
  5
8A2
330
1F
100
AcDbEntity
  8
1
  6
CONTINUOUS
370
50
 62
4
100
AcDbLine
 10
8.209195
 20
-0.120497
 30
0.0
 11
8.21077
 21
-0.119465
 31
0.0
  0
LINE
  5
8A3
330
1F
100
AcDbEntity
  8
1
  6
CONTINUOUS
370
50
 62
4
100
AcDbLine
 10
8.215055
 20
0.076452
 30
0.0
 11
8.216849999999999
 21
0.077637
 31
0.0
  0
LINE
  5
8A4
330
1F
100
AcDbEntity
  8
1
  6
CONTINUOUS
370
50
 62
4
100
AcDbLine
 10
8.473021
 20
-0.138149
 30
0.0
 11
8.473317
 21
-0.137948
 31
0.0
  0
LINE
  5
8A5
330
1F
100
AcDbEntity
  8
1
  6
CONTINUOUS
370
50
 62
4
100
AcDbLine
 10
8.469909
 20
0.040662
 30
0.0
 11
8.470329
 21
0.040952
 31
0.0
  0
LINE
  5
8A6
330
1F
100
AcDbEntity
  8
1
  6
CONTINUOUS
370
50
 62
4
100
AcDbLine
 10
8.468444
 20
-0.146054
 30
0.0
 11
8.46936
 21
-0.145411
 31
0.0
  0
LINE
  5
8A7
330
1F
100
AcDbEntity
  8
1
  6
CONTINUOUS
370
50
 62
4
100
AcDbLine
 10
8.466982
 20
-0.142
 30
0.0
 11
8.467518
 21
-0.141618
 31
0.0
  0
LINE
  5
8A8
330
1F
100
AcDbEntity
  8
1
  6
CONTINUOUS
370
50
 62
4
100
AcDbLine
 10
8.297127
 20
0.120207
 30
0.0
 11
8.297255999999999
 21
0.120302
 31
0.0
  0
LINE
  5
8A9
330
1F
100
AcDbEntity
  8
1
  6
CONTINUOUS
370
50
 62
4
100
AcDbLine
 10
8.213341999999999
 20
0.075177
 30
0.0
 11
8.215055
 21
0.076452
 31
0.0
  0
LINE
  5
8AA
330
1F
100
AcDbEntity
  8
1
  6
CONTINUOUS
370
50
 62
4
100
AcDbLine
 10
8.297127999999999
 20
0.120199
 30
0.0
 11
8.297257
 21
0.120296
 31
0.0
  0
LINE
  5
8AB
330
1F
100
AcDbEntity
  8
1
  6
CONTINUOUS
370
50
 62
4
100
AcDbLine
 10
8.473317
 20
-0.137948
 30
0.0
 11
8.473608
 21
-0.137723
 31
0.0
  0
LINE
  5
8AC
330
1F
100
AcDbEntity
  8
1
  6
CONTINUOUS
370
50
 62
4
100
AcDbLine
 10
8.207813999999999
 20
-0.121565
 30
0.0
 11
8.209195
 21
-0.120497
 31
0.0
  0
LINE
  5
8AD
330
1F
100
AcDbEntity
  8
1
  6
CONTINUOUS
370
50
 62
4
100
AcDbLine
 10
8.467518
 20
-0.141618
 30
0.0
 11
8.468035
 21
-0.141217
 31
0.0
  0
LINE
  5
8AE
330
1F
100
AcDbEntity
  8
1
  6
CONTINUOUS
370
50
 62
4
100
AcDbLine
 10
8.297787
 20
-0.120329
 30
0.0
 11
8.298129
 21
-0.120061
 31
0.0
  0
LINE
  5
8AF
330
1F
100
AcDbEntity
  8
1
  6
CONTINUOUS
370
50
 62
4
100
AcDbLine
 10
8.46936
 20
-0.145411
 30
0.0
 11
8.470243
 21
-0.144707
 31
0.0
  0
LINE
  5
8B0
330
1F
100
AcDbEntity
  8
1
  6
CONTINUOUS
370
50
 62
4
100
AcDbLine
 10
8.468035
 20
-0.141217
 30
0.0
 11
8.468532999999999
 21
-0.140801
 31
0.0
  0
LINE
  5
8B1
330
1F
100
AcDbEntity
  8
1
  6
CONTINUOUS
370
50
 62
4
100
AcDbLine
 10
8.211729
 20
0.073811
 30
0.0
 11
8.213341999999999
 21
0.075177
 31
0.0
  0
LINE
  5
8B2
330
1F
100
AcDbEntity
  8
1
  6
CONTINUOUS
370
50
 62
4
100
AcDbLine
 10
8.459323999999999
 20
-0.022553
 30
0.0
 11
8.462659
 21
-0.019708
 31
0.0
  0
LINE
  5
8B3
330
1F
100
AcDbEntity
  8
1
  6
CONTINUOUS
370
50
 62
4
100
AcDbLine
 10
8.473608
 20
-0.137723
 30
0.0
 11
8.473889999999999
 21
-0.137476
 31
0.0
  0
LINE
  5
8B4
330
1F
100
AcDbEntity
  8
1
  6
CONTINUOUS
370
50
 62
4
100
AcDbLine
 10
8.470243
 20
-0.144707
 30
0.0
 11
8.471089
 21
-0.143944
 31
0.0
  0
LINE
  5
8B5
330
1F
100
AcDbEntity
  8
1
  6
CONTINUOUS
370
50
 62
4
100
AcDbLine
 10
8.468532999999999
 20
-0.140801
 30
0.0
 11
8.469009999999999
 21
-0.14037
 31
0.0
  0
LINE
  5
8B6
330
1F
100
AcDbEntity
  8
1
  6
CONTINUOUS
370
50
 62
4
100
AcDbLine
 10
8.206655999999999
 20
-0.122664
 30
0.0
 11
8.207813999999999
 21
-0.121565
 31
0.0
  0
LINE
  5
8B7
330
1F
100
AcDbEntity
  8
1
  6
CONTINUOUS
370
50
 62
4
100
AcDbLine
 10
8.469009999999999
 20
-0.14037
 30
0.0
 11
8.469469
 21
-0.139925
 31
0.0
  0
LINE
  5
8B8
330
1F
100
AcDbEntity
  8
1
  6
CONTINUOUS
370
50
 62
4
100
AcDbLine
 10
8.210236
 20
0.072349
 30
0.0
 11
8.211729
 21
0.073811
 31
0.0
  0
LINE
  5
8B9
330
1F
100
AcDbEntity
  8
1
  6
CONTINUOUS
370
50
 62
4
100
AcDbLine
 10
8.473889999999999
 20
-0.137476
 30
0.0
 11
8.474162999999999
 21
-0.137205
 31
0.0
  0
LINE
  5
8BA
330
1F
100
AcDbEntity
  8
1
  6
CONTINUOUS
370
50
 62
4
100
AcDbLine
 10
8.459558
 20
-0.03532
 30
0.0
 11
8.459572
 21
-0.035306
 31
0.0
  0
LINE
  5
8BB
330
1F
100
AcDbEntity
  8
1
  6
CONTINUOUS
370
50
 62
4
100
AcDbLine
 10
8.471089
 20
-0.143944
 30
0.0
 11
8.471895
 21
-0.143123
 31
0.0
  0
LINE
  5
8BC
330
1F
100
AcDbEntity
  8
1
  6
CONTINUOUS
370
50
 62
4
100
AcDbLine
 10
8.296999999999999
 20
0.120077
 30
0.0
 11
8.297127
 21
0.120207
 31
0.0
  0
LINE
  5
8BD
330
1F
100
AcDbEntity
  8
1
  6
CONTINUOUS
370
50
 62
4
100
AcDbLine
 10
8.469469
 20
-0.139925
 30
0.0
 11
8.469909
 21
-0.13947
 31
0.0
  0
LINE
  5
8BE
330
1F
100
AcDbEntity
  8
1
  6
CONTINUOUS
370
50
 62
4
100
AcDbLine
 10
8.296999999999999
 20
0.120066
 30
0.0
 11
8.297127999999999
 21
0.120199
 31
0.0
  0
LINE
  5
8BF
330
1F
100
AcDbEntity
  8
1
  6
CONTINUOUS
370
50
 62
4
100
AcDbLine
 10
8.469909
 20
-0.13947
 30
0.0
 11
8.470329
 21
-0.139004
 31
0.0
  0
LINE
  5
8C0
330
1F
100
AcDbEntity
  8
1
  6
CONTINUOUS
370
50
 62
4
100
AcDbLine
 10
8.474162999999999
 20
-0.137205
 30
0.0
 11
8.474437
 21
-0.136896
 31
0.0
  0
LINE
  5
8C1
330
1F
100
AcDbEntity
  8
1
  6
CONTINUOUS
370
50
 62
4
100
AcDbLine
 10
8.459545
 20
-0.035335
 30
0.0
 11
8.459552
 21
-0.035327
 31
0.0
  0
LINE
  5
8C2
330
1F
100
AcDbEntity
  8
1
  6
CONTINUOUS
370
50
 62
4
100
AcDbLine
 10
8.459572
 20
-0.035306
 30
0.0
 11
8.459579
 21
-0.035298
 31
0.0
  0
LINE
  5
8C3
330
1F
100
AcDbEntity
  8
1
  6
CONTINUOUS
370
50
 62
4
100
AcDbLine
 10
8.208879
 20
0.070792
 30
0.0
 11
8.210236
 21
0.072349
 31
0.0
  0
LINE
  5
8C4
330
1F
100
AcDbEntity
  8
1
  6
CONTINUOUS
370
50
 62
4
100
AcDbLine
 10
8.471895
 20
-0.143123
 30
0.0
 11
8.472655
 21
-0.142247
 31
0.0
  0
LINE
  5
8C5
330
1F
100
AcDbEntity
  8
1
  6
CONTINUOUS
370
50
 62
4
100
AcDbLine
 10
8.205746999999999
 20
-0.123787
 30
0.0
 11
8.206655999999999
 21
-0.122664
 31
0.0
  0
LINE
  5
8C6
330
1F
100
AcDbEntity
  8
1
  6
CONTINUOUS
370
50
 62
4
100
AcDbLine
 10
8.474437
 20
-0.136896
 30
0.0
 11
8.474717
 21
-0.136541
 31
0.0
  0
LINE
  5
8C7
330
1F
100
AcDbEntity
  8
1
  6
CONTINUOUS
370
50
 62
4
100
AcDbLine
 10
8.472655
 20
-0.142247
 30
0.0
 11
8.473365
 21
-0.141319
 31
0.0
  0
LINE
  5
8C8
330
1F
100
AcDbEntity
  8
1
  6
CONTINUOUS
370
50
 62
4
100
AcDbLine
 10
8.207681
 20
0.069138
 30
0.0
 11
8.208879
 21
0.070792
 31
0.0
  0
LINE
  5
8C9
330
1F
100
AcDbEntity
  8
1
  6
CONTINUOUS
370
50
 62
4
100
AcDbLine
 10
8.298129
 20
-0.120061
 30
0.0
 11
8.298479
 21
-0.119571
 31
0.0
  0
LINE
  5
8CA
330
1F
100
AcDbEntity
  8
1
  6
CONTINUOUS
370
50
 62
4
100
AcDbLine
 10
8.474717
 20
-0.136541
 30
0.0
 11
8.474998
 21
-0.136141
 31
0.0
  0
LINE
  5
8CB
330
1F
100
AcDbEntity
  8
1
  6
CONTINUOUS
370
50
 62
4
100
AcDbLine
 10
8.473365
 20
-0.141319
 30
0.0
 11
8.474021
 21
-0.140341
 31
0.0
  0
LINE
  5
8CC
330
1F
100
AcDbEntity
  8
1
  6
CONTINUOUS
370
50
 62
4
100
AcDbLine
 10
8.474998
 20
-0.136141
 30
0.0
 11
8.475273
 21
-0.135699
 31
0.0
  0
LINE
  5
8CD
330
1F
100
AcDbEntity
  8
1
  6
CONTINUOUS
370
50
 62
4
100
AcDbLine
 10
8.474021
 20
-0.140341
 30
0.0
 11
8.474622
 21
-0.139315
 31
0.0
  0
LINE
  5
8CE
330
1F
100
AcDbEntity
  8
1
  6
CONTINUOUS
370
50
 62
4
100
AcDbLine
 10
8.20666
 20
0.067386
 30
0.0
 11
8.207681
 21
0.069138
 31
0.0
  0
LINE
  5
8CF
330
1F
100
AcDbEntity
  8
1
  6
CONTINUOUS
370
50
 62
4
100
AcDbLine
 10
8.205124999999999
 20
-0.124909
 30
0.0
 11
8.205746999999999
 21
-0.123787
 31
0.0
  0
LINE
  5
8D0
330
1F
100
AcDbEntity
  8
1
  6
CONTINUOUS
370
50
 62
4
100
AcDbLine
 10
8.475273
 20
-0.135699
 30
0.0
 11
8.475539
 21
-0.135218
 31
0.0
  0
LINE
  5
8D1
330
1F
100
AcDbEntity
  8
1
  6
CONTINUOUS
370
50
 62
4
100
AcDbLine
 10
8.474622
 20
-0.139315
 30
0.0
 11
8.475163
 21
-0.138243
 31
0.0
  0
LINE
  5
8D2
330
1F
100
AcDbEntity
  8
1
  6
CONTINUOUS
370
50
 62
4
100
AcDbLine
 10
8.298479
 20
-0.119571
 30
0.0
 11
8.298836999999999
 21
-0.118859
 31
0.0
  0
LINE
  5
8D3
330
1F
100
AcDbEntity
  8
1
  6
CONTINUOUS
370
50
 62
4
100
AcDbLine
 10
8.42038
 20
-0.012842
 30
0.0
 11
8.421427999999999
 21
-0.010688
 31
0.0
  0
LINE
  5
8D4
330
1F
100
AcDbEntity
  8
1
  6
CONTINUOUS
370
50
 62
4
100
AcDbLine
 10
8.475539
 20
-0.135218
 30
0.0
 11
8.475791
 21
-0.134699
 31
0.0
  0
LINE
  5
8D5
330
1F
100
AcDbEntity
  8
1
  6
CONTINUOUS
370
50
 62
4
100
AcDbLine
 10
8.205838
 20
0.065537
 30
0.0
 11
8.20666
 21
0.067386
 31
0.0
  0
LINE
  5
8D6
330
1F
100
AcDbEntity
  8
1
  6
CONTINUOUS
370
50
 62
4
100
AcDbLine
 10
8.421427999999999
 20
-0.010688
 30
0.0
 11
8.422384
 21
-0.008503
 31
0.0
  0
LINE
  5
8D7
330
1F
100
AcDbEntity
  8
1
  6
CONTINUOUS
370
50
 62
4
100
AcDbLine
 10
8.475163
 20
-0.138243
 30
0.0
 11
8.47564
 21
-0.13713
 31
0.0
  0
LINE
  5
8D8
330
1F
100
AcDbEntity
  8
1
  6
CONTINUOUS
370
50
 62
4
100
AcDbLine
 10
8.475791
 20
-0.134699
 30
0.0
 11
8.476023
 21
-0.134145
 31
0.0
  0
LINE
  5
8D9
330
1F
100
AcDbEntity
  8
1
  6
CONTINUOUS
370
50
 62
4
100
AcDbLine
 10
8.298836999999999
 20
-0.118859
 30
0.0
 11
8.299199999999999
 21
-0.117929
 31
0.0
  0
LINE
  5
8DA
330
1F
100
AcDbEntity
  8
1
  6
CONTINUOUS
370
50
 62
4
100
AcDbLine
 10
8.422384
 20
-0.008503
 30
0.0
 11
8.423245
 21
-0.006294
 31
0.0
  0
LINE
  5
8DB
330
1F
100
AcDbEntity
  8
1
  6
CONTINUOUS
370
50
 62
4
100
AcDbLine
 10
8.47564
 20
-0.13713
 30
0.0
 11
8.476049
 21
-0.135986
 31
0.0
  0
LINE
  5
8DC
330
1F
100
AcDbEntity
  8
1
  6
CONTINUOUS
370
50
 62
4
100
AcDbLine
 10
8.476023
 20
-0.134145
 30
0.0
 11
8.476245
 21
-0.133513
 31
0.0
  0
LINE
  5
8DD
330
1F
100
AcDbEntity
  8
1
  6
CONTINUOUS
370
50
 62
4
100
AcDbLine
 10
8.423245
 20
-0.006294
 30
0.0
 11
8.424000999999999
 21
-0.004091
 31
0.0
  0
LINE
  5
8DE
330
1F
100
AcDbEntity
  8
1
  6
CONTINUOUS
370
50
 62
4
100
AcDbLine
 10
8.468126
 20
-0.04773
 30
0.0
 11
8.477
 21
-0.02042
 31
0.0
  0
LINE
  5
8DF
330
1F
100
AcDbEntity
  8
1
  6
CONTINUOUS
370
50
 62
4
100
AcDbLine
 10
8.299199999999999
 20
-0.117929
 30
0.0
 11
8.29957
 21
-0.116785
 31
0.0
  0
LINE
  5
8E0
330
1F
100
AcDbEntity
  8
1
  6
CONTINUOUS
370
50
 62
4
100
AcDbLine
 10
8.205238999999999
 20
0.063613
 30
0.0
 11
8.205838
 21
0.065537
 31
0.0
  0
LINE
  5
8E1
330
1F
100
AcDbEntity
  8
1
  6
CONTINUOUS
370
50
 62
4
100
AcDbLine
 10
8.424000999999999
 20
-0.004091
 30
0.0
 11
8.424649
 21
-0.001906
 31
0.0
  0
LINE
  5
8E2
330
1F
100
AcDbEntity
  8
1
  6
CONTINUOUS
370
50
 62
4
100
AcDbLine
 10
8.476245
 20
-0.133513
 30
0.0
 11
8.476458
 21
-0.132793
 31
0.0
  0
LINE
  5
8E3
330
1F
100
AcDbEntity
  8
1
  6
CONTINUOUS
370
50
 62
4
100
AcDbLine
 10
8.204805
 20
-0.12601
 30
0.0
 11
8.205124999999999
 21
-0.124909
 31
0.0
  0
LINE
  5
8E4
330
1F
100
AcDbEntity
  8
1
  6
CONTINUOUS
370
50
 62
4
100
AcDbLine
 10
8.476049
 20
-0.135986
 30
0.0
 11
8.476386999999999
 21
-0.134813
 31
0.0
  0
LINE
  5
8E5
330
1F
100
AcDbEntity
  8
1
  6
CONTINUOUS
370
50
 62
4
100
AcDbLine
 10
8.29957
 20
-0.116785
 30
0.0
 11
8.299947
 21
-0.115428
 31
0.0
  0
LINE
  5
8E6
330
1F
100
AcDbEntity
  8
1
  6
CONTINUOUS
370
50
 62
4
100
AcDbLine
 10
8.424649
 20
-0.001906
 30
0.0
 11
8.425191
 21
0.000255
 31
0.0
  0
LINE
  5
8E7
330
1F
100
AcDbEntity
  8
1
  6
CONTINUOUS
370
50
 62
4
100
AcDbLine
 10
8.476458
 20
-0.132793
 30
0.0
 11
8.476639
 21
-0.132038
 31
0.0
  0
LINE
  5
8E8
330
1F
100
AcDbEntity
  8
1
  6
CONTINUOUS
370
50
 62
4
100
AcDbLine
 10
8.476386999999999
 20
-0.134813
 30
0.0
 11
8.476652999999999
 21
-0.133615
 31
0.0
  0
LINE
  5
8E9
330
1F
100
AcDbEntity
  8
1
  6
CONTINUOUS
370
50
 62
4
100
AcDbLine
 10
8.425191
 20
0.000255
 30
0.0
 11
8.425628999999999
 21
0.002386
 31
0.0
  0
LINE
  5
8EA
330
1F
100
AcDbEntity
  8
1
  6
CONTINUOUS
370
50
 62
4
100
AcDbLine
 10
8.204879
 20
0.061644
 30
0.0
 11
8.205238999999999
 21
0.063613
 31
0.0
  0
LINE
  5
8EB
330
1F
100
AcDbEntity
  8
1
  6
CONTINUOUS
370
50
 62
4
100
AcDbLine
 10
8.476639
 20
-0.132038
 30
0.0
 11
8.476789
 21
-0.131203
 31
0.0
  0
LINE
  5
8EC
330
1F
100
AcDbEntity
  8
1
  6
CONTINUOUS
370
50
 62
4
100
AcDbLine
 10
8.425628999999999
 20
0.002386
 30
0.0
 11
8.425962
 21
0.004482
 31
0.0
  0
LINE
  5
8ED
330
1F
100
AcDbEntity
  8
1
  6
CONTINUOUS
370
50
 62
4
100
AcDbLine
 10
8.476652999999999
 20
-0.133615
 30
0.0
 11
8.476844999999999
 21
-0.132395
 31
0.0
  0
LINE
  5
8EE
330
1F
100
AcDbEntity
  8
1
  6
CONTINUOUS
370
50
 62
4
100
AcDbLine
 10
8.476789
 20
-0.131203
 30
0.0
 11
8.476906
 21
-0.130294
 31
0.0
  0
LINE
  5
8EF
330
1F
100
AcDbEntity
  8
1
  6
CONTINUOUS
370
50
 62
4
100
AcDbLine
 10
8.304795
 20
0.010484
 30
0.0
 11
8.304993
 21
0.012117
 31
0.0
  0
LINE
  5
8F0
330
1F
100
AcDbEntity
  8
1
  6
CONTINUOUS
370
50
 62
4
100
AcDbLine
 10
8.304796999999999
 20
0.010482
 30
0.0
 11
8.304995
 21
0.012117
 31
0.0
  0
LINE
  5
8F1
330
1F
100
AcDbEntity
  8
1
  6
CONTINUOUS
370
50
 62
4
100
AcDbLine
 10
8.304599999999999
 20
0.008815
 30
0.0
 11
8.304796999999999
 21
0.010482
 31
0.0
  0
LINE
  5
8F2
330
1F
100
AcDbEntity
  8
1
  6
CONTINUOUS
370
50
 62
4
100
AcDbLine
 10
8.304598
 20
0.008817
 30
0.0
 11
8.304795
 21
0.010484
 31
0.0
  0
LINE
  5
8F3
330
1F
100
AcDbEntity
  8
1
  6
CONTINUOUS
370
50
 62
4
100
AcDbLine
 10
8.3044
 20
0.007118
 30
0.0
 11
8.304598
 21
0.008817
 31
0.0
  0
LINE
  5
8F4
330
1F
100
AcDbEntity
  8
1
  6
CONTINUOUS
370
50
 62
4
100
AcDbLine
 10
8.304402
 20
0.007115
 30
0.0
 11
8.304599999999999
 21
0.008815
 31
0.0
  0
LINE
  5
8F5
330
1F
100
AcDbEntity
  8
1
  6
CONTINUOUS
370
50
 62
4
100
AcDbLine
 10
8.304205
 20
0.005383
 30
0.0
 11
8.304402
 21
0.007115
 31
0.0
  0
LINE
  5
8F6
330
1F
100
AcDbEntity
  8
1
  6
CONTINUOUS
370
50
 62
4
100
AcDbLine
 10
8.304203
 20
0.005386
 30
0.0
 11
8.3044
 21
0.007118
 31
0.0
  0
LINE
  5
8F7
330
1F
100
AcDbEntity
  8
1
  6
CONTINUOUS
370
50
 62
4
100
AcDbLine
 10
8.425962
 20
0.004482
 30
0.0
 11
8.426193
 21
0.006528
 31
0.0
  0
LINE
  5
8F8
330
1F
100
AcDbEntity
  8
1
  6
CONTINUOUS
370
50
 62
4
100
AcDbLine
 10
8.304005
 20
0.003622
 30
0.0
 11
8.304203
 21
0.005386
 31
0.0
  0
LINE
  5
8F9
330
1F
100
AcDbEntity
  8
1
  6
CONTINUOUS
370
50
 62
4
100
AcDbLine
 10
8.304008
 20
0.003619
 30
0.0
 11
8.304205
 21
0.005383
 31
0.0
  0
LINE
  5
8FA
330
1F
100
AcDbEntity
  8
1
  6
CONTINUOUS
370
50
 62
4
100
AcDbLine
 10
8.303809
 20
0.001825
 30
0.0
 11
8.304008
 21
0.003619
 31
0.0
  0
LINE
  5
8FB
330
1F
100
AcDbEntity
  8
1
  6
CONTINUOUS
370
50
 62
4
100
AcDbLine
 10
8.303806999999999
 20
0.001826
 30
0.0
 11
8.304005
 21
0.003622
 31
0.0
  0
LINE
  5
8FC
330
1F
100
AcDbEntity
  8
1
  6
CONTINUOUS
370
50
 62
4
100
AcDbLine
 10
8.303609
 20
0.0
 30
0.0
 11
8.303806999999999
 21
0.001826
 31
0.0
  0
LINE
  5
8FD
330
1F
100
AcDbEntity
  8
1
  6
CONTINUOUS
370
50
 62
4
100
AcDbLine
 10
8.303612
 20
0.0
 30
0.0
 11
8.303809
 21
0.001825
 31
0.0
  0
LINE
  5
8FE
330
1F
100
AcDbEntity
  8
1
  6
CONTINUOUS
370
50
 62
4
100
AcDbLine
 10
8.303128
 20
-0.004569
 30
0.0
 11
8.303609
 21
0.0
 31
0.0
  0
LINE
  5
8FF
330
1F
100
AcDbEntity
  8
1
  6
CONTINUOUS
370
50
 62
4
100
AcDbLine
 10
8.303132
 20
-0.004566
 30
0.0
 11
8.303612
 21
0.0
 31
0.0
  0
LINE
  5
900
330
1F
100
AcDbEntity
  8
1
  6
CONTINUOUS
370
50
 62
4
100
AcDbLine
 10
8.302648999999999
 20
-0.009313
 30
0.0
 11
8.303128
 21
-0.004569
 31
0.0
  0
LINE
  5
901
330
1F
100
AcDbEntity
  8
1
  6
CONTINUOUS
370
50
 62
4
100
AcDbLine
 10
8.302654
 20
-0.009302
 30
0.0
 11
8.303132
 21
-0.004566
 31
0.0
  0
LINE
  5
902
330
1F
100
AcDbEntity
  8
1
  6
CONTINUOUS
370
50
 62
4
100
AcDbLine
 10
8.302178
 20
-0.014203
 30
0.0
 11
8.302654
 21
-0.009302
 31
0.0
  0
LINE
  5
903
330
1F
100
AcDbEntity
  8
1
  6
CONTINUOUS
370
50
 62
4
100
AcDbLine
 10
8.302173
 20
-0.014225
 30
0.0
 11
8.302648999999999
 21
-0.009313
 31
0.0
  0
LINE
  5
904
330
1F
100
AcDbEntity
  8
1
  6
CONTINUOUS
370
50
 62
4
100
AcDbLine
 10
8.476844999999999
 20
-0.132395
 30
0.0
 11
8.476961
 21
-0.131158
 31
0.0
  0
LINE
  5
905
330
1F
100
AcDbEntity
  8
1
  6
CONTINUOUS
370
50
 62
4
100
AcDbLine
 10
8.301706
 20
-0.019261
 30
0.0
 11
8.302178
 21
-0.014203
 31
0.0
  0
LINE
  5
906
330
1F
100
AcDbEntity
  8
1
  6
CONTINUOUS
370
50
 62
4
100
AcDbLine
 10
8.3017
 20
-0.019295
 30
0.0
 11
8.302173
 21
-0.014225
 31
0.0
  0
LINE
  5
907
330
1F
100
AcDbEntity
  8
1
  6
CONTINUOUS
370
50
 62
4
100
AcDbLine
 10
8.301231999999999
 20
-0.024497
 30
0.0
 11
8.3017
 21
-0.019295
 31
0.0
  0
LINE
  5
908
330
1F
100
AcDbEntity
  8
1
  6
CONTINUOUS
370
50
 62
4
100
AcDbLine
 10
8.301238999999999
 20
-0.024469
 30
0.0
 11
8.301706
 21
-0.019261
 31
0.0
  0
LINE
  5
909
330
1F
100
AcDbEntity
  8
1
  6
CONTINUOUS
370
50
 62
4
100
AcDbLine
 10
8.304993
 20
0.012117
 30
0.0
 11
8.305145
 21
0.013844
 31
0.0
  0
LINE
  5
90A
330
1F
100
AcDbEntity
  8
1
  6
CONTINUOUS
370
50
 62
4
100
AcDbLine
 10
8.304995
 20
0.012117
 30
0.0
 11
8.305168
 21
0.014107
 31
0.0
  0
LINE
  5
90B
330
1F
100
AcDbEntity
  8
1
  6
CONTINUOUS
370
50
 62
4
100
AcDbLine
 10
8.300775999999999
 20
-0.029811
 30
0.0
 11
8.301238999999999
 21
-0.024469
 31
0.0
  0
LINE
  5
90C
330
1F
100
AcDbEntity
  8
1
  6
CONTINUOUS
370
50
 62
4
100
AcDbLine
 10
8.300772
 20
-0.02982
 30
0.0
 11
8.301231999999999
 21
-0.024497
 31
0.0
  0
LINE
  5
90D
330
1F
100
AcDbEntity
  8
1
  6
CONTINUOUS
370
50
 62
4
100
AcDbLine
 10
8.300317999999999
 20
-0.035254
 30
0.0
 11
8.300772
 21
-0.02982
 31
0.0
  0
LINE
  5
90E
330
1F
100
AcDbEntity
  8
1
  6
CONTINUOUS
370
50
 62
4
100
AcDbLine
 10
8.300322999999999
 20
-0.035259
 30
0.0
 11
8.300775999999999
 21
-0.029811
 31
0.0
  0
LINE
  5
90F
330
1F
100
AcDbEntity
  8
1
  6
CONTINUOUS
370
50
 62
4
100
AcDbLine
 10
8.299875
 20
-0.040802
 30
0.0
 11
8.300322999999999
 21
-0.035259
 31
0.0
  0
LINE
  5
910
330
1F
100
AcDbEntity
  8
1
  6
CONTINUOUS
370
50
 62
4
100
AcDbLine
 10
8.299871
 20
-0.04079
 30
0.0
 11
8.300317999999999
 21
-0.035254
 31
0.0
  0
LINE
  5
911
330
1F
100
AcDbEntity
  8
1
  6
CONTINUOUS
370
50
 62
4
100
AcDbLine
 10
8.299432
 20
-0.046419
 30
0.0
 11
8.299871
 21
-0.04079
 31
0.0
  0
LINE
  5
912
330
1F
100
AcDbEntity
  8
1
  6
CONTINUOUS
370
50
 62
4
100
AcDbLine
 10
8.299437
 20
-0.046431
 30
0.0
 11
8.299875
 21
-0.040802
 31
0.0
  0
LINE
  5
913
330
1F
100
AcDbEntity
  8
1
  6
CONTINUOUS
370
50
 62
4
100
AcDbLine
 10
8.299006
 20
-0.052135
 30
0.0
 11
8.299437
 21
-0.046431
 31
0.0
  0
LINE
  5
914
330
1F
100
AcDbEntity
  8
1
  6
CONTINUOUS
370
50
 62
4
100
AcDbLine
 10
8.299000999999999
 20
-0.052129
 30
0.0
 11
8.299432
 21
-0.046419
 31
0.0
  0
LINE
  5
915
330
1F
100
AcDbEntity
  8
1
  6
CONTINUOUS
370
50
 62
4
100
AcDbLine
 10
8.476906
 20
-0.130294
 30
0.0
 11
8.476974
 21
-0.129374
 31
0.0
  0
LINE
  5
916
330
1F
100
AcDbEntity
  8
1
  6
CONTINUOUS
370
50
 62
4
100
AcDbLine
 10
8.298579
 20
-0.057886
 30
0.0
 11
8.299000999999999
 21
-0.052129
 31
0.0
  0
LINE
  5
917
330
1F
100
AcDbEntity
  8
1
  6
CONTINUOUS
370
50
 62
4
100
AcDbLine
 10
8.305145
 20
0.013844
 30
0.0
 11
8.305277
 21
0.015648
 31
0.0
  0
LINE
  5
918
330
1F
100
AcDbEntity
  8
1
  6
CONTINUOUS
370
50
 62
4
100
AcDbLine
 10
8.298584
 20
-0.057904
 30
0.0
 11
8.299006
 21
-0.052135
 31
0.0
  0
LINE
  5
919
330
1F
100
AcDbEntity
  8
1
  6
CONTINUOUS
370
50
 62
4
100
AcDbLine
 10
8.298171
 20
-0.063718
 30
0.0
 11
8.298584
 21
-0.057904
 31
0.0
  0
LINE
  5
91A
330
1F
100
AcDbEntity
  8
1
  6
CONTINUOUS
370
50
 62
4
100
AcDbLine
 10
8.298168
 20
-0.063673
 30
0.0
 11
8.298579
 21
-0.057886
 31
0.0
  0
LINE
  5
91B
330
1F
100
AcDbEntity
  8
1
  6
CONTINUOUS
370
50
 62
4
100
AcDbLine
 10
8.305168
 20
0.014107
 30
0.0
 11
8.305313
 21
0.016205
 31
0.0
  0
LINE
  5
91C
330
1F
100
AcDbEntity
  8
1
  6
CONTINUOUS
370
50
 62
4
100
AcDbLine
 10
8.29777
 20
-0.069547
 30
0.0
 11
8.298171
 21
-0.063718
 31
0.0
  0
LINE
  5
91D
330
1F
100
AcDbEntity
  8
1
  6
CONTINUOUS
370
50
 62
4
100
AcDbLine
 10
8.297768999999999
 20
-0.069479
 30
0.0
 11
8.298168
 21
-0.063673
 31
0.0
  0
LINE
  5
91E
330
1F
100
AcDbEntity
  8
1
  6
CONTINUOUS
370
50
 62
4
100
AcDbLine
 10
8.297379
 20
-0.075292
 30
0.0
 11
8.297768999999999
 21
-0.069479
 31
0.0
  0
LINE
  5
91F
330
1F
100
AcDbEntity
  8
1
  6
CONTINUOUS
370
50
 62
4
100
AcDbLine
 10
8.297379
 20
-0.075381
 30
0.0
 11
8.29777
 21
-0.069547
 31
0.0
  0
LINE
  5
920
330
1F
100
AcDbEntity
  8
1
  6
CONTINUOUS
370
50
 62
4
100
AcDbLine
 10
8.426193
 20
0.006528
 30
0.0
 11
8.426324
 21
0.008511
 31
0.0
  0
LINE
  5
921
330
1F
100
AcDbEntity
  8
1
  6
CONTINUOUS
370
50
 62
4
100
AcDbLine
 10
8.296999999999999
 20
-0.081102
 30
0.0
 11
8.297379
 21
-0.075292
 31
0.0
  0
LINE
  5
922
330
1F
100
AcDbEntity
  8
1
  6
CONTINUOUS
370
50
 62
4
100
AcDbLine
 10
8.296999999999999
 20
-0.081207
 30
0.0
 11
8.297379
 21
-0.075381
 31
0.0
  0
LINE
  5
923
330
1F
100
AcDbEntity
  8
1
  6
CONTINUOUS
370
50
 62
4
100
AcDbLine
 10
8.426261
 20
0.084105
 30
0.0
 11
8.426352
 21
0.085569
 31
0.0
  0
LINE
  5
924
330
1F
100
AcDbEntity
  8
1
  6
CONTINUOUS
370
50
 62
4
100
AcDbLine
 10
8.204758
 20
0.059633
 30
0.0
 11
8.204879
 21
0.061644
 31
0.0
  0
LINE
  5
925
330
1F
100
AcDbEntity
  8
1
  6
CONTINUOUS
370
50
 62
4
100
AcDbLine
 10
8.459188
 20
-0.041298
 30
0.0
 11
8.459539
 21
-0.035342
 31
0.0
  0
LINE
  5
926
330
1F
100
AcDbEntity
  8
1
  6
CONTINUOUS
370
50
 62
4
100
AcDbLine
 10
8.305277
 20
0.015648
 30
0.0
 11
8.305386
 21
0.017525
 31
0.0
  0
LINE
  5
927
330
1F
100
AcDbEntity
  8
1
  6
CONTINUOUS
370
50
 62
4
100
AcDbLine
 10
8.305313
 20
0.016205
 30
0.0
 11
8.305429
 21
0.018406
 31
0.0
  0
LINE
  5
928
330
1F
100
AcDbEntity
  8
1
  6
CONTINUOUS
370
50
 62
4
100
AcDbLine
 10
8.305386
 20
0.017525
 30
0.0
 11
8.30547
 21
0.019473
 31
0.0
  0
LINE
  5
929
330
1F
100
AcDbEntity
  8
1
  6
CONTINUOUS
370
50
 62
4
100
AcDbLine
 10
8.458941
 20
-0.047288
 30
0.0
 11
8.459188
 21
-0.041298
 31
0.0
  0
LINE
  5
92A
330
1F
100
AcDbEntity
  8
1
  6
CONTINUOUS
370
50
 62
4
100
AcDbLine
 10
8.305429
 20
0.018406
 30
0.0
 11
8.305512
 21
0.020699
 31
0.0
  0
LINE
  5
92B
330
1F
100
AcDbEntity
  8
1
  6
CONTINUOUS
370
50
 62
4
100
AcDbLine
 10
8.476961
 20
-0.131158
 30
0.0
 11
8.477
 21
-0.129915
 31
0.0
  0
LINE
  5
92C
330
1F
100
AcDbEntity
  8
1
  6
CONTINUOUS
370
50
 62
4
100
AcDbLine
 10
8.30547
 20
0.019473
 30
0.0
 11
8.305532
 21
0.021488
 31
0.0
  0
LINE
  5
92D
330
1F
100
AcDbEntity
  8
1
  6
CONTINUOUS
370
50
 62
4
100
AcDbLine
 10
8.476974
 20
-0.129374
 30
0.0
 11
8.476999
 21
-0.128386
 31
0.0
  0
LINE
  5
92E
330
1F
100
AcDbEntity
  8
1
  6
CONTINUOUS
370
50
 62
4
100
AcDbLine
 10
8.458796999999999
 20
-0.053301
 30
0.0
 11
8.458941
 21
-0.047288
 31
0.0
  0
LINE
  5
92F
330
1F
100
AcDbEntity
  8
1
  6
CONTINUOUS
370
50
 62
4
100
AcDbLine
 10
8.459579
 20
-0.035298
 30
0.0
 11
8.45962
 21
-0.03347
 31
0.0
  0
LINE
  5
930
330
1F
100
AcDbEntity
  8
1
  6
CONTINUOUS
370
50
 62
4
100
AcDbLine
 10
8.305512
 20
0.020699
 30
0.0
 11
8.305563
 21
0.02307
 31
0.0
  0
LINE
  5
931
330
1F
100
AcDbEntity
  8
1
  6
CONTINUOUS
370
50
 62
4
100
AcDbLine
 10
8.426324
 20
0.008511
 30
0.0
 11
8.426358
 21
0.010428
 31
0.0
  0
LINE
  5
932
330
1F
100
AcDbEntity
  8
1
  6
CONTINUOUS
370
50
 62
4
100
AcDbLine
 10
8.305532
 20
0.021488
 30
0.0
 11
8.305568
 21
0.023566
 31
0.0
  0
LINE
  5
933
330
1F
100
AcDbEntity
  8
1
  6
CONTINUOUS
370
50
 62
4
100
AcDbLine
 10
8.204787
 20
-0.127087
 30
0.0
 11
8.204805
 21
-0.12601
 31
0.0
  0
LINE
  5
934
330
1F
100
AcDbEntity
  8
1
  6
CONTINUOUS
370
50
 62
4
100
AcDbLine
 10
8.45962
 20
-0.03347
 30
0.0
 11
8.459635
 21
-0.031639
 31
0.0
  0
LINE
  5
935
330
1F
100
AcDbEntity
  8
1
  6
CONTINUOUS
370
50
 62
4
100
AcDbLine
 10
8.305563
 20
0.02307
 30
0.0
 11
8.305579
 21
0.025511
 31
0.0
  0
LINE
  5
936
330
1F
100
AcDbEntity
  8
1
  6
CONTINUOUS
370
50
 62
4
100
AcDbLine
 10
8.45876
 20
-0.059325
 30
0.0
 11
8.458796999999999
 21
-0.053301
 31
0.0
  0
LINE
  5
937
330
1F
100
AcDbEntity
  8
1
  6
CONTINUOUS
370
50
 62
4
100
AcDbLine
 10
8.305568
 20
0.023566
 30
0.0
 11
8.305577999999999
 21
0.025704
 31
0.0
  0
LINE
  5
938
330
1F
100
AcDbEntity
  8
1
  6
CONTINUOUS
370
50
 62
4
100
AcDbLine
 10
-0.01
 20
-1.99995
 30
0.0
 11
-0.01
 21
1.99995
 31
0.0
  0
LINE
  5
939
330
1F
100
AcDbEntity
  8
1
  6
CONTINUOUS
370
50
 62
4
100
AcDbLine
 10
6.476999999999999
 20
-0.13995
 30
0.0
 11
6.476999999999999
 21
0.13995
 31
0.0
  0
LINE
  5
93A
330
1F
100
AcDbEntity
  8
1
  6
CONTINUOUS
370
50
 62
4
100
AcDbLine
 10
8.296999999999999
 20
0.089249
 30
0.0
 11
8.296999999999999
 21
0.120679
 31
0.0
  0
LINE
  5
93B
330
1F
100
AcDbEntity
  8
1
  6
CONTINUOUS
370
50
 62
4
100
AcDbLine
 10
8.296999999999999
 20
-0.111651
 30
0.0
 11
8.296999999999999
 21
-0.081207
 31
0.0
  0
LINE
  5
93C
330
1F
100
AcDbEntity
  8
1
  6
CONTINUOUS
370
50
 62
4
100
AcDbLine
 10
8.296999999999999
 20
-0.081207
 30
0.0
 11
8.296999999999999
 21
-0.079734
 31
0.0
  0
LINE
  5
93D
330
1F
100
AcDbEntity
  8
1
  6
CONTINUOUS
370
50
 62
4
100
AcDbLine
 10
8.296999999999999
 20
-0.079734
 30
0.0
 11
8.296999999999999
 21
-0.078259
 31
0.0
  0
LINE
  5
93E
330
1F
100
AcDbEntity
  8
1
  6
CONTINUOUS
370
50
 62
4
100
AcDbLine
 10
8.296999999999999
 20
-0.078259
 30
0.0
 11
8.296999999999999
 21
-0.076783
 31
0.0
  0
LINE
  5
93F
330
1F
100
AcDbEntity
  8
1
  6
CONTINUOUS
370
50
 62
4
100
AcDbLine
 10
8.296999999999999
 20
-0.076783
 30
0.0
 11
8.296999999999999
 21
-0.075306
 31
0.0
  0
LINE
  5
940
330
1F
100
AcDbEntity
  8
1
  6
CONTINUOUS
370
50
 62
4
100
AcDbLine
 10
8.296999999999999
 20
-0.075306
 30
0.0
 11
8.296999999999999
 21
-0.073828
 31
0.0
  0
LINE
  5
941
330
1F
100
AcDbEntity
  8
1
  6
CONTINUOUS
370
50
 62
4
100
AcDbLine
 10
8.296999999999999
 20
-0.073828
 30
0.0
 11
8.296999999999999
 21
-0.07235
 31
0.0
  0
LINE
  5
942
330
1F
100
AcDbEntity
  8
1
  6
CONTINUOUS
370
50
 62
4
100
AcDbLine
 10
8.296999999999999
 20
-0.07235
 30
0.0
 11
8.296999999999999
 21
-0.070871
 31
0.0
  0
LINE
  5
943
330
1F
100
AcDbEntity
  8
1
  6
CONTINUOUS
370
50
 62
4
100
AcDbLine
 10
8.296999999999999
 20
-0.091817
 30
0.0
 11
8.296999999999999
 21
-0.090293
 31
0.0
  0
LINE
  5
944
330
1F
100
AcDbEntity
  8
1
  6
CONTINUOUS
370
50
 62
4
100
AcDbLine
 10
8.296999999999999
 20
-0.090293
 30
0.0
 11
8.296999999999999
 21
-0.088767
 31
0.0
  0
LINE
  5
945
330
1F
100
AcDbEntity
  8
1
  6
CONTINUOUS
370
50
 62
4
100
AcDbLine
 10
8.296999999999999
 20
-0.088767
 30
0.0
 11
8.296999999999999
 21
-0.087238
 31
0.0
  0
LINE
  5
946
330
1F
100
AcDbEntity
  8
1
  6
CONTINUOUS
370
50
 62
4
100
AcDbLine
 10
8.296999999999999
 20
-0.087238
 30
0.0
 11
8.296999999999999
 21
-0.085707
 31
0.0
  0
LINE
  5
947
330
1F
100
AcDbEntity
  8
1
  6
CONTINUOUS
370
50
 62
4
100
AcDbLine
 10
8.296999999999999
 20
-0.085707
 30
0.0
 11
8.296999999999999
 21
-0.084174
 31
0.0
  0
LINE
  5
948
330
1F
100
AcDbEntity
  8
1
  6
CONTINUOUS
370
50
 62
4
100
AcDbLine
 10
8.296999999999999
 20
-0.084174
 30
0.0
 11
8.296999999999999
 21
-0.082639
 31
0.0
  0
LINE
  5
949
330
1F
100
AcDbEntity
  8
1
  6
CONTINUOUS
370
50
 62
4
100
AcDbLine
 10
8.296999999999999
 20
-0.082639
 30
0.0
 11
8.296999999999999
 21
-0.081102
 31
0.0
  0
LINE
  5
94A
330
1F
100
AcDbEntity
  8
1
  6
CONTINUOUS
370
50
 62
4
100
AcDbLine
 10
8.296999999999999
 20
-0.115464
 30
0.0
 11
8.296999999999999
 21
-0.091817
 31
0.0
  0
LINE
  5
94B
330
1F
100
AcDbEntity
  8
1
  6
CONTINUOUS
370
50
 62
4
100
AcDbLine
 10
8.307
 20
0.112919
 30
0.0
 11
8.307
 21
0.116095
 31
0.0
  0
LINE
  5
94C
330
1F
100
AcDbEntity
  8
1
  6
CONTINUOUS
370
50
 62
4
100
AcDbLine
 10
8.307
 20
0.092302
 30
0.0
 11
8.307
 21
0.095698
 31
0.0
  0
LINE
  5
94D
330
1F
100
AcDbEntity
  8
1
  6
CONTINUOUS
370
50
 62
4
100
AcDbLine
 10
8.307
 20
0.088905
 30
0.0
 11
8.307
 21
0.092302
 31
0.0
  0
LINE
  5
94E
330
1F
100
AcDbEntity
  8
1
  6
CONTINUOUS
370
50
 62
4
100
AcDbLine
 10
8.307
 20
0.085509
 30
0.0
 11
8.307
 21
0.088905
 31
0.0
  0
LINE
  5
94F
330
1F
100
AcDbEntity
  8
1
  6
CONTINUOUS
370
50
 62
4
100
AcDbLine
 10
8.307
 20
0.082112
 30
0.0
 11
8.307
 21
0.085509
 31
0.0
  0
LINE
  5
950
330
1F
100
AcDbEntity
  8
1
  6
CONTINUOUS
370
50
 62
4
100
AcDbLine
 10
8.307
 20
0.078716
 30
0.0
 11
8.307
 21
0.082112
 31
0.0
  0
LINE
  5
951
330
1F
100
AcDbEntity
  8
1
  6
CONTINUOUS
370
50
 62
4
100
AcDbLine
 10
8.307
 20
0.075319
 30
0.0
 11
8.307
 21
0.078716
 31
0.0
  0
LINE
  5
952
330
1F
100
AcDbEntity
  8
1
  6
CONTINUOUS
370
50
 62
4
100
AcDbLine
 10
8.307
 20
0.071923
 30
0.0
 11
8.307
 21
0.075319
 31
0.0
  0
LINE
  5
953
330
1F
100
AcDbEntity
  8
1
  6
CONTINUOUS
370
50
 62
4
100
AcDbLine
 10
8.307
 20
0.095698
 30
0.0
 11
8.307
 21
0.095743
 31
0.0
  0
LINE
  5
954
330
1F
100
AcDbEntity
  8
1
  6
CONTINUOUS
370
50
 62
4
100
AcDbLine
 10
8.307
 20
0.002266
 30
0.0
 11
8.307
 21
0.011873
 31
0.0
  0
LINE
  5
955
330
1F
100
AcDbEntity
  8
1
  6
CONTINUOUS
370
50
 62
4
100
AcDbLine
 10
8.307
 20
-0.008184
 30
0.0
 11
8.307
 21
0.002266
 31
0.0
  0
LINE
  5
956
330
1F
100
AcDbEntity
  8
1
  6
CONTINUOUS
370
50
 62
4
100
AcDbLine
 10
8.307
 20
-0.019385
 30
0.0
 11
8.307
 21
-0.008184
 31
0.0
  0
LINE
  5
957
330
1F
100
AcDbEntity
  8
1
  6
CONTINUOUS
370
50
 62
4
100
AcDbLine
 10
8.307
 20
-0.031233
 30
0.0
 11
8.307
 21
-0.019385
 31
0.0
  0
LINE
  5
958
330
1F
100
AcDbEntity
  8
1
  6
CONTINUOUS
370
50
 62
4
100
AcDbLine
 10
8.307
 20
-0.043538
 30
0.0
 11
8.307
 21
-0.031233
 31
0.0
  0
LINE
  5
959
330
1F
100
AcDbEntity
  8
1
  6
CONTINUOUS
370
50
 62
4
100
AcDbLine
 10
8.307
 20
-0.056168
 30
0.0
 11
8.307
 21
-0.043538
 31
0.0
  0
LINE
  5
95A
330
1F
100
AcDbEntity
  8
1
  6
CONTINUOUS
370
50
 62
4
100
AcDbLine
 10
8.307
 20
-0.069011
 30
0.0
 11
8.307
 21
-0.056168
 31
0.0
  0
LINE
  5
95B
330
1F
100
AcDbEntity
  8
1
  6
CONTINUOUS
370
50
 62
4
100
AcDbLine
 10
8.307
 20
0.070661
 30
0.0
 11
8.307
 21
0.071923
 31
0.0
  0
LINE
  5
95C
330
1F
100
AcDbEntity
  8
1
  6
CONTINUOUS
370
50
 62
4
100
AcDbLine
 10
8.307
 20
0.069339
 30
0.0
 11
8.307
 21
0.070661
 31
0.0
  0
LINE
  5
95D
330
1F
100
AcDbEntity
  8
1
  6
CONTINUOUS
370
50
 62
4
100
AcDbLine
 10
8.307
 20
0.067959
 30
0.0
 11
8.307
 21
0.069339
 31
0.0
  0
LINE
  5
95E
330
1F
100
AcDbEntity
  8
1
  6
CONTINUOUS
370
50
 62
4
100
AcDbLine
 10
8.307
 20
0.066523
 30
0.0
 11
8.307
 21
0.067959
 31
0.0
  0
LINE
  5
95F
330
1F
100
AcDbEntity
  8
1
  6
CONTINUOUS
370
50
 62
4
100
AcDbLine
 10
8.307
 20
0.065033
 30
0.0
 11
8.307
 21
0.066523
 31
0.0
  0
LINE
  5
960
330
1F
100
AcDbEntity
  8
1
  6
CONTINUOUS
370
50
 62
4
100
AcDbLine
 10
8.307
 20
0.063492
 30
0.0
 11
8.307
 21
0.065033
 31
0.0
  0
LINE
  5
961
330
1F
100
AcDbEntity
  8
1
  6
CONTINUOUS
370
50
 62
4
100
AcDbLine
 10
8.307
 20
0.061901
 30
0.0
 11
8.307
 21
0.063492
 31
0.0
  0
LINE
  5
962
330
1F
100
AcDbEntity
  8
1
  6
CONTINUOUS
370
50
 62
4
100
AcDbLine
 10
8.307
 20
0.060263
 30
0.0
 11
8.307
 21
0.061901
 31
0.0
  0
LINE
  5
963
330
1F
100
AcDbEntity
  8
1
  6
CONTINUOUS
370
50
 62
4
100
AcDbLine
 10
8.307
 20
0.058581
 30
0.0
 11
8.307
 21
0.060263
 31
0.0
  0
LINE
  5
964
330
1F
100
AcDbEntity
  8
1
  6
CONTINUOUS
370
50
 62
4
100
AcDbLine
 10
8.307
 20
0.056861
 30
0.0
 11
8.307
 21
0.058581
 31
0.0
  0
LINE
  5
965
330
1F
100
AcDbEntity
  8
1
  6
CONTINUOUS
370
50
 62
4
100
AcDbLine
 10
8.307
 20
0.055108
 30
0.0
 11
8.307
 21
0.056861
 31
0.0
  0
LINE
  5
966
330
1F
100
AcDbEntity
  8
1
  6
CONTINUOUS
370
50
 62
4
100
AcDbLine
 10
8.307
 20
0.053325
 30
0.0
 11
8.307
 21
0.055108
 31
0.0
  0
LINE
  5
967
330
1F
100
AcDbEntity
  8
1
  6
CONTINUOUS
370
50
 62
4
100
AcDbLine
 10
8.307
 20
0.051515
 30
0.0
 11
8.307
 21
0.053325
 31
0.0
  0
LINE
  5
968
330
1F
100
AcDbEntity
  8
1
  6
CONTINUOUS
370
50
 62
4
100
AcDbLine
 10
8.307
 20
0.049681
 30
0.0
 11
8.307
 21
0.051515
 31
0.0
  0
LINE
  5
969
330
1F
100
AcDbEntity
  8
1
  6
CONTINUOUS
370
50
 62
4
100
AcDbLine
 10
8.307
 20
0.047825
 30
0.0
 11
8.307
 21
0.049681
 31
0.0
  0
LINE
  5
96A
330
1F
100
AcDbEntity
  8
1
  6
CONTINUOUS
370
50
 62
4
100
AcDbLine
 10
8.307
 20
0.04595
 30
0.0
 11
8.307
 21
0.047825
 31
0.0
  0
LINE
  5
96B
330
1F
100
AcDbEntity
  8
1
  6
CONTINUOUS
370
50
 62
4
100
AcDbLine
 10
8.307
 20
0.044058
 30
0.0
 11
8.307
 21
0.04595
 31
0.0
  0
LINE
  5
96C
330
1F
100
AcDbEntity
  8
1
  6
CONTINUOUS
370
50
 62
4
100
AcDbLine
 10
8.307
 20
0.042153
 30
0.0
 11
8.307
 21
0.044058
 31
0.0
  0
LINE
  5
96D
330
1F
100
AcDbEntity
  8
1
  6
CONTINUOUS
370
50
 62
4
100
AcDbLine
 10
8.307
 20
0.040244
 30
0.0
 11
8.307
 21
0.042153
 31
0.0
  0
LINE
  5
96E
330
1F
100
AcDbEntity
  8
1
  6
CONTINUOUS
370
50
 62
4
100
AcDbLine
 10
8.307
 20
0.038336
 30
0.0
 11
8.307
 21
0.040244
 31
0.0
  0
LINE
  5
96F
330
1F
100
AcDbEntity
  8
1
  6
CONTINUOUS
370
50
 62
4
100
AcDbLine
 10
8.307
 20
0.03643
 30
0.0
 11
8.307
 21
0.038336
 31
0.0
  0
LINE
  5
970
330
1F
100
AcDbEntity
  8
1
  6
CONTINUOUS
370
50
 62
4
100
AcDbLine
 10
8.307
 20
0.03453
 30
0.0
 11
8.307
 21
0.03643
 31
0.0
  0
LINE
  5
971
330
1F
100
AcDbEntity
  8
1
  6
CONTINUOUS
370
50
 62
4
100
AcDbLine
 10
8.307
 20
0.032638
 30
0.0
 11
8.307
 21
0.03453
 31
0.0
  0
LINE
  5
972
330
1F
100
AcDbEntity
  8
1
  6
CONTINUOUS
370
50
 62
4
100
AcDbLine
 10
8.307
 20
0.030758
 30
0.0
 11
8.307
 21
0.032638
 31
0.0
  0
LINE
  5
973
330
1F
100
AcDbEntity
  8
1
  6
CONTINUOUS
370
50
 62
4
100
AcDbLine
 10
8.307
 20
0.028891
 30
0.0
 11
8.307
 21
0.030758
 31
0.0
  0
LINE
  5
974
330
1F
100
AcDbEntity
  8
1
  6
CONTINUOUS
370
50
 62
4
100
AcDbLine
 10
8.307
 20
0.027042
 30
0.0
 11
8.307
 21
0.028891
 31
0.0
  0
LINE
  5
975
330
1F
100
AcDbEntity
  8
1
  6
CONTINUOUS
370
50
 62
4
100
AcDbLine
 10
8.307
 20
0.025213
 30
0.0
 11
8.307
 21
0.027042
 31
0.0
  0
LINE
  5
976
330
1F
100
AcDbEntity
  8
1
  6
CONTINUOUS
370
50
 62
4
100
AcDbLine
 10
8.307
 20
0.023413
 30
0.0
 11
8.307
 21
0.025213
 31
0.0
  0
LINE
  5
977
330
1F
100
AcDbEntity
  8
1
  6
CONTINUOUS
370
50
 62
4
100
AcDbLine
 10
8.307
 20
0.021643
 30
0.0
 11
8.307
 21
0.023413
 31
0.0
  0
LINE
  5
978
330
1F
100
AcDbEntity
  8
1
  6
CONTINUOUS
370
50
 62
4
100
AcDbLine
 10
8.307
 20
0.019907
 30
0.0
 11
8.307
 21
0.021643
 31
0.0
  0
LINE
  5
979
330
1F
100
AcDbEntity
  8
1
  6
CONTINUOUS
370
50
 62
4
100
AcDbLine
 10
8.307
 20
0.018207
 30
0.0
 11
8.307
 21
0.019907
 31
0.0
  0
LINE
  5
97A
330
1F
100
AcDbEntity
  8
1
  6
CONTINUOUS
370
50
 62
4
100
AcDbLine
 10
8.307
 20
0.016548
 30
0.0
 11
8.307
 21
0.018207
 31
0.0
  0
LINE
  5
97B
330
1F
100
AcDbEntity
  8
1
  6
CONTINUOUS
370
50
 62
4
100
AcDbLine
 10
8.307
 20
0.014935
 30
0.0
 11
8.307
 21
0.016548
 31
0.0
  0
LINE
  5
97C
330
1F
100
AcDbEntity
  8
1
  6
CONTINUOUS
370
50
 62
4
100
AcDbLine
 10
8.307
 20
0.013368
 30
0.0
 11
8.307
 21
0.014935
 31
0.0
  0
LINE
  5
97D
330
1F
100
AcDbEntity
  8
1
  6
CONTINUOUS
370
50
 62
4
100
AcDbLine
 10
8.307
 20
0.011851
 30
0.0
 11
8.307
 21
0.013368
 31
0.0
  0
LINE
  5
97E
330
1F
100
AcDbEntity
  8
1
  6
CONTINUOUS
370
50
 62
4
100
AcDbLine
 10
8.307
 20
-0.098596
 30
0.0
 11
8.307
 21
-0.09824
 31
0.0
  0
LINE
  5
97F
330
1F
100
AcDbEntity
  8
1
  6
CONTINUOUS
370
50
 62
4
100
AcDbLine
 10
8.307
 20
-0.097697
 30
0.0
 11
8.307
 21
-0.097588
 31
0.0
  0
LINE
  5
980
330
1F
100
AcDbEntity
  8
1
  6
CONTINUOUS
370
50
 62
4
100
AcDbLine
 10
8.307
 20
-0.097805
 30
0.0
 11
8.307
 21
-0.097697
 31
0.0
  0
LINE
  5
981
330
1F
100
AcDbEntity
  8
1
  6
CONTINUOUS
370
50
 62
4
100
AcDbLine
 10
8.307
 20
-0.097914
 30
0.0
 11
8.307
 21
-0.097805
 31
0.0
  0
LINE
  5
982
330
1F
100
AcDbEntity
  8
1
  6
CONTINUOUS
370
50
 62
4
100
AcDbLine
 10
8.307
 20
-0.098023
 30
0.0
 11
8.307
 21
-0.097914
 31
0.0
  0
LINE
  5
983
330
1F
100
AcDbEntity
  8
1
  6
CONTINUOUS
370
50
 62
4
100
AcDbLine
 10
8.307
 20
-0.098131
 30
0.0
 11
8.307
 21
-0.098023
 31
0.0
  0
LINE
  5
984
330
1F
100
AcDbEntity
  8
1
  6
CONTINUOUS
370
50
 62
4
100
AcDbLine
 10
8.307
 20
-0.09824
 30
0.0
 11
8.307
 21
-0.098131
 31
0.0
  0
LINE
  5
985
330
1F
100
AcDbEntity
  8
1
  6
CONTINUOUS
370
50
 62
4
100
AcDbLine
 10
8.307
 20
-0.097588
 30
0.0
 11
8.307
 21
-0.09707
 31
0.0
  0
LINE
  5
986
330
1F
100
AcDbEntity
  8
1
  6
CONTINUOUS
370
50
 62
4
100
AcDbLine
 10
8.307
 20
-0.09707
 30
0.0
 11
8.307
 21
-0.069011
 31
0.0
  0
LINE
  5
987
330
1F
100
AcDbEntity
  8
1
  6
CONTINUOUS
370
50
 62
4
100
AcDbLine
 10
8.307
 20
-0.11555
 30
0.0
 11
8.307
 21
-0.115391
 31
0.0
  0
LINE
  5
988
330
1F
100
AcDbEntity
  8
1
  6
CONTINUOUS
370
50
 62
4
100
AcDbLine
 10
8.307
 20
-0.115687
 30
0.0
 11
8.307
 21
-0.11555
 31
0.0
  0
LINE
  5
989
330
1F
100
AcDbEntity
  8
1
  6
CONTINUOUS
370
50
 62
4
100
AcDbLine
 10
8.307
 20
-0.115804
 30
0.0
 11
8.307
 21
-0.115687
 31
0.0
  0
LINE
  5
98A
330
1F
100
AcDbEntity
  8
1
  6
CONTINUOUS
370
50
 62
4
100
AcDbLine
 10
8.307
 20
-0.1159
 30
0.0
 11
8.307
 21
-0.115804
 31
0.0
  0
LINE
  5
98B
330
1F
100
AcDbEntity
  8
1
  6
CONTINUOUS
370
50
 62
4
100
AcDbLine
 10
8.307
 20
-0.115975
 30
0.0
 11
8.307
 21
-0.1159
 31
0.0
  0
LINE
  5
98C
330
1F
100
AcDbEntity
  8
1
  6
CONTINUOUS
370
50
 62
4
100
AcDbLine
 10
8.307
 20
-0.11603
 30
0.0
 11
8.307
 21
-0.115975
 31
0.0
  0
LINE
  5
98D
330
1F
100
AcDbEntity
  8
1
  6
CONTINUOUS
370
50
 62
4
100
AcDbLine
 10
8.307
 20
-0.115385
 30
0.0
 11
8.307
 21
-0.115348
 31
0.0
  0
LINE
  5
98E
330
1F
100
AcDbEntity
  8
1
  6
CONTINUOUS
370
50
 62
4
100
AcDbLine
 10
8.432
 20
-0.012037
 30
0.0
 11
8.432
 21
-0.002535
 31
0.0
  0
LINE
  5
98F
330
1F
100
AcDbEntity
  8
1
  6
CONTINUOUS
370
50
 62
4
100
AcDbLine
 10
8.456999999999999
 20
0.016807
 30
0.0
 11
8.456999999999999
 21
0.040696
 31
0.0
  0
LINE
  5
990
330
1F
100
AcDbEntity
  8
1
  6
CONTINUOUS
370
50
 62
4
100
AcDbLine
 10
8.456999999999999
 20
-0.149055
 30
0.0
 11
8.456999999999999
 21
-0.144374
 31
0.0
  0
LINE
  5
991
330
1F
100
AcDbEntity
  8
1
  6
CONTINUOUS
370
50
 62
4
100
AcDbLine
 10
8.477
 20
-0.02042
 30
0.0
 11
8.477
 21
-0.000165
 31
0.0
  0
LINE
  5
992
330
1F
100
AcDbEntity
  8
1
  6
CONTINUOUS
370
50
 62
4
100
AcDbLine
 10
8.477
 20
0.111265
 30
0.0
 11
8.477
 21
0.112837
 31
0.0
  0
LINE
  5
993
330
1F
100
AcDbEntity
  8
1
  6
CONTINUOUS
370
50
 62
4
100
AcDbLine
 10
8.477
 20
0.109699
 30
0.0
 11
8.477
 21
0.111265
 31
0.0
  0
LINE
  5
994
330
1F
100
AcDbEntity
  8
1
  6
CONTINUOUS
370
50
 62
4
100
AcDbLine
 10
8.477
 20
0.108143
 30
0.0
 11
8.477
 21
0.109699
 31
0.0
  0
LINE
  5
995
330
1F
100
AcDbEntity
  8
1
  6
CONTINUOUS
370
50
 62
4
100
AcDbLine
 10
8.477
 20
0.106596
 30
0.0
 11
8.477
 21
0.108143
 31
0.0
  0
LINE
  5
996
330
1F
100
AcDbEntity
  8
1
  6
CONTINUOUS
370
50
 62
4
100
AcDbLine
 10
8.477
 20
0.10506
 30
0.0
 11
8.477
 21
0.106596
 31
0.0
  0
LINE
  5
997
330
1F
100
AcDbEntity
  8
1
  6
CONTINUOUS
370
50
 62
4
100
AcDbLine
 10
8.477
 20
0.103537
 30
0.0
 11
8.477
 21
0.10506
 31
0.0
  0
LINE
  5
998
330
1F
100
AcDbEntity
  8
1
  6
CONTINUOUS
370
50
 62
4
100
AcDbLine
 10
8.477
 20
0.102029
 30
0.0
 11
8.477
 21
0.103537
 31
0.0
  0
LINE
  5
999
330
1F
100
AcDbEntity
  8
1
  6
CONTINUOUS
370
50
 62
4
100
AcDbLine
 10
8.477
 20
0.100536
 30
0.0
 11
8.477
 21
0.102029
 31
0.0
  0
LINE
  5
99A
330
1F
100
AcDbEntity
  8
1
  6
CONTINUOUS
370
50
 62
4
100
AcDbLine
 10
8.477
 20
0.099061
 30
0.0
 11
8.477
 21
0.100536
 31
0.0
  0
LINE
  5
99B
330
1F
100
AcDbEntity
  8
1
  6
CONTINUOUS
370
50
 62
4
100
AcDbLine
 10
8.477
 20
0.097605
 30
0.0
 11
8.477
 21
0.099061
 31
0.0
  0
LINE
  5
99C
330
1F
100
AcDbEntity
  8
1
  6
CONTINUOUS
370
50
 62
4
100
AcDbLine
 10
8.477
 20
0.09617
 30
0.0
 11
8.477
 21
0.097605
 31
0.0
  0
LINE
  5
99D
330
1F
100
AcDbEntity
  8
1
  6
CONTINUOUS
370
50
 62
4
100
AcDbLine
 10
8.477
 20
0.127475
 30
0.0
 11
8.477
 21
0.129915
 31
0.0
  0
LINE
  5
99E
330
1F
100
AcDbEntity
  8
1
  6
CONTINUOUS
370
50
 62
4
100
AcDbLine
 10
8.477
 20
0.125036
 30
0.0
 11
8.477
 21
0.127475
 31
0.0
  0
LINE
  5
99F
330
1F
100
AcDbEntity
  8
1
  6
CONTINUOUS
370
50
 62
4
100
AcDbLine
 10
8.477
 20
0.122596
 30
0.0
 11
8.477
 21
0.125036
 31
0.0
  0
LINE
  5
9A0
330
1F
100
AcDbEntity
  8
1
  6
CONTINUOUS
370
50
 62
4
100
AcDbLine
 10
8.477
 20
0.120156
 30
0.0
 11
8.477
 21
0.122596
 31
0.0
  0
LINE
  5
9A1
330
1F
100
AcDbEntity
  8
1
  6
CONTINUOUS
370
50
 62
4
100
AcDbLine
 10
8.477
 20
0.117716
 30
0.0
 11
8.477
 21
0.120156
 31
0.0
  0
LINE
  5
9A2
330
1F
100
AcDbEntity
  8
1
  6
CONTINUOUS
370
50
 62
4
100
AcDbLine
 10
8.477
 20
0.115276
 30
0.0
 11
8.477
 21
0.117716
 31
0.0
  0
LINE
  5
9A3
330
1F
100
AcDbEntity
  8
1
  6
CONTINUOUS
370
50
 62
4
100
AcDbLine
 10
8.477
 20
0.112837
 30
0.0
 11
8.477
 21
0.115276
 31
0.0
  0
LINE
  5
9A4
330
1F
100
AcDbEntity
  8
1
  6
CONTINUOUS
370
50
 62
4
100
AcDbLine
 10
8.477
 20
0.003872
 30
0.0
 11
8.477
 21
0.003968
 31
0.0
  0
LINE
  5
9A5
330
1F
100
AcDbEntity
  8
1
  6
CONTINUOUS
370
50
 62
4
100
AcDbLine
 10
8.477
 20
0.003719
 30
0.0
 11
8.477
 21
0.003872
 31
0.0
  0
LINE
  5
9A6
330
1F
100
AcDbEntity
  8
1
  6
CONTINUOUS
370
50
 62
4
100
AcDbLine
 10
8.477
 20
0.00351
 30
0.0
 11
8.477
 21
0.003719
 31
0.0
  0
LINE
  5
9A7
330
1F
100
AcDbEntity
  8
1
  6
CONTINUOUS
370
50
 62
4
100
AcDbLine
 10
8.477
 20
0.003244
 30
0.0
 11
8.477
 21
0.00351
 31
0.0
  0
LINE
  5
9A8
330
1F
100
AcDbEntity
  8
1
  6
CONTINUOUS
370
50
 62
4
100
AcDbLine
 10
8.477
 20
0.002922
 30
0.0
 11
8.477
 21
0.003244
 31
0.0
  0
LINE
  5
9A9
330
1F
100
AcDbEntity
  8
1
  6
CONTINUOUS
370
50
 62
4
100
AcDbLine
 10
8.477
 20
0.002545
 30
0.0
 11
8.477
 21
0.002922
 31
0.0
  0
LINE
  5
9AA
330
1F
100
AcDbEntity
  8
1
  6
CONTINUOUS
370
50
 62
4
100
AcDbLine
 10
8.477
 20
0.002112
 30
0.0
 11
8.477
 21
0.002545
 31
0.0
  0
LINE
  5
9AB
330
1F
100
AcDbEntity
  8
1
  6
CONTINUOUS
370
50
 62
4
100
AcDbLine
 10
8.477
 20
0.001625
 30
0.0
 11
8.477
 21
0.002112
 31
0.0
  0
LINE
  5
9AC
330
1F
100
AcDbEntity
  8
1
  6
CONTINUOUS
370
50
 62
4
100
AcDbLine
 10
8.477
 20
0.001083
 30
0.0
 11
8.477
 21
0.001625
 31
0.0
  0
LINE
  5
9AD
330
1F
100
AcDbEntity
  8
1
  6
CONTINUOUS
370
50
 62
4
100
AcDbLine
 10
8.477
 20
0.000487
 30
0.0
 11
8.477
 21
0.001083
 31
0.0
  0
LINE
  5
9AE
330
1F
100
AcDbEntity
  8
1
  6
CONTINUOUS
370
50
 62
4
100
AcDbLine
 10
8.477
 20
-0.000163
 30
0.0
 11
8.477
 21
0.000487
 31
0.0
  0
LINE
  5
9AF
330
1F
100
AcDbEntity
  8
1
  6
CONTINUOUS
370
50
 62
4
100
AcDbLine
 10
8.477
 20
0.004591
 30
0.0
 11
8.477
 21
0.004695
 31
0.0
  0
LINE
  5
9B0
330
1F
100
AcDbEntity
  8
1
  6
CONTINUOUS
370
50
 62
4
100
AcDbLine
 10
8.477
 20
0.004487
 30
0.0
 11
8.477
 21
0.004591
 31
0.0
  0
LINE
  5
9B1
330
1F
100
AcDbEntity
  8
1
  6
CONTINUOUS
370
50
 62
4
100
AcDbLine
 10
8.477
 20
0.004383
 30
0.0
 11
8.477
 21
0.004487
 31
0.0
  0
LINE
  5
9B2
330
1F
100
AcDbEntity
  8
1
  6
CONTINUOUS
370
50
 62
4
100
AcDbLine
 10
8.477
 20
0.004279
 30
0.0
 11
8.477
 21
0.004383
 31
0.0
  0
LINE
  5
9B3
330
1F
100
AcDbEntity
  8
1
  6
CONTINUOUS
370
50
 62
4
100
AcDbLine
 10
8.477
 20
0.004175
 30
0.0
 11
8.477
 21
0.004279
 31
0.0
  0
LINE
  5
9B4
330
1F
100
AcDbEntity
  8
1
  6
CONTINUOUS
370
50
 62
4
100
AcDbLine
 10
8.477
 20
0.004071
 30
0.0
 11
8.477
 21
0.004175
 31
0.0
  0
LINE
  5
9B5
330
1F
100
AcDbEntity
  8
1
  6
CONTINUOUS
370
50
 62
4
100
AcDbLine
 10
8.477
 20
0.003968
 30
0.0
 11
8.477
 21
0.004071
 31
0.0
  0
LINE
  5
9B6
330
1F
100
AcDbEntity
  8
1
  6
CONTINUOUS
370
50
 62
4
100
AcDbLine
 10
8.477
 20
0.004695
 30
0.0
 11
8.477
 21
0.02042
 31
0.0
  0
LINE
  5
9B7
330
1F
100
AcDbEntity
  8
1
  6
CONTINUOUS
370
50
 62
4
100
AcDbLine
 10
8.477
 20
-0.128386
 30
0.0
 11
8.477
 21
-0.064337
 31
0.0
  0
LINE
  5
9B8
330
1F
100
AcDbEntity
  8
1
  6
CONTINUOUS
370
50
 62
4
100
AcDbLine
 10
8.477
 20
-0.129915
 30
0.0
 11
8.477
 21
-0.128386
 31
0.0
  0
LINE
  5
9B9
330
1F
100
AcDbEntity
  8
1
  6
CONTINUOUS
370
50
 62
4
100
AcDbLine
 10
8.477
 20
0.064337
 30
0.0
 11
8.477
 21
0.0675
 31
0.0
  0
LINE
  5
9BA
330
1F
100
AcDbEntity
  8
1
  6
CONTINUOUS
370
50
 62
4
100
AcDbLine
 10
8.477
 20
0.0675
 30
0.0
 11
8.477
 21
0.09617
 31
0.0
  0
ELLIPSE
  5
9BB
330
1F
100
AcDbEntity
  8
1
  6
CONTINUOUS
370
50
 62
4
100
AcDbEllipse
 10
8.477
 20
0.0
 30
0.0
 11
0.04680456786021116
 21
0.06378831708407844
 31
0.0
210
0.0
220
0.0
230
1.0
 40
0.4716394580742804
 41
1.650093268677501
 42
2.068622041214966
  0
ELLIPSE
  5
9BC
330
1F
100
AcDbEntity
  8
1
  6
CONTINUOUS
370
50
 62
4
100
AcDbEllipse
 10
8.477
 20
0.0
 30
0.0
 11
-0.04680456786021113
 21
0.06378831708407816
 31
0.0
210
0.0
220
0.0
230
1.0
 40
0.4716394580742831
 41
1.237631688394131
 42
1.453981508624546
  0
ELLIPSE
  5
9BD
330
1F
100
AcDbEntity
  8
1
  6
CONTINUOUS
370
50
 62
4
100
AcDbEllipse
 10
8.477
 20
0.0
 30
0.0
 11
-0.1327679995924331
 21
0.0001543509755934654
 31
0.0
210
0.0
220
0.0
230
0.9999999999999999
 40
0.5084056373454705
 41
4.712980033177715
 42
4.827399279407403
  0
ELLIPSE
  5
9BE
330
1F
100
AcDbEntity
  8
1
  6
CONTINUOUS
370
50
 62
4
100
AcDbEllipse
 10
8.477
 20
0.0
 30
0.0
 11
0.1327679922373806
 21
0.06750001526855201
 31
0.0
210
0.0
220
0.0
230
0.9999999999999997
 40
0.000684601882717
 41
1.572506417169951
 42
1.805257855211122
  0
ELLIPSE
  5
9BF
330
1F
100
AcDbEntity
  8
1
  6
CONTINUOUS
370
50
 62
4
100
AcDbEllipse
 10
8.477
 20
0.0
 30
0.0
 11
0.2637238878023371
 21
0.06384546345215508
 31
0.0
210
0.0
220
0.0
230
1.0
 40
0.0830755274377659
 41
1.668482301701747
 42
1.685057756723219
  0
ELLIPSE
  5
9C0
330
1F
100
AcDbEntity
  8
1
  6
CONTINUOUS
370
50
 62
4
100
AcDbEllipse
 10
8.477
 20
0.0
 30
0.0
 11
-0.2637238878023367
 21
0.06384546345215562
 31
0.0
210
0.0
220
0.0
230
0.9999999999999998
 40
0.083075527437766
 41
1.404892517860969
 42
1.536509296385374
  0
ELLIPSE
  5
9C1
330
1F
100
AcDbEntity
  8
1
  6
CONTINUOUS
370
50
 62
4
100
AcDbEllipse
 10
8.477096
 20
0.0
 30
0.0
 11
0.04680610301730771
 21
0.06378792440841123
 31
0.0
210
0.0
220
0.0
230
1.0
 40
0.4716535990514997
 41
1.944472674606658
 42
2.068286295375932
  0
ELLIPSE
  5
9C2
330
1F
100
AcDbEntity
  8
1
  6
CONTINUOUS
370
50
 62
4
100
AcDbEllipse
 10
8.477198999999999
 20
0.0
 30
0.0
 11
-0.2637299451220096
 21
0.06384522668878014
 31
0.0
210
0.0
220
0.0
230
1.0
 40
0.0830737420580107
 41
1.404531706993201
 42
1.418709634125563
  0
ELLIPSE
  5
9C3
330
1F
100
AcDbEntity
  8
1
  6
CONTINUOUS
370
50
 62
4
100
AcDbEllipse
 10
8.483635
 20
0.0
 30
0.0
 11
4.133046444150524E-18
 21
0.0675
 31
0.0
210
0.0
220
0.0
230
1.0
 40
0.3249185185185126
 41
1.867075543018195
 42
2.834252289541874
  0
ELLIPSE
  5
9C4
330
1F
100
AcDbEntity
  8
1
  6
CONTINUOUS
370
50
 62
4
100
AcDbEllipse
 10
8.483635
 20
0.0
 30
0.0
 11
4.133046444150524E-18
 21
0.0675
 31
0.0
210
0.0
220
0.0
230
1.0
 40
0.3249185185185126
 41
0.3073403640479188
 42
0.7855263038546829
  0
ELLIPSE
  5
9C5
330
1F
100
AcDbEntity
  8
1
  6
CONTINUOUS
370
50
 62
4
100
AcDbEllipse
 10
9.29669
 20
0.228482
 30
0.0
 11
-2.128543055948782
 21
0.5087047658969017
 31
0.0
210
0.0
220
0.0
230
0.9999999999999997
 40
0.2732446642887167
 41
1.151296039926669
 42
1.153532031332802
  0
ELLIPSE
  5
9C6
330
1F
100
AcDbEntity
  8
1
  6
CONTINUOUS
370
50
 62
4
100
AcDbEllipse
 10
9.29669
 20
2.03821
 30
0.0
 11
1.693685124614296
 21
1.385967847718429
 31
0.0
210
0.0
220
0.0
230
1.0
 40
0.9355963511708596
 41
3.574259855420543
 42
3.576495845750994
  0
ELLIPSE
  5
9C7
330
1F
100
AcDbEntity
  8
1
  6
CONTINUOUS
370
50
 62
4
100
AcDbEllipse
 10
9.321354999999999
 20
-2.008069
 30
0.0
 11
-1.703350117785671
 21
1.393876856063167
 31
0.0
210
0.0
220
0.0
230
1.0
 40
0.9355962677599442
 41
5.888987647611877
 42
5.911771813030195
  0
ELLIPSE
  5
9C8
330
1F
100
AcDbEntity
  8
1
  6
CONTINUOUS
370
50
 62
4
100
AcDbEllipse
 10
9.321354999999999
 20
0.331688
 30
0.0
 11
-2.140689101875839
 21
0.5116075737271819
 31
0.0
210
0.0
220
0.0
230
0.9999999999999998
 40
0.2732447153352038
 41
1.090042198002229
 42
1.143498039383418
  0
ELLIPSE
  5
9C9
330
1F
100
AcDbEntity
  8
1
  6
CONTINUOUS
370
50
 62
4
100
AcDbEllipse
 10
9.333713999999999
 20
0.383403
 30
0.0
 11
-2.127397029912175
 21
0.5084308748402816
 31
0.0
210
0.0
220
0.0
230
0.9999999999999998
 40
0.2732442672455296
 41
1.110128138611789
 42
1.133539753509378
  0
LINE
  5
9CA
330
1F
100
AcDbEntity
  8
CUT
  6
CONTINUOUS
370
25
 62
1
100
AcDbLine
 10
8.307
 20
0.0675
 30
0.0
 11
8.477
 21
0.0675
 31
0.0
  0
LINE
  5
9CB
330
1F
100
AcDbEntity
  8
CUT
  6
CONTINUOUS
370
25
 62
1
100
AcDbLine
 10
8.477
 20
0.0675
 30
0.0
 11
8.477
 21
0.13
 31
0.0
  0
ARC
  5
9CC
330
1F
100
AcDbEntity
  8
CUT
  6
CONTINUOUS
370
25
 62
1
100
AcDbCircle
 10
8.457
 20
0.13
 30
0.0
 40
0.0199999999999996
100
AcDbArc
 50
0.0
 51
90.0
  0
LINE
  5
9CD
330
1F
100
AcDbEntity
  8
CUT
  6
CONTINUOUS
370
25
 62
1
100
AcDbLine
 10
8.457
 20
0.15
 30
0.0
 11
8.297
 21
0.1499
 31
0.0
  0
LINE
  5
9CE
330
1F
100
AcDbEntity
  8
CUT
  6
CONTINUOUS
370
25
 62
1
100
AcDbLine
 10
8.297
 20
0.1499
 30
0.0
 11
8.297
 21
0.1449
 31
0.0
  0
LINE
  5
9CF
330
1F
100
AcDbEntity
  8
CUT
  6
CONTINUOUS
370
25
 62
1
100
AcDbLine
 10
8.297
 20
0.1449
 30
0.0
 11
8.307
 21
0.0675
 31
0.0
  0
LINE
  5
9D0
330
1F
100
AcDbEntity
  8
NOCUT
  6
CONTINUOUS
370
25
 62
7
100
AcDbLine
 10
-0.01
 20
0.0
 30
0.0
 11
8.432
 21
0.0
 31
0.0
  0
LINE
  5
9D1
330
1F
100
AcDbEntity
  8
NOCUT
  6
CONTINUOUS
370
25
 62
7
100
AcDbLine
 10
8.432
 20
0.0
 30
0.0
 11
8.432
 21
0.0675
 31
0.0
  0
LINE
  5
9D2
330
1F
100
AcDbEntity
  8
NOCUT
  6
CONTINUOUS
370
25
 62
7
100
AcDbLine
 10
8.432
 20
0.0675
 30
0.0
 11
8.307
 21
0.0675
 31
0.0
  0
LINE
  5
9D3
330
1F
100
AcDbEntity
  8
NOCUT
  6
CONTINUOUS
370
25
 62
7
100
AcDbLine
 10
8.307
 20
0.0675
 30
0.0
 11
8.297
 21
0.14495
 31
0.0
  0
LINE
  5
9D4
330
1F
100
AcDbEntity
  8
NOCUT
  6
CONTINUOUS
370
25
 62
7
100
AcDbLine
 10
8.297
 20
0.14495
 30
0.0
 11
8.297
 21
0.13995
 31
0.0
  0
LINE
  5
9D5
330
1F
100
AcDbEntity
  8
NOCUT
  6
CONTINUOUS
370
25
 62
7
100
AcDbLine
 10
8.297
 20
0.13995
 30
0.0
 11
6.477
 21
0.13995
 31
0.0
  0
LINE
  5
9D6
330
1F
100
AcDbEntity
  8
NOCUT
  6
CONTINUOUS
370
25
 62
7
100
AcDbLine
 10
6.477
 20
0.13995
 30
0.0
 11
-0.01
 21
1.99995
 31
0.0
  0
LINE
  5
9D7
330
1F
100
AcDbEntity
  8
NOCUT
  6
CONTINUOUS
370
25
 62
7
100
AcDbLine
 10
-0.01
 20
1.99995
 30
0.0
 11
-0.01
 21
0.0
 31
0.0
  0
LINE
  5
9D8
330
1F
100
AcDbEntity
  8
SK1
  6
CONTINUOUS
370
50
 62
4
100
AcDbLine
 10
-0.01
 20
2.0
 30
0.0
 11
-41.223
 21
2.0
 31
0.0
  0
LINE
  5
9D9
330
1F
100
AcDbEntity
  8
SK1
  6
CONTINUOUS
370
50
 62
4
100
AcDbLine
 10
-41.223
 20
2.0
 30
0.0
 11
-41.523
 21
1.7
 31
0.0
  0
LINE
  5
9DA
330
1F
100
AcDbEntity
  8
SK1
  6
CONTINUOUS
370
50
 62
4
100
AcDbLine
 10
-41.523
 20
1.7
 30
0.0
 11
-41.523
 21
-1.7
 31
0.0
  0
LINE
  5
9DB
330
1F
100
AcDbEntity
  8
SK1
  6
CONTINUOUS
370
50
 62
4
100
AcDbLine
 10
-41.523
 20
-1.7
 30
0.0
 11
-41.223
 21
-2.0
 31
0.0
  0
LINE
  5
9DC
330
1F
100
AcDbEntity
  8
SK1
  6
CONTINUOUS
370
50
 62
4
100
AcDbLine
 10
-41.223
 20
-2.0
 30
0.0
 11
-0.01
 21
-2.0
 31
0.0
  0
LINE
  5
9DD
330
1F
100
AcDbEntity
  8
SK1
  6
CONTINUOUS
370
50
 62
4
100
AcDbLine
 10
-41.223
 20
2.0
 30
0.0
 11
-41.223
 21
-2.0
 31
0.0
  0
LINE
  5
9DE
330
1F
100
AcDbEntity
  8
SK2
  6
CONTINUOUS
370
25
 62
7
100
AcDbLine
 10
-41.523
 20
-2.0
 30
0.0
 11
-53.523
 21
-2.0
 31
0.0
  0
LINE
  5
9DF
330
1F
100
AcDbEntity
  8
SK2
  6
CONTINUOUS
370
25
 62
7
100
AcDbLine
 10
-54.523
 20
2.0
 30
0.0
 11
-41.523
 21
2.0
 31
0.0
  0
LINE
  5
9E0
330
1F
100
AcDbEntity
  8
SK2
  6
CONTINUOUS
370
25
 62
7
100
AcDbLine
 10
-53.523
 20
-9.0
 30
0.0
 11
-53.523
 21
15.475
 31
0.0
  0
LINE
  5
9E1
330
1F
100
AcDbEntity
  8
SK2
  6
CONTINUOUS
370
25
 62
7
100
AcDbLine
 10
-53.523
 20
-2.0
 30
0.0
 11
-52.523
 21
-7.0
 31
0.0
  0
LINE
  5
9E2
330
1F
100
AcDbEntity
  8
SK2
  6
CONTINUOUS
370
25
 62
7
100
AcDbLine
 10
-52.523
 20
-7.0
 30
0.0
 11
-54.523
 21
-7.0
 31
0.0
  0
LINE
  5
9E3
330
1F
100
AcDbEntity
  8
SK2
  6
CONTINUOUS
370
25
 62
7
100
AcDbLine
 10
-54.523
 20
-7.0
 30
0.0
 11
-53.523
 21
-2.0
 31
0.0
  0
LINE
  5
9E4
330
1F
100
AcDbEntity
  8
SK2
  6
CONTINUOUS
370
25
 62
7
100
AcDbLine
 10
-52.83051942088825
 20
-7.0
 30
0.0
 11
-52.57425323681471
 21
-6.743733815926461
 31
0.0
  0
LINE
  5
9E5
330
1F
100
AcDbEntity
  8
SK2
  6
CONTINUOUS
370
25
 62
7
100
AcDbLine
 10
-53.25478348960019
 20
-7.0
 30
0.0
 11
-52.64496391493336
 21
-6.390180425333178
 31
0.0
  0
LINE
  5
9E6
330
1F
100
AcDbEntity
  8
SK2
  6
CONTINUOUS
370
25
 62
7
100
AcDbLine
 10
-53.67904755831212
 20
-7.0
 30
0.0
 11
-52.71567459305201
 21
-6.036627034739894
 31
0.0
  0
LINE
  5
9E7
330
1F
100
AcDbEntity
  8
SK2
  6
CONTINUOUS
370
25
 62
7
100
AcDbLine
 10
-54.10331162702405
 20
-7.0
 30
0.0
 11
-52.78638527117068
 21
-5.683073644146631
 31
0.0
  0
LINE
  5
9E8
330
1F
100
AcDbEntity
  8
SK2
  6
CONTINUOUS
370
25
 62
7
100
AcDbLine
 10
-54.521856076066
 20
-6.994280380330025
 30
0.0
 11
-52.85709594928933
 21
-5.329520253553355
 31
0.0
  0
LINE
  5
9E9
330
1F
100
AcDbEntity
  8
SK2
  6
CONTINUOUS
370
25
 62
7
100
AcDbLine
 10
-54.41579005888803
 20
-6.463950294440124
 30
0.0
 11
-52.92780662740798
 21
-4.975966862960078
 31
0.0
  0
LINE
  5
9EA
330
1F
100
AcDbEntity
  8
SK2
  6
CONTINUOUS
370
25
 62
7
100
AcDbLine
 10
-54.30972404171005
 20
-5.933620208550217
 30
0.0
 11
-52.99851730552663
 21
-4.622413472366802
 31
0.0
  0
LINE
  5
9EB
330
1F
100
AcDbEntity
  8
SK2
  6
CONTINUOUS
370
25
 62
7
100
AcDbLine
 10
-54.20365802453206
 20
-5.403290122660295
 30
0.0
 11
-53.06922798364528
 21
-4.268860081773518
 31
0.0
  0
LINE
  5
9EC
330
1F
100
AcDbEntity
  8
SK2
  6
CONTINUOUS
370
25
 62
7
100
AcDbLine
 10
-54.09759200735407
 20
-4.872960036770372
 30
0.0
 11
-53.13993866176395
 21
-3.915306691180248
 31
0.0
  0
LINE
  5
9ED
330
1F
100
AcDbEntity
  8
SK2
  6
CONTINUOUS
370
25
 62
7
100
AcDbLine
 10
-53.99152599017609
 20
-4.342629950880465
 30
0.0
 11
-53.2106493398826
 21
-3.561753300586972
 31
0.0
  0
LINE
  5
9EE
330
1F
100
AcDbEntity
  8
SK2
  6
CONTINUOUS
370
25
 62
7
100
AcDbLine
 10
-53.88545997299811
 20
-3.812299864990557
 30
0.0
 11
-53.28136001800126
 21
-3.208199909993702
 31
0.0
  0
LINE
  5
9EF
330
1F
100
AcDbEntity
  8
SK2
  6
CONTINUOUS
370
25
 62
7
100
AcDbLine
 10
-53.77939395582013
 20
-3.281969779100628
 30
0.0
 11
-53.35207069611991
 21
-2.854646519400411
 31
0.0
  0
LINE
  5
9F0
330
1F
100
AcDbEntity
  8
SK2
  6
CONTINUOUS
370
25
 62
7
100
AcDbLine
 10
-53.67332793864215
 20
-2.75163969321072
 30
0.0
 11
-53.42278137423856
 21
-2.501093128807135
 31
0.0
  0
LINE
  5
9F1
330
1F
100
AcDbEntity
  8
SK2
  6
CONTINUOUS
370
25
 62
7
100
AcDbLine
 10
-53.56726192146416
 20
-2.221309607320805
 30
0.0
 11
-53.49349205235723
 21
-2.147539738213872
 31
0.0
  0
LINE
  5
9F2
330
1F
100
AcDbEntity
  8
SK2
  6
CONTINUOUS
370
25
 62
7
100
AcDbLine
 10
-54.46883470376854
 20
-6.729173518842721
 30
0.0
 11
-54.19800822261126
 21
-7.0
 31
0.0
  0
LINE
  5
9F3
330
1F
100
AcDbEntity
  8
SK2
  6
CONTINUOUS
370
25
 62
7
100
AcDbLine
 10
-54.39812402564989
 20
-6.375620128249444
 30
0.0
 11
-53.77374415389933
 21
-7.0
 31
0.0
  0
LINE
  5
9F4
330
1F
100
AcDbEntity
  8
SK2
  6
CONTINUOUS
370
25
 62
7
100
AcDbLine
 10
-54.32741334753123
 20
-6.022066737656175
 30
0.0
 11
-53.3494800851874
 21
-7.0
 31
0.0
  0
LINE
  5
9F5
330
1F
100
AcDbEntity
  8
SK2
  6
CONTINUOUS
370
25
 62
7
100
AcDbLine
 10
-54.25670266941258
 20
-5.668513347062898
 30
0.0
 11
-52.92521601647547
 21
-7.0
 31
0.0
  0
LINE
  5
9F6
330
1F
100
AcDbEntity
  8
SK2
  6
CONTINUOUS
370
25
 62
7
100
AcDbLine
 10
-54.18599199129392
 20
-5.314959956469608
 30
0.0
 11
-52.52851201305911
 21
-6.972439934704425
 31
0.0
  0
LINE
  5
9F7
330
1F
100
AcDbEntity
  8
SK2
  6
CONTINUOUS
370
25
 62
7
100
AcDbLine
 10
-54.11528131317527
 20
-4.961406565876338
 30
0.0
 11
-52.63457803023709
 21
-6.442109848814518
 31
0.0
  0
LINE
  5
9F8
330
1F
100
AcDbEntity
  8
SK2
  6
CONTINUOUS
370
25
 62
7
100
AcDbLine
 10
-54.04457063505662
 20
-4.607853175283054
 30
0.0
 11
-52.74064404741507
 21
-5.911779762924596
 31
0.0
  0
LINE
  5
9F9
330
1F
100
AcDbEntity
  8
SK2
  6
CONTINUOUS
370
25
 62
7
100
AcDbLine
 10
-53.97385995693796
 20
-4.254299784689792
 30
0.0
 11
-52.84671006459306
 21
-5.381449677034681
 31
0.0
  0
LINE
  5
9FA
330
1F
100
AcDbEntity
  8
SK2
  6
CONTINUOUS
370
25
 62
7
100
AcDbLine
 10
-53.90314927881929
 20
-3.900746394096522
 30
0.0
 11
-52.95277608177105
 21
-4.851119591144759
 31
0.0
  0
LINE
  5
9FB
330
1F
100
AcDbEntity
  8
SK2
  6
CONTINUOUS
370
25
 62
7
100
AcDbLine
 10
-53.83243860070064
 20
-3.547193003503239
 30
0.0
 11
-53.05884209894904
 21
-4.320789505254837
 31
0.0
  0
LINE
  5
9FC
330
1F
100
AcDbEntity
  8
SK2
  6
CONTINUOUS
370
25
 62
7
100
AcDbLine
 10
-53.76172792258198
 20
-3.193639612909969
 30
0.0
 11
-53.16490811612702
 21
-3.790459419364929
 31
0.0
  0
LINE
  5
9FD
330
1F
100
AcDbEntity
  8
SK2
  6
CONTINUOUS
370
25
 62
7
100
AcDbLine
 10
-53.69101724446333
 20
-2.840086222316685
 30
0.0
 11
-53.270974133305
 21
-3.260129333475021
 31
0.0
  0
LINE
  5
9FE
330
1F
100
AcDbEntity
  8
SK2
  6
CONTINUOUS
370
25
 62
7
100
AcDbLine
 10
-53.62030656634468
 20
-2.486532831723409
 30
0.0
 11
-53.37704015048298
 21
-2.729799247585113
 31
0.0
  0
LINE
  5
9FF
330
1F
100
AcDbEntity
  8
SK2
  6
CONTINUOUS
370
25
 62
7
100
AcDbLine
 10
-53.54959588822602
 20
-2.132979441130132
 30
0.0
 11
-53.48310616766096
 21
-2.199469161695191
 31
0.0
  0
LINE
  5
A00
330
1F
100
AcDbEntity
  8
SK2
  6
CONTINUOUS
370
25
 62
7
100
AcDbLine
 10
-53.523
 20
2.0
 30
0.0
 11
-54.523
 21
7.0
 31
0.0
  0
LINE
  5
A01
330
1F
100
AcDbEntity
  8
SK2
  6
CONTINUOUS
370
25
 62
7
100
AcDbLine
 10
-54.523
 20
7.0
 30
0.0
 11
-52.523
 21
7.0
 31
0.0
  0
LINE
  5
A02
330
1F
100
AcDbEntity
  8
SK2
  6
CONTINUOUS
370
25
 62
7
100
AcDbLine
 10
-52.523
 20
7.0
 30
0.0
 11
-53.523
 21
2.0
 31
0.0
  0
LINE
  5
A03
330
1F
100
AcDbEntity
  8
SK2
  6
CONTINUOUS
370
25
 62
7
100
AcDbLine
 10
-53.5339321668771
 20
2.054660834385501
 30
0.0
 11
-53.50660174968435
 21
2.081991251578252
 31
0.0
  0
LINE
  5
A04
330
1F
100
AcDbEntity
  8
SK2
  6
CONTINUOUS
370
25
 62
7
100
AcDbLine
 10
-53.60464284499575
 20
2.408214224978785
 30
0.0
 11
-53.40053573250636
 21
2.612321337468174
 31
0.0
  0
LINE
  5
A05
330
1F
100
AcDbEntity
  8
SK2
  6
CONTINUOUS
370
25
 62
7
100
AcDbLine
 10
-53.67535352311441
 20
2.761767615572062
 30
0.0
 11
-53.29446971532838
 21
3.142651423358089
 31
0.0
  0
LINE
  5
A06
330
1F
100
AcDbEntity
  8
SK2
  6
CONTINUOUS
370
25
 62
7
100
AcDbLine
 10
-53.74606420123306
 20
3.115321006165338
 30
0.0
 11
-53.1884036981504
 21
3.672981509247997
 31
0.0
  0
LINE
  5
A07
330
1F
100
AcDbEntity
  8
SK2
  6
CONTINUOUS
370
25
 62
7
100
AcDbLine
 10
-53.81677487935171
 20
3.468874396758622
 30
0.0
 11
-53.08233768097242
 21
4.203311595137905
 31
0.0
  0
LINE
  5
A08
330
1F
100
AcDbEntity
  8
SK2
  6
CONTINUOUS
370
25
 62
7
100
AcDbLine
 10
-53.88748555747037
 20
3.822427787351891
 30
0.0
 11
-52.97627166379444
 21
4.733641681027819
 31
0.0
  0
LINE
  5
A09
330
1F
100
AcDbEntity
  8
SK2
  6
CONTINUOUS
370
25
 62
7
100
AcDbLine
 10
-53.95819623558903
 20
4.175981177945168
 30
0.0
 11
-52.87020564661645
 21
5.263971766917734
 31
0.0
  0
LINE
  5
A0A
330
1F
100
AcDbEntity
  8
SK2
  6
CONTINUOUS
370
25
 62
7
100
AcDbLine
 10
-54.02890691370769
 20
4.529534568538438
 30
0.0
 11
-52.76413962943847
 21
5.794301852807649
 31
0.0
  0
LINE
  5
A0B
330
1F
100
AcDbEntity
  8
SK2
  6
CONTINUOUS
370
25
 62
7
100
AcDbLine
 10
-54.09961759182634
 20
4.883087959131721
 30
0.0
 11
-52.65807361226049
 21
6.324631938697564
 31
0.0
  0
LINE
  5
A0C
330
1F
100
AcDbEntity
  8
SK2
  6
CONTINUOUS
370
25
 62
7
100
AcDbLine
 10
-54.170328269945
 20
5.236641349724984
 30
0.0
 11
-52.55200759508249
 21
6.854962024587486
 31
0.0
  0
LINE
  5
A0D
330
1F
100
AcDbEntity
  8
SK2
  6
CONTINUOUS
370
25
 62
7
100
AcDbLine
 10
-54.24103894806365
 20
5.59019474031826
 30
0.0
 11
-52.83123368838191
 21
7.0
 31
0.0
  0
LINE
  5
A0E
330
1F
100
AcDbEntity
  8
SK2
  6
CONTINUOUS
370
25
 62
7
100
AcDbLine
 10
-54.3117496261823
 20
5.943748130911544
 30
0.0
 11
-53.25549775709385
 21
7.0
 31
0.0
  0
LINE
  5
A0F
330
1F
100
AcDbEntity
  8
SK2
  6
CONTINUOUS
370
25
 62
7
100
AcDbLine
 10
-54.38246030430097
 20
6.297301521504806
 30
0.0
 11
-53.67976182580578
 21
7.0
 31
0.0
  0
LINE
  5
A10
330
1F
100
AcDbEntity
  8
SK2
  6
CONTINUOUS
370
25
 62
7
100
AcDbLine
 10
-54.45317098241961
 20
6.650854912098097
 30
0.0
 11
-54.10402589451771
 21
7.0
 31
0.0
  0
LINE
  5
A11
330
1F
100
AcDbEntity
  8
SK2
  6
CONTINUOUS
370
25
 62
7
100
AcDbLine
 10
-53.58899361796552
 20
2.329968089827609
 30
0.0
 11
-53.47900425468966
 21
2.219978726551744
 31
0.0
  0
LINE
  5
A12
330
1F
100
AcDbEntity
  8
SK2
  6
CONTINUOUS
370
25
 62
7
100
AcDbLine
 10
-53.6950596351435
 20
2.860298175717517
 30
0.0
 11
-53.408293576571
 21
2.573532117145021
 31
0.0
  0
LINE
  5
A13
330
1F
100
AcDbEntity
  8
SK2
  6
CONTINUOUS
370
25
 62
7
100
AcDbLine
 10
-53.80112565232149
 20
3.390628261607446
 30
0.0
 11
-53.33758289845234
 21
2.927085507738298
 31
0.0
  0
LINE
  5
A14
330
1F
100
AcDbEntity
  8
SK2
  6
CONTINUOUS
370
25
 62
7
100
AcDbLine
 10
-53.90719166949947
 20
3.920958347497354
 30
0.0
 11
-53.26687222033369
 21
3.280638898331574
 31
0.0
  0
LINE
  5
A15
330
1F
100
AcDbEntity
  8
SK2
  6
CONTINUOUS
370
25
 62
7
100
AcDbLine
 10
-54.01325768667746
 20
4.451288433387269
 30
0.0
 11
-53.19616154221503
 21
3.634192288924851
 31
0.0
  0
LINE
  5
A16
330
1F
100
AcDbEntity
  8
SK2
  6
CONTINUOUS
370
25
 62
7
100
AcDbLine
 10
-54.11932370385544
 20
4.981618519277177
 30
0.0
 11
-53.12545086409637
 21
3.98774567951812
 31
0.0
  0
LINE
  5
A17
330
1F
100
AcDbEntity
  8
SK2
  6
CONTINUOUS
370
25
 62
7
100
AcDbLine
 10
-54.22538972103342
 20
5.511948605167099
 30
0.0
 11
-53.05474018597771
 21
4.34129907011139
 31
0.0
  0
LINE
  5
A18
330
1F
100
AcDbEntity
  8
SK2
  6
CONTINUOUS
370
25
 62
7
100
AcDbLine
 10
-54.3314557382114
 20
6.042278691057007
 30
0.0
 11
-52.98402950785906
 21
4.694852460704666
 31
0.0
  0
LINE
  5
A19
330
1F
100
AcDbEntity
  8
SK2
  6
CONTINUOUS
370
25
 62
7
100
AcDbLine
 10
-54.43752175538938
 20
6.572608776946922
 30
0.0
 11
-52.91331882974041
 21
5.04840585129795
 31
0.0
  0
LINE
  5
A1A
330
1F
100
AcDbEntity
  8
SK2
  6
CONTINUOUS
370
25
 62
7
100
AcDbLine
 10
-54.44064890973053
 20
7.0
 30
0.0
 11
-52.84260815162175
 21
5.40195924189122
 31
0.0
  0
LINE
  5
A1B
330
1F
100
AcDbEntity
  8
SK2
  6
CONTINUOUS
370
25
 62
7
100
AcDbLine
 10
-54.0163848410186
 20
7.0
 30
0.0
 11
-52.7718974735031
 21
5.755512632484496
 31
0.0
  0
LINE
  5
A1C
330
1F
100
AcDbEntity
  8
SK2
  6
CONTINUOUS
370
25
 62
7
100
AcDbLine
 10
-53.59212077230667
 20
7.0
 30
0.0
 11
-52.70118679538444
 21
6.109066023077766
 31
0.0
  0
LINE
  5
A1D
330
1F
100
AcDbEntity
  8
SK2
  6
CONTINUOUS
370
25
 62
7
100
AcDbLine
 10
-53.16785670359473
 20
7.0
 30
0.0
 11
-52.63047611726579
 21
6.462619413671064
 31
0.0
  0
LINE
  5
A1E
330
1F
100
AcDbEntity
  8
SK2
  6
CONTINUOUS
370
25
 62
7
100
AcDbLine
 10
-52.7435926348828
 20
7.0
 30
0.0
 11
-52.55976543914713
 21
6.816172804264326
 31
0.0
  0
TEXT
  5
A1F
330
1F
100
AcDbEntity
  8
SK2
  6
CONTINUOUS
370
25
 62
7
100
AcDbText
 10
-55.023
 20
12.34583333333333
 30
0.0
 40
3.5
  1
4
 50
90.00000000000001
 72
     1
 11
-55.023
 21
13.5125
 31
0.0
100
AcDbText
  0
CIRCLE
  5
A20
330
1F
100
AcDbEntity
  8
SK2
  6
CONTINUOUS
370
25
 62
7
100
AcDbCircle
 10
-56.773
 20
10.1875
 30
0.0
 40
1.4
  0
LINE
  5
A21
330
1F
100
AcDbEntity
  8
SK2
  6
CONTINUOUS
370
25
 62
7
100
AcDbLine
 10
-55.373
 20
8.787500000000001
 30
0.0
 11
-58.17299999999999
 21
11.5875
 31
0.0
  0
LINE
  5
A22
330
1F
100
AcDbEntity
  8
SK2
  6
CONTINUOUS
370
25
 62
7
100
AcDbLine
 10
-41.523
 20
2.0
 30
0.0
 11
-41.523
 21
15.0
 31
0.0
  0
LINE
  5
A23
330
1F
100
AcDbEntity
  8
SK2
  6
CONTINUOUS
370
25
 62
7
100
AcDbLine
 10
-0.0099999999999999
 20
15.0
 30
0.0
 11
-0.0100000000000007
 21
2.0
 31
0.0
  0
LINE
  5
A24
330
1F
100
AcDbEntity
  8
SK2
  6
CONTINUOUS
370
25
 62
7
100
AcDbLine
 10
-41.523
 20
14.0
 30
0.0
 11
-0.01
 21
14.0
 31
0.0
  0
LINE
  5
A25
330
1F
100
AcDbEntity
  8
SK2
  6
CONTINUOUS
370
25
 62
7
100
AcDbLine
 10
-41.523
 20
14.0
 30
0.0
 11
-36.523
 21
15.0
 31
0.0
  0
LINE
  5
A26
330
1F
100
AcDbEntity
  8
SK2
  6
CONTINUOUS
370
25
 62
7
100
AcDbLine
 10
-36.523
 20
15.0
 30
0.0
 11
-36.523
 21
13.0
 31
0.0
  0
LINE
  5
A27
330
1F
100
AcDbEntity
  8
SK2
  6
CONTINUOUS
370
25
 62
7
100
AcDbLine
 10
-36.523
 20
13.0
 30
0.0
 11
-41.523
 21
14.0
 31
0.0
  0
LINE
  5
A28
330
1F
100
AcDbEntity
  8
SK2
  6
CONTINUOUS
370
25
 62
7
100
AcDbLine
 10
-36.62791336607967
 20
13.02098267321594
 30
0.0
 11
-36.523
 21
13.12589603929562
 31
0.0
  0
LINE
  5
A29
330
1F
100
AcDbEntity
  8
SK2
  6
CONTINUOUS
370
25
 62
7
100
AcDbLine
 10
-36.98146675667294
 20
13.0916933513346
 30
0.0
 11
-36.523
 21
13.55016010800755
 31
0.0
  0
LINE
  5
A2A
330
1F
100
AcDbEntity
  8
SK2
  6
CONTINUOUS
370
25
 62
7
100
AcDbLine
 10
-37.33502014726622
 20
13.16240402945325
 30
0.0
 11
-36.523
 21
13.97442417671947
 31
0.0
  0
LINE
  5
A2B
330
1F
100
AcDbEntity
  8
SK2
  6
CONTINUOUS
370
25
 62
7
100
AcDbLine
 10
-37.6885735378595
 20
13.23311470757191
 30
0.0
 11
-36.523
 21
14.39868824543141
 31
0.0
  0
LINE
  5
A2C
330
1F
100
AcDbEntity
  8
SK2
  6
CONTINUOUS
370
25
 62
7
100
AcDbLine
 10
-38.04212692845278
 20
13.30382538569056
 30
0.0
 11
-36.523
 21
14.82295231414334
 31
0.0
  0
LINE
  5
A2D
330
1F
100
AcDbEntity
  8
SK2
  6
CONTINUOUS
370
25
 62
7
100
AcDbLine
 10
-38.39568031904605
 20
13.37453606380922
 30
0.0
 11
-36.83202047856908
 21
14.93819590428618
 31
0.0
  0
LINE
  5
A2E
330
1F
100
AcDbEntity
  8
SK2
  6
CONTINUOUS
370
25
 62
7
100
AcDbLine
 10
-38.74923370963933
 20
13.44524674192787
 30
0.0
 11
-37.362350564459
 21
14.8321298871082
 31
0.0
  0
LINE
  5
A2F
330
1F
100
AcDbEntity
  8
SK2
  6
CONTINUOUS
370
25
 62
7
100
AcDbLine
 10
-39.1027871002326
 20
13.51595742004653
 30
0.0
 11
-37.89268065034891
 21
14.72606386993021
 31
0.0
  0
LINE
  5
A30
330
1F
100
AcDbEntity
  8
SK2
  6
CONTINUOUS
370
25
 62
7
100
AcDbLine
 10
-39.45634049082588
 20
13.58666809816518
 30
0.0
 11
-38.42301073623884
 21
14.61999785275223
 31
0.0
  0
LINE
  5
A31
330
1F
100
AcDbEntity
  8
SK2
  6
CONTINUOUS
370
25
 62
7
100
AcDbLine
 10
-39.80989388141916
 20
13.65737877628384
 30
0.0
 11
-38.95334082212874
 21
14.51393183557425
 31
0.0
  0
LINE
  5
A32
330
1F
100
AcDbEntity
  8
SK2
  6
CONTINUOUS
370
25
 62
7
100
AcDbLine
 10
-40.16344727201243
 20
13.72808945440249
 30
0.0
 11
-39.48367090801865
 21
14.40786581839627
 31
0.0
  0
LINE
  5
A33
330
1F
100
AcDbEntity
  8
SK2
  6
CONTINUOUS
370
25
 62
7
100
AcDbLine
 10
-40.51700066260571
 20
13.79880013252114
 30
0.0
 11
-40.01400099390857
 21
14.30179980121828
 31
0.0
  0
LINE
  5
A34
330
1F
100
AcDbEntity
  8
SK2
  6
CONTINUOUS
370
25
 62
7
100
AcDbLine
 10
-40.87055405319899
 20
13.8695108106398
 30
0.0
 11
-40.54433107979849
 21
14.1957337840403
 31
0.0
  0
LINE
  5
A35
330
1F
100
AcDbEntity
  8
SK2
  6
CONTINUOUS
370
25
 62
7
100
AcDbLine
 10
-41.22410744379226
 20
13.94022148875846
 30
0.0
 11
-41.0746611656884
 21
14.08966776686231
 31
0.0
  0
LINE
  5
A36
330
1F
100
AcDbEntity
  8
SK2
  6
CONTINUOUS
370
25
 62
7
100
AcDbLine
 10
-41.45556453726483
 20
14.01348709254703
 30
0.0
 11
-41.42184680589725
 21
13.97976936117945
 31
0.0
  0
LINE
  5
A37
330
1F
100
AcDbEntity
  8
SK2
  6
CONTINUOUS
370
25
 62
7
100
AcDbLine
 10
-41.10201114667156
 20
14.08419777066569
 30
0.0
 11
-40.89151672000734
 21
13.87370334400147
 31
0.0
  0
LINE
  5
A38
330
1F
100
AcDbEntity
  8
SK2
  6
CONTINUOUS
370
25
 62
7
100
AcDbLine
 10
-40.74845775607828
 20
14.15490844878434
 30
0.0
 11
-40.36118663411742
 21
13.76763732682348
 31
0.0
  0
LINE
  5
A39
330
1F
100
AcDbEntity
  8
SK2
  6
CONTINUOUS
370
25
 62
7
100
AcDbLine
 10
-40.394904365485
 20
14.22561912690299
 30
0.0
 11
-39.83085654822751
 21
13.6615713096455
 31
0.0
  0
LINE
  5
A3A
330
1F
100
AcDbEntity
  8
SK2
  6
CONTINUOUS
370
25
 62
7
100
AcDbLine
 10
-40.04135097489173
 20
14.29632980502165
 30
0.0
 11
-39.30052646233759
 21
13.55550529246752
 31
0.0
  0
LINE
  5
A3B
330
1F
100
AcDbEntity
  8
SK2
  6
CONTINUOUS
370
25
 62
7
100
AcDbLine
 10
-39.68779758429846
 20
14.36704048314031
 30
0.0
 11
-38.77019637644768
 21
13.44943927528954
 31
0.0
  0
LINE
  5
A3C
330
1F
100
AcDbEntity
  8
SK2
  6
CONTINUOUS
370
25
 62
7
100
AcDbLine
 10
-39.33424419370517
 20
14.43775116125896
 30
0.0
 11
-38.23986629055776
 21
13.34337325811155
 31
0.0
  0
LINE
  5
A3D
330
1F
100
AcDbEntity
  8
SK2
  6
CONTINUOUS
370
25
 62
7
100
AcDbLine
 10
-38.98069080311191
 20
14.50846183937762
 30
0.0
 11
-37.70953620466786
 21
13.23730724093357
 31
0.0
  0
LINE
  5
A3E
330
1F
100
AcDbEntity
  8
SK2
  6
CONTINUOUS
370
25
 62
7
100
AcDbLine
 10
-38.62713741251863
 20
14.57917251749627
 30
0.0
 11
-37.17920611877794
 21
13.13124122375559
 31
0.0
  0
LINE
  5
A3F
330
1F
100
AcDbEntity
  8
SK2
  6
CONTINUOUS
370
25
 62
7
100
AcDbLine
 10
-38.27358402192535
 20
14.64988319561493
 30
0.0
 11
-36.64887603288803
 21
13.0251752065776
 31
0.0
  0
LINE
  5
A40
330
1F
100
AcDbEntity
  8
SK2
  6
CONTINUOUS
370
25
 62
7
100
AcDbLine
 10
-37.92003063133208
 20
14.72059387373358
 30
0.0
 11
-36.523
 21
13.32356324240151
 31
0.0
  0
LINE
  5
A41
330
1F
100
AcDbEntity
  8
SK2
  6
CONTINUOUS
370
25
 62
7
100
AcDbLine
 10
-37.56647724073881
 20
14.79130455185225
 30
0.0
 11
-36.523
 21
13.74782731111344
 31
0.0
  0
LINE
  5
A42
330
1F
100
AcDbEntity
  8
SK2
  6
CONTINUOUS
370
25
 62
7
100
AcDbLine
 10
-37.21292385014552
 20
14.86201522997089
 30
0.0
 11
-36.523
 21
14.17209137982537
 31
0.0
  0
LINE
  5
A43
330
1F
100
AcDbEntity
  8
SK2
  6
CONTINUOUS
370
25
 62
7
100
AcDbLine
 10
-36.85937045955225
 20
14.93272590808955
 30
0.0
 11
-36.523
 21
14.5963554485373
 31
0.0
  0
LINE
  5
A44
330
1F
100
AcDbEntity
  8
SK2
  6
CONTINUOUS
370
25
 62
7
100
AcDbLine
 10
-0.01
 20
14.0
 30
0.0
 11
-5.01
 21
13.0
 31
0.0
  0
LINE
  5
A45
330
1F
100
AcDbEntity
  8
SK2
  6
CONTINUOUS
370
25
 62
7
100
AcDbLine
 10
-5.01
 20
13.0
 30
0.0
 11
-5.01
 21
15.0
 31
0.0
  0
LINE
  5
A46
330
1F
100
AcDbEntity
  8
SK2
  6
CONTINUOUS
370
25
 62
7
100
AcDbLine
 10
-5.01
 20
15.0
 30
0.0
 11
-0.01
 21
14.0
 31
0.0
  0
LINE
  5
A47
330
1F
100
AcDbEntity
  8
SK2
  6
CONTINUOUS
370
25
 62
7
100
AcDbLine
 10
-0.01089283436705
 20
13.99982143312659
 30
0.0
 11
-0.0105952229113667
 21
14.00011904458227
 31
0.0
  0
LINE
  5
A48
330
1F
100
AcDbEntity
  8
SK2
  6
CONTINUOUS
370
25
 62
7
100
AcDbLine
 10
-0.5412229202569596
 20
13.89375541594861
 30
0.0
 11
-0.3641486135046398
 21
14.07082972270093
 31
0.0
  0
LINE
  5
A49
330
1F
100
AcDbEntity
  8
SK2
  6
CONTINUOUS
370
25
 62
7
100
AcDbLine
 10
-1.071553006146869
 20
13.78768939877063
 30
0.0
 11
-0.7177020040979128
 21
14.14154040081958
 31
0.0
  0
LINE
  5
A4A
330
1F
100
AcDbEntity
  8
SK2
  6
CONTINUOUS
370
25
 62
7
100
AcDbLine
 10
-1.601883092036781
 20
13.68162338159264
 30
0.0
 11
-1.071255394691187
 21
14.21225107893824
 31
0.0
  0
LINE
  5
A4B
330
1F
100
AcDbEntity
  8
SK2
  6
CONTINUOUS
370
25
 62
7
100
AcDbLine
 10
-2.13221317792669
 20
13.57555736441466
 30
0.0
 11
-1.42480878528446
 21
14.28296175705689
 31
0.0
  0
LINE
  5
A4C
330
1F
100
AcDbEntity
  8
SK2
  6
CONTINUOUS
370
25
 62
7
100
AcDbLine
 10
-2.662543263816599
 20
13.46949134723668
 30
0.0
 11
-1.778362175877733
 21
14.35367243517555
 31
0.0
  0
LINE
  5
A4D
330
1F
100
AcDbEntity
  8
SK2
  6
CONTINUOUS
370
25
 62
7
100
AcDbLine
 10
-3.192873349706508
 20
13.3634253300587
 30
0.0
 11
-2.131915566471005
 21
14.4243831132942
 31
0.0
  0
LINE
  5
A4E
330
1F
100
AcDbEntity
  8
SK2
  6
CONTINUOUS
370
25
 62
7
100
AcDbLine
 10
-3.723203435596417
 20
13.25735931288072
 30
0.0
 11
-2.485468957064279
 21
14.49509379141286
 31
0.0
  0
LINE
  5
A4F
330
1F
100
AcDbEntity
  8
SK2
  6
CONTINUOUS
370
25
 62
7
100
AcDbLine
 10
-4.253533521486326
 20
13.15129329570274
 30
0.0
 11
-2.839022347657552
 21
14.56580446953151
 31
0.0
  0
LINE
  5
A50
330
1F
100
AcDbEntity
  8
SK2
  6
CONTINUOUS
370
25
 62
7
100
AcDbLine
 10
-4.783863607376236
 20
13.04522727852475
 30
0.0
 11
-3.192575738250825
 21
14.63651514765017
 31
0.0
  0
LINE
  5
A51
330
1F
100
AcDbEntity
  8
SK2
  6
CONTINUOUS
370
25
 62
7
100
AcDbLine
 10
-5.01
 20
13.24335495461292
 30
0.0
 11
-3.546129128844097
 21
14.70722582576882
 31
0.0
  0
LINE
  5
A52
330
1F
100
AcDbEntity
  8
SK2
  6
CONTINUOUS
370
25
 62
7
100
AcDbLine
 10
-5.01
 20
13.66761902332485
 30
0.0
 11
-3.899682519437373
 21
14.77793650388747
 31
0.0
  0
LINE
  5
A53
330
1F
100
AcDbEntity
  8
SK2
  6
CONTINUOUS
370
25
 62
7
100
AcDbLine
 10
-5.01
 20
14.09188309203677
 30
0.0
 11
-4.253235910030646
 21
14.84864718200613
 31
0.0
  0
LINE
  5
A54
330
1F
100
AcDbEntity
  8
SK2
  6
CONTINUOUS
370
25
 62
7
100
AcDbLine
 10
-5.01
 20
14.5161471607487
 30
0.0
 11
-4.606789300623919
 21
14.91935786012478
 31
0.0
  0
LINE
  5
A55
330
1F
100
AcDbEntity
  8
SK2
  6
CONTINUOUS
370
25
 62
7
100
AcDbLine
 10
-5.01
 20
14.94041122946063
 30
0.0
 11
-4.960342691217191
 21
14.99006853824344
 31
0.0
  0
LINE
  5
A56
330
1F
100
AcDbEntity
  8
SK2
  6
CONTINUOUS
370
25
 62
7
100
AcDbLine
 10
-5.01
 20
13.06101730552664
 30
0.0
 11
-4.959152245394465
 21
13.01016955092111
 31
0.0
  0
LINE
  5
A57
330
1F
100
AcDbEntity
  8
SK2
  6
CONTINUOUS
370
25
 62
7
100
AcDbLine
 10
-5.01
 20
13.48528137423857
 30
0.0
 11
-4.60559885480119
 21
13.08088022903976
 31
0.0
  0
LINE
  5
A58
330
1F
100
AcDbEntity
  8
SK2
  6
CONTINUOUS
370
25
 62
7
100
AcDbLine
 10
-5.01
 20
13.9095454429505
 30
0.0
 11
-4.252045464207918
 21
13.15159090715842
 31
0.0
  0
LINE
  5
A59
330
1F
100
AcDbEntity
  8
SK2
  6
CONTINUOUS
370
25
 62
7
100
AcDbLine
 10
-5.01
 20
14.33380951166242
 30
0.0
 11
-3.898492073614645
 21
13.22230158527707
 31
0.0
  0
LINE
  5
A5A
330
1F
100
AcDbEntity
  8
SK2
  6
CONTINUOUS
370
25
 62
7
100
AcDbLine
 10
-5.01
 20
14.75807358037435
 30
0.0
 11
-3.544938683021372
 21
13.29301226339573
 31
0.0
  0
LINE
  5
A5B
330
1F
100
AcDbEntity
  8
SK2
  6
CONTINUOUS
370
25
 62
7
100
AcDbLine
 10
-4.78207793864215
 20
14.95441558772843
 30
0.0
 11
-3.191385292428098
 21
13.36372294151438
 31
0.0
  0
LINE
  5
A5C
330
1F
100
AcDbEntity
  8
SK2
  6
CONTINUOUS
370
25
 62
7
100
AcDbLine
 10
-4.251747852752241
 20
14.84834957055045
 30
0.0
 11
-2.837831901834826
 21
13.43443361963303
 31
0.0
  0
LINE
  5
A5D
330
1F
100
AcDbEntity
  8
SK2
  6
CONTINUOUS
370
25
 62
7
100
AcDbLine
 10
-3.721417766862331
 20
14.74228355337247
 30
0.0
 11
-2.484278511241552
 21
13.50514429775169
 31
0.0
  0
LINE
  5
A5E
330
1F
100
AcDbEntity
  8
SK2
  6
CONTINUOUS
370
25
 62
7
100
AcDbLine
 10
-3.19108768097242
 20
14.63621753619448
 30
0.0
 11
-2.130725120648279
 21
13.57585497587034
 31
0.0
  0
LINE
  5
A5F
330
1F
100
AcDbEntity
  8
SK2
  6
CONTINUOUS
370
25
 62
7
100
AcDbLine
 10
-2.660757595082508
 20
14.5301515190165
 30
0.0
 11
-1.777171730055004
 21
13.646565653989
 31
0.0
  0
LINE
  5
A60
330
1F
100
AcDbEntity
  8
SK2
  6
CONTINUOUS
370
25
 62
7
100
AcDbLine
 10
-2.130427509192599
 20
14.42408550183852
 30
0.0
 11
-1.423618339461732
 21
13.71727633210765
 31
0.0
  0
LINE
  5
A61
330
1F
100
AcDbEntity
  8
SK2
  6
CONTINUOUS
370
25
 62
7
100
AcDbLine
 10
-1.600097423302689
 20
14.31801948466054
 30
0.0
 11
-1.070064948868459
 21
13.78798701022631
 31
0.0
  0
LINE
  5
A62
330
1F
100
AcDbEntity
  8
SK2
  6
CONTINUOUS
370
25
 62
7
100
AcDbLine
 10
-1.069767337412779
 20
14.21195346748256
 30
0.0
 11
-0.716511558275185
 21
13.85869768834496
 31
0.0
  0
LINE
  5
A63
330
1F
100
AcDbEntity
  8
SK2
  6
CONTINUOUS
370
25
 62
7
100
AcDbLine
 10
-0.5394372515228676
 20
14.10588745030457
 30
0.0
 11
-0.3629581676819114
 21
13.92940836646362
 31
0.0
  0
TEXT
  5
A64
330
1F
100
AcDbEntity
  8
SK2
  6
CONTINUOUS
370
25
 62
7
100
AcDbText
 10
-28.34983333333334
 20
15.5
 30
0.0
 40
3.5
  1
41.513
 72
     1
 11
-20.7665
 21
15.5
 31
0.0
100
AcDbText
  0
LINE
  5
A65
330
1F
100
AcDbEntity
  8
2
  6
CONTINUOUS
370
25
 62
7
100
AcDbLine
 10
8.457
 20
-0.15
 30
0.0
 11
41.352
 21
-0.150000000000004
 31
0.0
  0
LINE
  5
A66
330
1F
100
AcDbEntity
  8
2
  6
CONTINUOUS
370
25
 62
7
100
AcDbLine
 10
41.352
 20
0.149999999999996
 30
0.0
 11
8.456999999999999
 21
0.15
 31
0.0
  0
LINE
  5
A67
330
1F
100
AcDbEntity
  8
2
  6
CONTINUOUS
370
25
 62
7
100
AcDbLine
 10
40.352
 20
-7.150000000000004
 30
0.0
 11
40.352
 21
19.575
 31
0.0
  0
LINE
  5
A68
330
1F
100
AcDbEntity
  8
2
  6
CONTINUOUS
370
25
 62
7
100
AcDbLine
 10
40.352
 20
-0.1500000000000039
 30
0.0
 11
41.352
 21
-5.150000000000004
 31
0.0
  0
LINE
  5
A69
330
1F
100
AcDbEntity
  8
2
  6
CONTINUOUS
370
25
 62
7
100
AcDbLine
 10
41.352
 20
-5.150000000000004
 30
0.0
 11
39.352
 21
-5.150000000000004
 31
0.0
  0
LINE
  5
A6A
330
1F
100
AcDbEntity
  8
2
  6
CONTINUOUS
370
25
 62
7
100
AcDbLine
 10
39.352
 20
-5.150000000000004
 30
0.0
 11
40.352
 21
-0.1500000000000039
 31
0.0
  0
LINE
  5
A6B
330
1F
100
AcDbEntity
  8
2
  6
CONTINUOUS
370
25
 62
7
100
AcDbLine
 10
41.29951469624071
 20
-5.150000000000006
 30
0.0
 11
41.34325244937345
 21
-5.10626224686726
 31
0.0
  0
LINE
  5
A6C
330
1F
100
AcDbEntity
  8
2
  6
CONTINUOUS
370
25
 62
7
100
AcDbLine
 10
40.87525062752877
 20
-5.150000000000006
 30
0.0
 11
41.27254177125479
 21
-4.752708856273983
 31
0.0
  0
LINE
  5
A6D
330
1F
100
AcDbEntity
  8
2
  6
CONTINUOUS
370
25
 62
7
100
AcDbLine
 10
40.45098655881684
 20
-5.150000000000006
 30
0.0
 11
41.20183109313614
 21
-4.3991554656807
 31
0.0
  0
LINE
  5
A6E
330
1F
100
AcDbEntity
  8
2
  6
CONTINUOUS
370
25
 62
7
100
AcDbLine
 10
40.0267224901049
 20
-5.150000000000006
 30
0.0
 11
41.13112041501749
 21
-4.045602075087416
 31
0.0
  0
LINE
  5
A6F
330
1F
100
AcDbEntity
  8
2
  6
CONTINUOUS
370
25
 62
7
100
AcDbLine
 10
39.60245842139298
 20
-5.150000000000006
 30
0.0
 11
41.06040973689883
 21
-3.692048684494146
 31
0.0
  0
LINE
  5
A70
330
1F
100
AcDbEntity
  8
2
  6
CONTINUOUS
370
25
 62
7
100
AcDbLine
 10
39.39545141182975
 20
-4.932742940851305
 30
0.0
 11
40.98969905878018
 21
-3.33849529390087
 31
0.0
  0
LINE
  5
A71
330
1F
100
AcDbEntity
  8
2
  6
CONTINUOUS
370
25
 62
7
100
AcDbLine
 10
39.50151742900773
 20
-4.402412854961391
 30
0.0
 11
40.91898838066152
 21
-2.9849419033076
 31
0.0
  0
LINE
  5
A72
330
1F
100
AcDbEntity
  8
2
  6
CONTINUOUS
370
25
 62
7
100
AcDbLine
 10
39.60758344618571
 20
-3.872082769071476
 30
0.0
 11
40.84827770254287
 21
-2.631388512714317
 31
0.0
  0
LINE
  5
A73
330
1F
100
AcDbEntity
  8
2
  6
CONTINUOUS
370
25
 62
7
100
AcDbLine
 10
39.71364946336369
 20
-3.341752683181561
 30
0.0
 11
40.77756702442421
 21
-2.277835122121047
 31
0.0
  0
LINE
  5
A74
330
1F
100
AcDbEntity
  8
2
  6
CONTINUOUS
370
25
 62
7
100
AcDbLine
 10
39.81971548054167
 20
-2.811422597291646
 30
0.0
 11
40.70685634630555
 21
-1.92428173152777
 31
0.0
  0
LINE
  5
A75
330
1F
100
AcDbEntity
  8
2
  6
CONTINUOUS
370
25
 62
7
100
AcDbLine
 10
39.92578149771965
 20
-2.281092511401738
 30
0.0
 11
40.6361456681869
 21
-1.570728340934494
 31
0.0
  0
LINE
  5
A76
330
1F
100
AcDbEntity
  8
2
  6
CONTINUOUS
370
25
 62
7
100
AcDbLine
 10
40.03184751489764
 20
-1.750762425511816
 30
0.0
 11
40.56543499006824
 21
-1.217174950341217
 31
0.0
  0
LINE
  5
A77
330
1F
100
AcDbEntity
  8
2
  6
CONTINUOUS
370
25
 62
7
100
AcDbLine
 10
40.13791353207562
 20
-1.220432339621908
 30
0.0
 11
40.49472431194959
 21
-0.8636215597479406
 31
0.0
  0
LINE
  5
A78
330
1F
100
AcDbEntity
  8
2
  6
CONTINUOUS
370
25
 62
7
100
AcDbLine
 10
40.24397954925361
 20
-0.6901022537319861
 30
0.0
 11
40.42401363383093
 21
-0.510068169154664
 31
0.0
  0
LINE
  5
A79
330
1F
100
AcDbEntity
  8
2
  6
CONTINUOUS
370
25
 62
7
100
AcDbLine
 10
40.35004556643159
 20
-0.1597721678420783
 30
0.0
 11
40.35330295571227
 21
-0.1565147785613945
 31
0.0
  0
LINE
  5
A7A
330
1F
100
AcDbEntity
  8
2
  6
CONTINUOUS
370
25
 62
7
100
AcDbLine
 10
39.37756492761103
 20
-5.022175361944832
 30
0.0
 11
39.50538956566621
 21
-5.150000000000006
 31
0.0
  0
LINE
  5
A7B
330
1F
100
AcDbEntity
  8
2
  6
CONTINUOUS
370
25
 62
7
100
AcDbLine
 10
39.44827560572969
 20
-4.668621971351563
 30
0.0
 11
39.92965363437813
 21
-5.150000000000006
 31
0.0
  0
LINE
  5
A7C
330
1F
100
AcDbEntity
  8
2
  6
CONTINUOUS
370
25
 62
7
100
AcDbLine
 10
39.51898628384834
 20
-4.315068580758279
 30
0.0
 11
40.35391770309007
 21
-5.150000000000006
 31
0.0
  0
LINE
  5
A7D
330
1F
100
AcDbEntity
  8
2
  6
CONTINUOUS
370
25
 62
7
100
AcDbLine
 10
39.589696961967
 20
-3.961515190165009
 30
0.0
 11
40.778181771802
 21
-5.150000000000006
 31
0.0
  0
LINE
  5
A7E
330
1F
100
AcDbEntity
  8
2
  6
CONTINUOUS
370
25
 62
7
100
AcDbLine
 10
39.66040764008566
 20
-3.60796179957174
 30
0.0
 11
41.20244584051393
 21
-5.150000000000006
 31
0.0
  0
LINE
  5
A7F
330
1F
100
AcDbEntity
  8
2
  6
CONTINUOUS
370
25
 62
7
100
AcDbLine
 10
39.73111831820431
 20
-3.254408408978456
 30
0.0
 11
41.28332252269354
 21
-4.806612613467685
 31
0.0
  0
LINE
  5
A80
330
1F
100
AcDbEntity
  8
2
  6
CONTINUOUS
370
25
 62
7
100
AcDbLine
 10
39.80182899632297
 20
-2.90085501838518
 30
0.0
 11
41.17725650551556
 21
-4.27628252757777
 31
0.0
  0
LINE
  5
A81
330
1F
100
AcDbEntity
  8
2
  6
CONTINUOUS
370
25
 62
7
100
AcDbLine
 10
39.87253967444162
 20
-2.547301627791896
 30
0.0
 11
41.07119048833758
 21
-3.745952441687855
 31
0.0
  0
LINE
  5
A82
330
1F
100
AcDbEntity
  8
2
  6
CONTINUOUS
370
25
 62
7
100
AcDbLine
 10
39.94325035256028
 20
-2.193748237198626
 30
0.0
 11
40.96512447115959
 21
-3.21562235579794
 31
0.0
  0
LINE
  5
A83
330
1F
100
AcDbEntity
  8
2
  6
CONTINUOUS
370
25
 62
7
100
AcDbLine
 10
40.01396103067894
 20
-1.840194846605357
 30
0.0
 11
40.85905845398161
 21
-2.685292269908032
 31
0.0
  0
LINE
  5
A84
330
1F
100
AcDbEntity
  8
2
  6
CONTINUOUS
370
25
 62
7
100
AcDbLine
 10
40.08467170879759
 20
-1.48664145601208
 30
0.0
 11
40.75299243680363
 21
-2.154962184018125
 31
0.0
  0
LINE
  5
A85
330
1F
100
AcDbEntity
  8
2
  6
CONTINUOUS
370
25
 62
7
100
AcDbLine
 10
40.15538238691624
 20
-1.133088065418804
 30
0.0
 11
40.64692641962564
 21
-1.624632098128203
 31
0.0
  0
LINE
  5
A86
330
1F
100
AcDbEntity
  8
2
  6
CONTINUOUS
370
25
 62
7
100
AcDbLine
 10
40.2260930650349
 20
-0.779534674825527
 30
0.0
 11
40.54086040244766
 21
-1.094302012238295
 31
0.0
  0
LINE
  5
A87
330
1F
100
AcDbEntity
  8
2
  6
CONTINUOUS
370
25
 62
7
100
AcDbLine
 10
40.29680374315355
 20
-0.4259812842322504
 30
0.0
 11
40.43479438526968
 21
-0.5639719263483798
 31
0.0
  0
LINE
  5
A88
330
1F
100
AcDbEntity
  8
2
  6
CONTINUOUS
370
25
 62
7
100
AcDbLine
 10
40.352
 20
0.1499999999999961
 30
0.0
 11
39.352
 21
5.149999999999996
 31
0.0
  0
LINE
  5
A89
330
1F
100
AcDbEntity
  8
2
  6
CONTINUOUS
370
25
 62
7
100
AcDbLine
 10
39.352
 20
5.149999999999996
 30
0.0
 11
41.352
 21
5.149999999999996
 31
0.0
  0
LINE
  5
A8A
330
1F
100
AcDbEntity
  8
2
  6
CONTINUOUS
370
25
 62
7
100
AcDbLine
 10
41.352
 20
5.149999999999996
 30
0.0
 11
40.352
 21
0.1499999999999961
 31
0.0
  0
LINE
  5
A8B
330
1F
100
AcDbEntity
  8
2
  6
CONTINUOUS
370
25
 62
7
100
AcDbLine
 10
40.33369256389334
 20
0.241537180533328
 30
0.0
 11
40.37946115416
 21
0.2873057707999891
 31
0.0
  0
LINE
  5
A8C
330
1F
100
AcDbEntity
  8
2
  6
CONTINUOUS
370
25
 62
7
100
AcDbLine
 10
40.26298188577468
 20
0.5950905711265975
 30
0.0
 11
40.48552717133798
 21
0.817635856689904
 31
0.0
  0
LINE
  5
A8D
330
1F
100
AcDbEntity
  8
2
  6
CONTINUOUS
370
25
 62
7
100
AcDbLine
 10
40.19227120765603
 20
0.9486439617198812
 30
0.0
 11
40.59159318851597
 21
1.347965942579819
 31
0.0
  0
LINE
  5
A8E
330
1F
100
AcDbEntity
  8
2
  6
CONTINUOUS
370
25
 62
7
100
AcDbLine
 10
40.12156052953737
 20
1.302197352313158
 30
0.0
 11
40.69765920569395
 21
1.878296028469741
 31
0.0
  0
LINE
  5
A8F
330
1F
100
AcDbEntity
  8
2
  6
CONTINUOUS
370
25
 62
7
100
AcDbLine
 10
40.05084985141872
 20
1.655750742906434
 30
0.0
 11
40.80372522287193
 21
2.408626114359649
 31
0.0
  0
LINE
  5
A90
330
1F
100
AcDbEntity
  8
2
  6
CONTINUOUS
370
25
 62
7
100
AcDbLine
 10
39.98013917330006
 20
2.009304133499711
 30
0.0
 11
40.90979124004992
 21
2.938956200249571
 31
0.0
  0
LINE
  5
A91
330
1F
100
AcDbEntity
  8
2
  6
CONTINUOUS
370
25
 62
7
100
AcDbLine
 10
39.9094284951814
 20
2.362857524092981
 30
0.0
 11
41.0158572572279
 21
3.469286286139479
 31
0.0
  0
LINE
  5
A92
330
1F
100
AcDbEntity
  8
2
  6
CONTINUOUS
370
25
 62
7
100
AcDbLine
 10
39.83871781706275
 20
2.716410914686264
 30
0.0
 11
41.12192327440588
 21
3.999616372029394
 31
0.0
  0
LINE
  5
A93
330
1F
100
AcDbEntity
  8
2
  6
CONTINUOUS
370
25
 62
7
100
AcDbLine
 10
39.76800713894409
 20
3.069964305279534
 30
0.0
 11
41.22798929158387
 21
4.529946457919309
 31
0.0
  0
LINE
  5
A94
330
1F
100
AcDbEntity
  8
2
  6
CONTINUOUS
370
25
 62
7
100
AcDbLine
 10
39.69729646082544
 20
3.423517695872818
 30
0.0
 11
41.33405530876185
 21
5.060276543809223
 31
0.0
  0
LINE
  5
A95
330
1F
100
AcDbEntity
  8
2
  6
CONTINUOUS
370
25
 62
7
100
AcDbLine
 10
39.62658578270678
 20
3.777071086466094
 30
0.0
 11
40.99951469624069
 21
5.149999999999999
 31
0.0
  0
LINE
  5
A96
330
1F
100
AcDbEntity
  8
2
  6
CONTINUOUS
370
25
 62
7
100
AcDbLine
 10
39.55587510458813
 20
4.130624477059371
 30
0.0
 11
40.57525062752876
 21
5.149999999999999
 31
0.0
  0
LINE
  5
A97
330
1F
100
AcDbEntity
  8
2
  6
CONTINUOUS
370
25
 62
7
100
AcDbLine
 10
39.48516442646947
 20
4.484177867652647
 30
0.0
 11
40.15098655881683
 21
5.149999999999999
 31
0.0
  0
LINE
  5
A98
330
1F
100
AcDbEntity
  8
2
  6
CONTINUOUS
370
25
 62
7
100
AcDbLine
 10
39.41445374835082
 20
4.837731258245924
 30
0.0
 11
39.7267224901049
 21
5.149999999999999
 31
0.0
  0
LINE
  5
A99
330
1F
100
AcDbEntity
  8
2
  6
CONTINUOUS
370
25
 62
7
100
AcDbLine
 10
40.29766235091373
 20
0.4216882454314188
 30
0.0
 11
40.38822509939086
 21
0.3311254969542858
 31
0.0
  0
LINE
  5
A9A
330
1F
100
AcDbEntity
  8
2
  6
CONTINUOUS
370
25
 62
7
100
AcDbLine
 10
40.19159633373574
 20
0.9520183313213266
 30
0.0
 11
40.45893577750952
 21
0.6846788875475482
 31
0.0
  0
LINE
  5
A9B
330
1F
100
AcDbEntity
  8
2
  6
CONTINUOUS
370
25
 62
7
100
AcDbLine
 10
40.08553031655775
 20
1.482348417211249
 30
0.0
 11
40.52964645562817
 21
1.038232278140825
 31
0.0
  0
LINE
  5
A9C
330
1F
100
AcDbEntity
  8
2
  6
CONTINUOUS
370
25
 62
7
100
AcDbLine
 10
39.97946429937977
 20
2.012678503101164
 30
0.0
 11
40.60035713374683
 21
1.391785668734109
 31
0.0
  0
LINE
  5
A9D
330
1F
100
AcDbEntity
  8
2
  6
CONTINUOUS
370
25
 62
7
100
AcDbLine
 10
39.87339828220179
 20
2.543008588991071
 30
0.0
 11
40.67106781186548
 21
1.745339059327385
 31
0.0
  0
LINE
  5
A9E
330
1F
100
AcDbEntity
  8
2
  6
CONTINUOUS
370
25
 62
7
100
AcDbLine
 10
39.7673322650238
 20
3.073338674880993
 30
0.0
 11
40.74177848998414
 21
2.098892449920662
 31
0.0
  0
LINE
  5
A9F
330
1F
100
AcDbEntity
  8
2
  6
CONTINUOUS
370
25
 62
7
100
AcDbLine
 10
39.66126624784582
 20
3.603668760770915
 30
0.0
 11
40.81248916810279
 21
2.452445840513938
 31
0.0
  0
LINE
  5
AA0
330
1F
100
AcDbEntity
  8
2
  6
CONTINUOUS
370
25
 62
7
100
AcDbLine
 10
39.55520023066784
 20
4.133998846660823
 30
0.0
 11
40.88319984622145
 21
2.805999231107208
 31
0.0
  0
LINE
  5
AA1
330
1F
100
AcDbEntity
  8
2
  6
CONTINUOUS
370
25
 62
7
100
AcDbLine
 10
39.44913421348986
 20
4.664328932550738
 30
0.0
 11
40.9539105243401
 21
3.159552621700492
 31
0.0
  0
LINE
  5
AA2
330
1F
100
AcDbEntity
  8
2
  6
CONTINUOUS
370
25
 62
7
100
AcDbLine
 10
39.38772721475253
 20
5.149999999999999
 30
0.0
 11
41.02462120245875
 21
3.513106012293775
 31
0.0
  0
LINE
  5
AA3
330
1F
100
AcDbEntity
  8
2
  6
CONTINUOUS
370
25
 62
7
100
AcDbLine
 10
39.81199128346446
 20
5.149999999999999
 30
0.0
 11
41.09533188057741
 21
3.866659402887045
 31
0.0
  0
LINE
  5
AA4
330
1F
100
AcDbEntity
  8
2
  6
CONTINUOUS
370
25
 62
7
100
AcDbLine
 10
40.23625535217639
 20
5.149999999999999
 30
0.0
 11
41.16604255869607
 21
4.220212793480322
 31
0.0
  0
LINE
  5
AA5
330
1F
100
AcDbEntity
  8
2
  6
CONTINUOUS
370
25
 62
7
100
AcDbLine
 10
40.66051942088832
 20
5.149999999999999
 30
0.0
 11
41.23675323681473
 21
4.573766184073591
 31
0.0
  0
LINE
  5
AA6
330
1F
100
AcDbEntity
  8
2
  6
CONTINUOUS
370
25
 62
7
100
AcDbLine
 10
41.08478348960026
 20
5.149999999999999
 30
0.0
 11
41.30746391493338
 21
4.927319574666882
 31
0.0
  0
TEXT
  5
AA7
330
1F
100
AcDbEntity
  8
2
  6
CONTINUOUS
370
25
 62
7
100
AcDbText
 10
38.852
 20
11.42916666666666
 30
0.0
 40
3.5
  1
0.3
 50
90.00000000000001
 72
     1
 11
38.852
 21
14.6375
 31
0.0
100
AcDbText
  0
CIRCLE
  5
AA8
330
1F
100
AcDbEntity
  8
2
  6
CONTINUOUS
370
25
 62
7
100
AcDbCircle
 10
37.102
 20
8.162499999999994
 30
0.0
 40
1.4
  0
LINE
  5
AA9
330
1F
100
AcDbEntity
  8
2
  6
CONTINUOUS
370
25
 62
7
100
AcDbLine
 10
38.502
 20
6.762499999999995
 30
0.0
 11
35.70200000000001
 21
9.562499999999995
 31
0.0
  0
LINE
  5
AAA
330
1F
100
AcDbEntity
  8
2
  6
CONTINUOUS
370
25
 62
7
100
AcDbLine
 10
8.297
 20
-0.13995
 30
0.0
 11
5.297000000000001
 21
-0.1399499999999996
 31
0.0
  0
LINE
  5
AAB
330
1F
100
AcDbEntity
  8
2
  6
CONTINUOUS
370
25
 62
7
100
AcDbLine
 10
5.297000000000001
 20
0.1399500000000004
 30
0.0
 11
8.297
 21
0.13995
 31
0.0
  0
LINE
  5
AAC
330
1F
100
AcDbEntity
  8
2
  6
CONTINUOUS
370
25
 62
7
100
AcDbLine
 10
6.297000000000001
 20
-7.13995
 30
0.0
 11
6.297000000000001
 21
22.53995
 31
0.0
  0
LINE
  5
AAD
330
1F
100
AcDbEntity
  8
2
  6
CONTINUOUS
370
25
 62
7
100
AcDbLine
 10
6.297000000000001
 20
-0.1399499999999997
 30
0.0
 11
7.297000000000001
 21
-5.13995
 31
0.0
  0
LINE
  5
AAE
330
1F
100
AcDbEntity
  8
2
  6
CONTINUOUS
370
25
 62
7
100
AcDbLine
 10
7.297000000000001
 20
-5.13995
 30
0.0
 11
5.297000000000001
 21
-5.13995
 31
0.0
  0
LINE
  5
AAF
330
1F
100
AcDbEntity
  8
2
  6
CONTINUOUS
370
25
 62
7
100
AcDbLine
 10
5.297000000000001
 20
-5.13995
 30
0.0
 11
6.297000000000001
 21
-0.1399499999999997
 31
0.0
  0
LINE
  5
AB0
330
1F
100
AcDbEntity
  8
2
  6
CONTINUOUS
370
25
 62
7
100
AcDbLine
 10
7.120590193194972
 20
-5.13995
 30
0.0
 11
7.267598365532495
 21
-4.992941827662476
 31
0.0
  0
LINE
  5
AB1
330
1F
100
AcDbEntity
  8
2
  6
CONTINUOUS
370
25
 62
7
100
AcDbLine
 10
6.696326124483044
 20
-5.13995
 30
0.0
 11
7.196887687413843
 21
-4.639388437069202
 31
0.0
  0
LINE
  5
AB2
330
1F
100
AcDbEntity
  8
2
  6
CONTINUOUS
370
25
 62
7
100
AcDbLine
 10
6.272062055771117
 20
-5.13995
 30
0.0
 11
7.126177009295186
 21
-4.28583504647593
 31
0.0
  0
LINE
  5
AB3
330
1F
100
AcDbEntity
  8
2
  6
CONTINUOUS
370
25
 62
7
100
AcDbLine
 10
5.847797987059187
 20
-5.13995
 30
0.0
 11
7.055466331176532
 21
-3.932281655882655
 31
0.0
  0
LINE
  5
AB4
330
1F
100
AcDbEntity
  8
2
  6
CONTINUOUS
370
25
 62
7
100
AcDbLine
 10
5.42353391834726
 20
-5.13995
 30
0.0
 11
6.984755653057877
 21
-3.578728265289382
 31
0.0
  0
LINE
  5
AB5
330
1F
100
AcDbEntity
  8
2
  6
CONTINUOUS
370
25
 62
7
100
AcDbLine
 10
5.371432537591168
 20
-4.767787312044163
 30
0.0
 11
6.914044974939222
 21
-3.225174874696109
 31
0.0
  0
LINE
  5
AB6
330
1F
100
AcDbEntity
  8
2
  6
CONTINUOUS
370
25
 62
7
100
AcDbLine
 10
5.47749855476915
 20
-4.237457226154253
 30
0.0
 11
6.843334296820568
 21
-2.871621484102836
 31
0.0
  0
LINE
  5
AB7
330
1F
100
AcDbEntity
  8
2
  6
CONTINUOUS
370
25
 62
7
100
AcDbLine
 10
5.583564571947132
 20
-3.707127140264342
 30
0.0
 11
6.772623618701913
 21
-2.518068093509561
 31
0.0
  0
LINE
  5
AB8
330
1F
100
AcDbEntity
  8
2
  6
CONTINUOUS
370
25
 62
7
100
AcDbLine
 10
5.689630589125114
 20
-3.176797054374433
 30
0.0
 11
6.701912940583258
 21
-2.164514702916288
 31
0.0
  0
LINE
  5
AB9
330
1F
100
AcDbEntity
  8
2
  6
CONTINUOUS
370
25
 62
7
100
AcDbLine
 10
5.795696606303096
 20
-2.646466968484523
 30
0.0
 11
6.631202262464604
 21
-1.810961312323015
 31
0.0
  0
LINE
  5
ABA
330
1F
100
AcDbEntity
  8
2
  6
CONTINUOUS
370
25
 62
7
100
AcDbLine
 10
5.901762623481078
 20
-2.116136882594613
 30
0.0
 11
6.560491584345949
 21
-1.457407921729742
 31
0.0
  0
LINE
  5
ABB
330
1F
100
AcDbEntity
  8
2
  6
CONTINUOUS
370
25
 62
7
100
AcDbLine
 10
6.00782864065906
 20
-1.585806796704704
 30
0.0
 11
6.489780906227295
 21
-1.103854531136469
 31
0.0
  0
LINE
  5
ABC
330
1F
100
AcDbEntity
  8
2
  6
CONTINUOUS
370
25
 62
7
100
AcDbLine
 10
6.113894657837042
 20
-1.055476710814792
 30
0.0
 11
6.41907022810864
 21
-0.7503011405431943
 31
0.0
  0
LINE
  5
ABD
330
1F
100
AcDbEntity
  8
2
  6
CONTINUOUS
370
25
 62
7
100
AcDbLine
 10
6.219960675015024
 20
-0.5251466249248828
 30
0.0
 11
6.348359549989985
 21
-0.3967477499499212
 31
0.0
  0
LINE
  5
ABE
330
1F
100
AcDbEntity
  8
2
  6
CONTINUOUS
370
25
 62
7
100
AcDbLine
 10
5.307414624241195
 20
-5.087876878794025
 30
0.0
 11
5.35948774544717
 21
-5.13995
 31
0.0
  0
LINE
  5
ABF
330
1F
100
AcDbEntity
  8
2
  6
CONTINUOUS
370
25
 62
7
100
AcDbLine
 10
5.378125302359851
 20
-4.734323488200753
 30
0.0
 11
5.783751814159099
 21
-5.13995
 31
0.0
  0
LINE
  5
AC0
330
1F
100
AcDbEntity
  8
2
  6
CONTINUOUS
370
25
 62
7
100
AcDbLine
 10
5.448835980478505
 20
-4.380770097607479
 30
0.0
 11
6.208015882871027
 21
-5.139949999999999
 31
0.0
  0
LINE
  5
AC1
330
1F
100
AcDbEntity
  8
2
  6
CONTINUOUS
370
25
 62
7
100
AcDbLine
 10
5.51954665859716
 20
-4.027216707014206
 30
0.0
 11
6.632279951582955
 21
-5.13995
 31
0.0
  0
LINE
  5
AC2
330
1F
100
AcDbEntity
  8
2
  6
CONTINUOUS
370
25
 62
7
100
AcDbLine
 10
5.590257336715815
 20
-3.673663316420932
 30
0.0
 11
7.056544020294883
 21
-5.13995
 31
0.0
  0
LINE
  5
AC3
330
1F
100
AcDbEntity
  8
2
  6
CONTINUOUS
370
25
 62
7
100
AcDbLine
 10
5.660968014834469
 20
-3.320109925827658
 30
0.0
 11
7.251047977748298
 21
-4.910189888741485
 31
0.0
  0
LINE
  5
AC4
330
1F
100
AcDbEntity
  8
2
  6
CONTINUOUS
370
25
 62
7
100
AcDbLine
 10
5.731678692953124
 20
-2.966556535234385
 30
0.0
 11
7.144981960570316
 21
-4.379859802851577
 31
0.0
  0
LINE
  5
AC5
330
1F
100
AcDbEntity
  8
2
  6
CONTINUOUS
370
25
 62
7
100
AcDbLine
 10
5.802389371071778
 20
-2.613003144641111
 30
0.0
 11
7.038915943392334
 21
-3.849529716961666
 31
0.0
  0
LINE
  5
AC6
330
1F
100
AcDbEntity
  8
2
  6
CONTINUOUS
370
25
 62
7
100
AcDbLine
 10
5.873100049190433
 20
-2.259449754047838
 30
0.0
 11
6.932849926214352
 21
-3.319199631071756
 31
0.0
  0
LINE
  5
AC7
330
1F
100
AcDbEntity
  8
2
  6
CONTINUOUS
370
25
 62
7
100
AcDbLine
 10
5.943810727309088
 20
-1.905896363454563
 30
0.0
 11
6.82678390903637
 21
-2.788869545181845
 31
0.0
  0
LINE
  5
AC8
330
1F
100
AcDbEntity
  8
2
  6
CONTINUOUS
370
25
 62
7
100
AcDbLine
 10
6.014521405427742
 20
-1.55234297286129
 30
0.0
 11
6.720717891858389
 21
-2.258539459291935
 31
0.0
  0
LINE
  5
AC9
330
1F
100
AcDbEntity
  8
2
  6
CONTINUOUS
370
25
 62
7
100
AcDbLine
 10
6.085232083546398
 20
-1.198789582268017
 30
0.0
 11
6.614651874680406
 21
-1.728209373402025
 31
0.0
  0
LINE
  5
ACA
330
1F
100
AcDbEntity
  8
2
  6
CONTINUOUS
370
25
 62
7
100
AcDbLine
 10
6.155942761665052
 20
-0.8452361916747435
 30
0.0
 11
6.508585857502424
 21
-1.197879287512114
 31
0.0
  0
LINE
  5
ACB
330
1F
100
AcDbEntity
  8
2
  6
CONTINUOUS
370
25
 62
7
100
AcDbLine
 10
6.226653439783707
 20
-0.4916828010814696
 30
0.0
 11
6.402519840324441
 21
-0.6675492016222027
 31
0.0
  0
LINE
  5
ACC
330
1F
100
AcDbEntity
  8
2
  6
CONTINUOUS
370
25
 62
7
100
AcDbLine
 10
6.297000000000001
 20
0.1399500000000002
 30
0.0
 11
5.297000000000001
 21
5.13995
 31
0.0
  0
LINE
  5
ACD
330
1F
100
AcDbEntity
  8
2
  6
CONTINUOUS
370
25
 62
7
100
AcDbLine
 10
5.297000000000001
 20
5.13995
 30
0.0
 11
7.297000000000001
 21
5.13995
 31
0.0
  0
LINE
  5
ACE
330
1F
100
AcDbEntity
  8
2
  6
CONTINUOUS
370
25
 62
7
100
AcDbLine
 10
7.297000000000001
 20
5.13995
 30
0.0
 11
6.297000000000001
 21
0.1399500000000002
 31
0.0
  0
LINE
  5
ACF
330
1F
100
AcDbEntity
  8
2
  6
CONTINUOUS
370
25
 62
7
100
AcDbLine
 10
6.261388480052376
 20
0.3180075997381211
 30
0.0
 11
6.350417279921438
 21
0.4070363996071835
 31
0.0
  0
LINE
  5
AD0
330
1F
100
AcDbEntity
  8
2
  6
CONTINUOUS
370
25
 62
7
100
AcDbLine
 10
6.190677801933722
 20
0.671560990331395
 30
0.0
 11
6.456483297099419
 21
0.9373664854970922
 31
0.0
  0
LINE
  5
AD1
330
1F
100
AcDbEntity
  8
2
  6
CONTINUOUS
370
25
 62
7
100
AcDbLine
 10
6.119967123815067
 20
1.025114380924669
 30
0.0
 11
6.562549314277401
 21
1.467696571387002
 31
0.0
  0
LINE
  5
AD2
330
1F
100
AcDbEntity
  8
2
  6
CONTINUOUS
370
25
 62
7
100
AcDbLine
 10
6.049256445696413
 20
1.378667771517942
 30
0.0
 11
6.668615331455383
 21
1.998026657276911
 31
0.0
  0
LINE
  5
AD3
330
1F
100
AcDbEntity
  8
2
  6
CONTINUOUS
370
25
 62
7
100
AcDbLine
 10
5.978545767577758
 20
1.732221162111215
 30
0.0
 11
6.774681348633365
 21
2.528356743166821
 31
0.0
  0
LINE
  5
AD4
330
1F
100
AcDbEntity
  8
2
  6
CONTINUOUS
370
25
 62
7
100
AcDbLine
 10
5.907835089459104
 20
2.085774552704489
 30
0.0
 11
6.880747365811348
 21
3.058686829056732
 31
0.0
  0
LINE
  5
AD5
330
1F
100
AcDbEntity
  8
2
  6
CONTINUOUS
370
25
 62
7
100
AcDbLine
 10
5.837124411340449
 20
2.439327943297763
 30
0.0
 11
6.98681338298933
 21
3.589016914946642
 31
0.0
  0
LINE
  5
AD6
330
1F
100
AcDbEntity
  8
2
  6
CONTINUOUS
370
25
 62
7
100
AcDbLine
 10
5.766413733221793
 20
2.792881333891034
 30
0.0
 11
7.092879400167312
 21
4.119347000836552
 31
0.0
  0
LINE
  5
AD7
330
1F
100
AcDbEntity
  8
2
  6
CONTINUOUS
370
25
 62
7
100
AcDbLine
 10
5.695703055103138
 20
3.146434724484308
 30
0.0
 11
7.198945417345294
 21
4.649677086726462
 31
0.0
  0
LINE
  5
AD8
330
1F
100
AcDbEntity
  8
2
  6
CONTINUOUS
370
25
 62
7
100
AcDbLine
 10
5.624992376984484
 20
3.499988115077582
 30
0.0
 11
7.264954261906905
 21
5.139950000000001
 31
0.0
  0
LINE
  5
AD9
330
1F
100
AcDbEntity
  8
2
  6
CONTINUOUS
370
25
 62
7
100
AcDbLine
 10
5.55428169886583
 20
3.853541505670854
 30
0.0
 11
6.840690193194978
 21
5.139950000000001
 31
0.0
  0
LINE
  5
ADA
330
1F
100
AcDbEntity
  8
2
  6
CONTINUOUS
370
25
 62
7
100
AcDbLine
 10
5.483571020747175
 20
4.207094896264127
 30
0.0
 11
6.416426124483048
 21
5.139950000000001
 31
0.0
  0
LINE
  5
ADB
330
1F
100
AcDbEntity
  8
2
  6
CONTINUOUS
370
25
 62
7
100
AcDbLine
 10
5.41286034262852
 20
4.560648286857402
 30
0.0
 11
5.992162055771121
 21
5.139950000000001
 31
0.0
  0
LINE
  5
ADC
330
1F
100
AcDbEntity
  8
2
  6
CONTINUOUS
370
25
 62
7
100
AcDbLine
 10
5.342149664509866
 20
4.914201677450674
 30
0.0
 11
5.567897987059193
 21
5.139950000000001
 31
0.0
  0
LINE
  5
ADD
330
1F
100
AcDbEntity
  8
2
  6
CONTINUOUS
370
25
 62
7
100
AcDbLine
 10
6.211681225152285
 20
0.5665438742385751
 30
0.0
 11
6.353879183231811
 21
0.4243459161590497
 31
0.0
  0
LINE
  5
ADE
330
1F
100
AcDbEntity
  8
2
  6
CONTINUOUS
370
25
 62
7
100
AcDbLine
 10
6.105615207974303
 20
1.096873960128485
 30
0.0
 11
6.424589861350466
 21
0.7778993067523219
 31
0.0
  0
LINE
  5
ADF
330
1F
100
AcDbEntity
  8
2
  6
CONTINUOUS
370
25
 62
7
100
AcDbLine
 10
5.999549190796321
 20
1.627204046018395
 30
0.0
 11
6.49530053946912
 21
1.131452697345596
 31
0.0
  0
LINE
  5
AE0
330
1F
100
AcDbEntity
  8
2
  6
CONTINUOUS
370
25
 62
7
100
AcDbLine
 10
5.89348317361834
 20
2.157534131908306
 30
0.0
 11
6.566011217587775
 21
1.485006087938871
 31
0.0
  0
LINE
  5
AE1
330
1F
100
AcDbEntity
  8
2
  6
CONTINUOUS
370
25
 62
7
100
AcDbLine
 10
5.787417156440358
 20
2.687864217798215
 30
0.0
 11
6.63672189570643
 21
1.838559478532144
 31
0.0
  0
LINE
  5
AE2
330
1F
100
AcDbEntity
  8
2
  6
CONTINUOUS
370
25
 62
7
100
AcDbLine
 10
5.681351139262375
 20
3.218194303688128
 30
0.0
 11
6.707432573825084
 21
2.192112869125419
 31
0.0
  0
LINE
  5
AE3
330
1F
100
AcDbEntity
  8
2
  6
CONTINUOUS
370
25
 62
7
100
AcDbLine
 10
5.575285122084393
 20
3.748524389578036
 30
0.0
 11
6.77814325194374
 21
2.545666259718691
 31
0.0
  0
LINE
  5
AE4
330
1F
100
AcDbEntity
  8
2
  6
CONTINUOUS
370
25
 62
7
100
AcDbLine
 10
5.469219104906411
 20
4.278854475467948
 30
0.0
 11
6.848853930062394
 21
2.899219650311966
 31
0.0
  0
LINE
  5
AE5
330
1F
100
AcDbEntity
  8
2
  6
CONTINUOUS
370
25
 62
7
100
AcDbLine
 10
5.363153087728429
 20
4.809184561357857
 30
0.0
 11
6.919564608181049
 21
3.252773040905239
 31
0.0
  0
LINE
  5
AE6
330
1F
100
AcDbEntity
  8
2
  6
CONTINUOUS
370
25
 62
7
100
AcDbLine
 10
5.456651717798215
 20
5.139950000000001
 30
0.0
 11
6.990275286299704
 21
3.606326431498512
 31
0.0
  0
LINE
  5
AE7
330
1F
100
AcDbEntity
  8
2
  6
CONTINUOUS
370
25
 62
7
100
AcDbLine
 10
5.880915786510143
 20
5.139950000000001
 30
0.0
 11
7.060985964418358
 21
3.959879822091787
 31
0.0
  0
LINE
  5
AE8
330
1F
100
AcDbEntity
  8
2
  6
CONTINUOUS
370
25
 62
7
100
AcDbLine
 10
6.305179855222072
 20
5.139950000000001
 30
0.0
 11
7.131696642537014
 21
4.313433212685059
 31
0.0
  0
LINE
  5
AE9
330
1F
100
AcDbEntity
  8
2
  6
CONTINUOUS
370
25
 62
7
100
AcDbLine
 10
6.729443923933999
 20
5.139950000000001
 30
0.0
 11
7.202407320655667
 21
4.666986603278333
 31
0.0
  0
LINE
  5
AEA
330
1F
100
AcDbEntity
  8
2
  6
CONTINUOUS
370
25
 62
7
100
AcDbLine
 10
7.153707992645929
 20
5.139950000000001
 30
0.0
 11
7.273117998774323
 21
5.020539993871607
 31
0.0
  0
TEXT
  5
AEB
330
1F
100
AcDbEntity
  8
2
  6
CONTINUOUS
370
25
 62
7
100
AcDbText
 10
4.797000000000003
 20
11.15661666666667
 30
0.0
 40
3.5
  1
0.28
 50
90.00000000000001
 72
     1
 11
4.797000000000001
 21
16.11495
 31
0.0
100
AcDbText
  0
CIRCLE
  5
AEC
330
1F
100
AcDbEntity
  8
2
  6
CONTINUOUS
370
25
 62
7
100
AcDbCircle
 10
3.047000000000001
 20
8.06495
 30
0.0
 40
1.4
  0
LINE
  5
AED
330
1F
100
AcDbEntity
  8
2
  6
CONTINUOUS
370
25
 62
7
100
AcDbLine
 10
4.447000000000002
 20
6.664950000000001
 30
0.0
 11
1.647000000000001
 21
9.464950000000002
 31
0.0
  0
LINE
  5
AEE
330
1F
100
AcDbEntity
  8
2
  6
CONTINUOUS
370
25
 62
7
100
AcDbLine
 10
8.297
 20
-0.15
 30
0.0
 11
8.296999999999999
 21
-23.15
 31
0.0
  0
LINE
  5
AEF
330
1F
100
AcDbEntity
  8
2
  6
CONTINUOUS
370
25
 62
7
100
AcDbLine
 10
8.476999999999999
 20
-23.15
 30
0.0
 11
8.477
 21
-0.129999999999999
 31
0.0
  0
LINE
  5
AF0
330
1F
100
AcDbEntity
  8
2
  6
CONTINUOUS
370
25
 62
7
100
AcDbLine
 10
1.296999999999999
 20
-22.15
 30
0.0
 11
27.377
 21
-22.15
 31
0.0
  0
LINE
  5
AF1
330
1F
100
AcDbEntity
  8
2
  6
CONTINUOUS
370
25
 62
7
100
AcDbLine
 10
8.296999999999999
 20
-22.15
 30
0.0
 11
3.296999999999999
 21
-23.15
 31
0.0
  0
LINE
  5
AF2
330
1F
100
AcDbEntity
  8
2
  6
CONTINUOUS
370
25
 62
7
100
AcDbLine
 10
3.296999999999999
 20
-23.15
 30
0.0
 11
3.296999999999999
 21
-21.15
 31
0.0
  0
LINE
  5
AF3
330
1F
100
AcDbEntity
  8
2
  6
CONTINUOUS
370
25
 62
7
100
AcDbLine
 10
3.296999999999999
 20
-21.15
 30
0.0
 11
8.296999999999999
 21
-22.15
 31
0.0
  0
LINE
  5
AF4
330
1F
100
AcDbEntity
  8
2
  6
CONTINUOUS
370
25
 62
7
100
AcDbLine
 10
8.163536204667937
 20
-22.17669275906641
 30
0.0
 11
8.20802413644529
 21
-22.13220482728906
 31
0.0
  0
LINE
  5
AF5
330
1F
100
AcDbEntity
  8
2
  6
CONTINUOUS
370
25
 62
7
100
AcDbLine
 10
7.633206118778027
 20
-22.28275877624439
 30
0.0
 11
7.854470745852018
 21
-22.0614941491704
 31
0.0
  0
LINE
  5
AF6
330
1F
100
AcDbEntity
  8
2
  6
CONTINUOUS
370
25
 62
7
100
AcDbLine
 10
7.102876032888117
 20
-22.38882479342238
 30
0.0
 11
7.500917355258745
 21
-21.99078347105175
 31
0.0
  0
LINE
  5
AF7
330
1F
100
AcDbEntity
  8
2
  6
CONTINUOUS
370
25
 62
7
100
AcDbLine
 10
6.572545946998208
 20
-22.49489081060036
 30
0.0
 11
7.147363964665471
 21
-21.92007279293309
 31
0.0
  0
LINE
  5
AF8
330
1F
100
AcDbEntity
  8
2
  6
CONTINUOUS
370
25
 62
7
100
AcDbLine
 10
6.042215861108297
 20
-22.60095682777834
 30
0.0
 11
6.793810574072198
 21
-21.84936211481444
 31
0.0
  0
LINE
  5
AF9
330
1F
100
AcDbEntity
  8
2
  6
CONTINUOUS
370
25
 62
7
100
AcDbLine
 10
5.511885775218385
 20
-22.70702284495632
 30
0.0
 11
6.440257183478924
 21
-21.77865143669578
 31
0.0
  0
LINE
  5
AFA
330
1F
100
AcDbEntity
  8
2
  6
CONTINUOUS
370
25
 62
7
100
AcDbLine
 10
4.981555689328474
 20
-22.8130888621343
 30
0.0
 11
6.08670379288565
 21
-21.70794075857713
 31
0.0
  0
LINE
  5
AFB
330
1F
100
AcDbEntity
  8
2
  6
CONTINUOUS
370
25
 62
7
100
AcDbLine
 10
4.451225603438565
 20
-22.91915487931229
 30
0.0
 11
5.733150402292377
 21
-21.63723008045847
 31
0.0
  0
LINE
  5
AFC
330
1F
100
AcDbEntity
  8
2
  6
CONTINUOUS
370
25
 62
7
100
AcDbLine
 10
3.920895517548656
 20
-23.02522089649027
 30
0.0
 11
5.379597011699105
 21
-21.56651940233982
 31
0.0
  0
LINE
  5
AFD
330
1F
100
AcDbEntity
  8
2
  6
CONTINUOUS
370
25
 62
7
100
AcDbLine
 10
3.390565431658746
 20
-23.13128691366825
 30
0.0
 11
5.026043621105832
 21
-21.49580872422116
 31
0.0
  0
LINE
  5
AFE
330
1F
100
AcDbEntity
  8
2
  6
CONTINUOUS
370
25
 62
7
100
AcDbLine
 10
3.296999999999999
 20
-22.80058827661507
 30
0.0
 11
4.672490230512558
 21
-21.42509804610251
 31
0.0
  0
LINE
  5
AFF
330
1F
100
AcDbEntity
  8
2
  6
CONTINUOUS
370
25
 62
7
100
AcDbLine
 10
3.296999999999999
 20
-22.37632420790314
 30
0.0
 11
4.318936839919285
 21
-21.35438736798385
 31
0.0
  0
LINE
  5
B00
330
1F
100
AcDbEntity
  8
2
  6
CONTINUOUS
370
25
 62
7
100
AcDbLine
 10
3.296999999999999
 20
-21.95206013919121
 30
0.0
 11
3.965383449326012
 21
-21.2836766898652
 31
0.0
  0
LINE
  5
B01
330
1F
100
AcDbEntity
  8
2
  6
CONTINUOUS
370
25
 62
7
100
AcDbLine
 10
3.296999999999999
 20
-21.52779607047929
 30
0.0
 11
3.611830058732739
 21
-21.21296601174654
 31
0.0
  0
LINE
  5
B02
330
1F
100
AcDbEntity
  8
2
  6
CONTINUOUS
370
25
 62
7
100
AcDbLine
 10
3.296999999999999
 20
-22.73288695638031
 30
0.0
 11
3.644594203016408
 21
-23.08048115939672
 31
0.0
  0
LINE
  5
B03
330
1F
100
AcDbEntity
  8
2
  6
CONTINUOUS
370
25
 62
7
100
AcDbLine
 10
3.296999999999999
 20
-22.30862288766838
 30
0.0
 11
3.998147593609682
 21
-23.00977048127806
 31
0.0
  0
LINE
  5
B04
330
1F
100
AcDbEntity
  8
2
  6
CONTINUOUS
370
25
 62
7
100
AcDbLine
 10
3.296999999999999
 20
-21.88435881895645
 30
0.0
 11
4.351700984202954
 21
-22.93905980315941
 31
0.0
  0
LINE
  5
B05
330
1F
100
AcDbEntity
  8
2
  6
CONTINUOUS
370
25
 62
7
100
AcDbLine
 10
3.296999999999999
 20
-21.46009475024453
 30
0.0
 11
4.705254374796227
 21
-22.86834912504075
 31
0.0
  0
LINE
  5
B06
330
1F
100
AcDbEntity
  8
2
  6
CONTINUOUS
370
25
 62
7
100
AcDbLine
 10
3.439711648084248
 20
-21.17854232961685
 30
0.0
 11
5.058807765389501
 21
-22.7976384469221
 31
0.0
  0
LINE
  5
B07
330
1F
100
AcDbEntity
  8
2
  6
CONTINUOUS
370
25
 62
7
100
AcDbLine
 10
3.970041733974159
 20
-21.28460834679483
 30
0.0
 11
5.412361155982774
 21
-22.72692776880344
 31
0.0
  0
LINE
  5
B08
330
1F
100
AcDbEntity
  8
2
  6
CONTINUOUS
370
25
 62
7
100
AcDbLine
 10
4.500371819864069
 20
-21.39067436397281
 30
0.0
 11
5.765914546576047
 21
-22.65621709068479
 31
0.0
  0
LINE
  5
B09
330
1F
100
AcDbEntity
  8
2
  6
CONTINUOUS
370
25
 62
7
100
AcDbLine
 10
5.03070190575398
 20
-21.49674038115079
 30
0.0
 11
6.119467937169321
 21
-22.58550641256613
 31
0.0
  0
LINE
  5
B0A
330
1F
100
AcDbEntity
  8
2
  6
CONTINUOUS
370
25
 62
7
100
AcDbLine
 10
5.56103199164389
 20
-21.60280639832878
 30
0.0
 11
6.473021327762594
 21
-22.51479573444748
 31
0.0
  0
LINE
  5
B0B
330
1F
100
AcDbEntity
  8
2
  6
CONTINUOUS
370
25
 62
7
100
AcDbLine
 10
6.091362077533801
 20
-21.70887241550676
 30
0.0
 11
6.826574718355868
 21
-22.44408505632882
 31
0.0
  0
LINE
  5
B0C
330
1F
100
AcDbEntity
  8
2
  6
CONTINUOUS
370
25
 62
7
100
AcDbLine
 10
6.62169216342371
 20
-21.81493843268474
 30
0.0
 11
7.180128108949141
 21
-22.37337437821017
 31
0.0
  0
LINE
  5
B0D
330
1F
100
AcDbEntity
  8
2
  6
CONTINUOUS
370
25
 62
7
100
AcDbLine
 10
7.152022249313621
 20
-21.92100444986272
 30
0.0
 11
7.533681499542414
 21
-22.30266370009151
 31
0.0
  0
LINE
  5
B0E
330
1F
100
AcDbEntity
  8
2
  6
CONTINUOUS
370
25
 62
7
100
AcDbLine
 10
7.682352335203531
 20
-22.0270704670407
 30
0.0
 11
7.887234890135687
 21
-22.23195302197286
 31
0.0
  0
LINE
  5
B0F
330
1F
100
AcDbEntity
  8
2
  6
CONTINUOUS
370
25
 62
7
100
AcDbLine
 10
8.212682421093442
 20
-22.13313648421869
 30
0.0
 11
8.24078828072896
 21
-22.16124234385421
 31
0.0
  0
LINE
  5
B10
330
1F
100
AcDbEntity
  8
2
  6
CONTINUOUS
370
25
 62
7
100
AcDbLine
 10
8.476999999999999
 20
-22.15
 30
0.0
 11
13.477
 21
-21.15
 31
0.0
  0
LINE
  5
B11
330
1F
100
AcDbEntity
  8
2
  6
CONTINUOUS
370
25
 62
7
100
AcDbLine
 10
13.477
 20
-21.15
 30
0.0
 11
13.477
 21
-23.15
 31
0.0
  0
LINE
  5
B12
330
1F
100
AcDbEntity
  8
2
  6
CONTINUOUS
370
25
 62
7
100
AcDbLine
 10
13.477
 20
-23.15
 30
0.0
 11
8.476999999999999
 21
-22.15
 31
0.0
  0
LINE
  5
B13
330
1F
100
AcDbEntity
  8
2
  6
CONTINUOUS
370
25
 62
7
100
AcDbLine
 10
13.33582356384588
 20
-23.12176471276917
 30
0.0
 11
13.477
 21
-22.98058827661506
 31
0.0
  0
LINE
  5
B14
330
1F
100
AcDbEntity
  8
2
  6
CONTINUOUS
370
25
 62
7
100
AcDbLine
 10
12.9822701732526
 20
-23.05105403465052
 30
0.0
 11
13.477
 21
-22.55632420790312
 31
0.0
  0
LINE
  5
B15
330
1F
100
AcDbEntity
  8
2
  6
CONTINUOUS
370
25
 62
7
100
AcDbLine
 10
12.62871678265934
 20
-22.98034335653186
 30
0.0
 11
13.477
 21
-22.1320601391912
 31
0.0
  0
LINE
  5
B16
330
1F
100
AcDbEntity
  8
2
  6
CONTINUOUS
370
25
 62
7
100
AcDbLine
 10
12.27516339206606
 20
-22.90963267841321
 30
0.0
 11
13.477
 21
-21.70779607047927
 31
0.0
  0
LINE
  5
B17
330
1F
100
AcDbEntity
  8
2
  6
CONTINUOUS
370
25
 62
7
100
AcDbLine
 10
11.92161000147279
 20
-22.83892200029455
 30
0.0
 11
13.477
 21
-21.28353200176735
 31
0.0
  0
LINE
  5
B18
330
1F
100
AcDbEntity
  8
2
  6
CONTINUOUS
370
25
 62
7
100
AcDbLine
 10
11.56805661087951
 20
-22.7682113221759
 30
0.0
 11
13.11358491631927
 21
-21.22268301673614
 31
0.0
  0
LINE
  5
B19
330
1F
100
AcDbEntity
  8
2
  6
CONTINUOUS
370
25
 62
7
100
AcDbLine
 10
11.21450322028624
 20
-22.69750064405724
 30
0.0
 11
12.58325483042936
 21
-21.32874903391413
 31
0.0
  0
LINE
  5
B1A
330
1F
100
AcDbEntity
  8
2
  6
CONTINUOUS
370
25
 62
7
100
AcDbLine
 10
10.86094982969297
 20
-22.62678996593859
 30
0.0
 11
12.05292474453945
 21
-21.43481505109211
 31
0.0
  0
LINE
  5
B1B
330
1F
100
AcDbEntity
  8
2
  6
CONTINUOUS
370
25
 62
7
100
AcDbLine
 10
10.50739643909969
 20
-22.55607928781993
 30
0.0
 11
11.52259465864954
 21
-21.54088106827009
 31
0.0
  0
LINE
  5
B1C
330
1F
100
AcDbEntity
  8
2
  6
CONTINUOUS
370
25
 62
7
100
AcDbLine
 10
10.15384304850642
 20
-22.48536860970128
 30
0.0
 11
10.99226457275963
 21
-21.64694708544807
 31
0.0
  0
LINE
  5
B1D
330
1F
100
AcDbEntity
  8
2
  6
CONTINUOUS
370
25
 62
7
100
AcDbLine
 10
9.800289657913147
 20
-22.41465793158262
 30
0.0
 11
10.46193448686972
 21
-21.75301310262605
 31
0.0
  0
LINE
  5
B1E
330
1F
100
AcDbEntity
  8
2
  6
CONTINUOUS
370
25
 62
7
100
AcDbLine
 10
9.446736267319878
 20
-22.34394725346397
 30
0.0
 11
9.931604400979815
 21
-21.85907911980404
 31
0.0
  0
LINE
  5
B1F
330
1F
100
AcDbEntity
  8
2
  6
CONTINUOUS
370
25
 62
7
100
AcDbLine
 10
9.093182876726605
 20
-22.27323657534532
 30
0.0
 11
9.401274315089905
 21
-21.96514513698202
 31
0.0
  0
LINE
  5
B20
330
1F
100
AcDbEntity
  8
2
  6
CONTINUOUS
370
25
 62
7
100
AcDbLine
 10
8.739629486133332
 20
-22.20252589722666
 30
0.0
 11
8.870944229199996
 21
-22.07121115416
 31
0.0
  0
LINE
  5
B21
330
1F
100
AcDbEntity
  8
2
  6
CONTINUOUS
370
25
 62
7
100
AcDbLine
 10
8.772393630417001
 20
-22.0909212739166
 30
0.0
 11
8.920090445625501
 21
-22.2386180891251
 31
0.0
  0
LINE
  5
B22
330
1F
100
AcDbEntity
  8
2
  6
CONTINUOUS
370
25
 62
7
100
AcDbLine
 10
9.125947021010274
 20
-22.02021059579794
 30
0.0
 11
9.450420531515412
 21
-22.34468410630308
 31
0.0
  0
LINE
  5
B23
330
1F
100
AcDbEntity
  8
2
  6
CONTINUOUS
370
25
 62
7
100
AcDbLine
 10
9.479500411603548
 20
-21.94949991767929
 30
0.0
 11
9.980750617405322
 21
-22.45075012348106
 31
0.0
  0
LINE
  5
B24
330
1F
100
AcDbEntity
  8
2
  6
CONTINUOUS
370
25
 62
7
100
AcDbLine
 10
9.833053802196822
 20
-21.87878923956063
 30
0.0
 11
10.51108070329523
 21
-22.55681614065904
 31
0.0
  0
LINE
  5
B25
330
1F
100
AcDbEntity
  8
2
  6
CONTINUOUS
370
25
 62
7
100
AcDbLine
 10
10.1866071927901
 20
-21.80807856144198
 30
0.0
 11
11.04141078918514
 21
-22.66288215783702
 31
0.0
  0
LINE
  5
B26
330
1F
100
AcDbEntity
  8
2
  6
CONTINUOUS
370
25
 62
7
100
AcDbLine
 10
10.54016058338337
 20
-21.73736788332332
 30
0.0
 11
11.57174087507505
 21
-22.76894817501501
 31
0.0
  0
LINE
  5
B27
330
1F
100
AcDbEntity
  8
2
  6
CONTINUOUS
370
25
 62
7
100
AcDbLine
 10
10.89371397397664
 20
-21.66665720520467
 30
0.0
 11
12.10207096096496
 21
-22.87501419219299
 31
0.0
  0
LINE
  5
B28
330
1F
100
AcDbEntity
  8
2
  6
CONTINUOUS
370
25
 62
7
100
AcDbLine
 10
11.24726736456991
 20
-21.59594652708601
 30
0.0
 11
12.63240104685487
 21
-22.98108020937097
 31
0.0
  0
LINE
  5
B29
330
1F
100
AcDbEntity
  8
2
  6
CONTINUOUS
370
25
 62
7
100
AcDbLine
 10
11.60082075516319
 20
-21.52523584896736
 30
0.0
 11
13.16273113274478
 21
-23.08714622654895
 31
0.0
  0
LINE
  5
B2A
330
1F
100
AcDbEntity
  8
2
  6
CONTINUOUS
370
25
 62
7
100
AcDbLine
 10
11.95437414575646
 20
-21.4545251708487
 30
0.0
 11
13.477
 21
-22.97715102509224
 31
0.0
  0
LINE
  5
B2B
330
1F
100
AcDbEntity
  8
2
  6
CONTINUOUS
370
25
 62
7
100
AcDbLine
 10
12.30792753634973
 20
-21.38381449273005
 30
0.0
 11
13.477
 21
-22.55288695638031
 31
0.0
  0
LINE
  5
B2C
330
1F
100
AcDbEntity
  8
2
  6
CONTINUOUS
370
25
 62
7
100
AcDbLine
 10
12.66148092694301
 20
-21.3131038146114
 30
0.0
 11
13.477
 21
-22.12862288766839
 31
0.0
  0
LINE
  5
B2D
330
1F
100
AcDbEntity
  8
2
  6
CONTINUOUS
370
25
 62
7
100
AcDbLine
 10
13.01503431753628
 20
-21.24239313649274
 30
0.0
 11
13.477
 21
-21.70435881895646
 31
0.0
  0
LINE
  5
B2E
330
1F
100
AcDbEntity
  8
2
  6
CONTINUOUS
370
25
 62
7
100
AcDbLine
 10
13.36858770812956
 20
-21.17168245837409
 30
0.0
 11
13.477
 21
-21.28009475024453
 31
0.0
  0
TEXT
  5
B2F
330
1F
100
AcDbEntity
  8
2
  6
CONTINUOUS
370
25
 62
7
100
AcDbText
 10
16.052
 20
-20.65
 30
0.0
 40
3.5
  1
0.18
 72
     1
 11
20.427
 21
-20.65
 31
0.0
100
AcDbText
  0
LINE
  5
B30
330
1F
100
AcDbEntity
  8
2
  6
CONTINUOUS
370
25
 62
7
100
AcDbLine
 10
-0.01
 20
1.99995
 30
0.0
 11
-0.0099999999999984
 21
28.39995
 31
0.0
  0
LINE
  5
B31
330
1F
100
AcDbEntity
  8
2
  6
CONTINUOUS
370
25
 62
7
100
AcDbLine
 10
8.477000000000002
 20
28.39995
 30
0.0
 11
8.477
 21
0.129999999999999
 31
0.0
  0
LINE
  5
B32
330
1F
100
AcDbEntity
  8
2
  6
CONTINUOUS
370
25
 62
7
100
AcDbLine
 10
-7.01
 20
27.39995
 30
0.0
 11
30.352
 21
27.39995
 31
0.0
  0
LINE
  5
B33
330
1F
100
AcDbEntity
  8
2
  6
CONTINUOUS
370
25
 62
7
100
AcDbLine
 10
-0.01
 20
27.39995
 30
0.0
 11
-5.01
 21
26.39995
 31
0.0
  0
LINE
  5
B34
330
1F
100
AcDbEntity
  8
2
  6
CONTINUOUS
370
25
 62
7
100
AcDbLine
 10
-5.01
 20
26.39995
 30
0.0
 11
-5.01
 21
28.39995
 31
0.0
  0
LINE
  5
B35
330
1F
100
AcDbEntity
  8
2
  6
CONTINUOUS
370
25
 62
7
100
AcDbLine
 10
-5.01
 20
28.39995
 30
0.0
 11
-0.01
 21
27.39995
 31
0.0
  0
LINE
  5
B36
330
1F
100
AcDbEntity
  8
2
  6
CONTINUOUS
370
25
 62
7
100
AcDbLine
 10
-0.2315180828441588
 20
27.35564638343116
 30
0.0
 11
-0.1576787218961058
 21
27.42948574437922
 31
0.0
  0
LINE
  5
B37
330
1F
100
AcDbEntity
  8
2
  6
CONTINUOUS
370
25
 62
7
100
AcDbLine
 10
-0.7618481687340726
 20
27.24958036625318
 30
0.0
 11
-0.5112321124893818
 21
27.50019642249787
 31
0.0
  0
LINE
  5
B38
330
1F
100
AcDbEntity
  8
2
  6
CONTINUOUS
370
25
 62
7
100
AcDbLine
 10
-1.292178254623982
 20
27.1435143490752
 30
0.0
 11
-0.8647855030826548
 21
27.57090710061653
 31
0.0
  0
LINE
  5
B39
330
1F
100
AcDbEntity
  8
2
  6
CONTINUOUS
370
25
 62
7
100
AcDbLine
 10
-1.822508340513891
 20
27.03744833189722
 30
0.0
 11
-1.218338893675928
 21
27.64161777873518
 31
0.0
  0
LINE
  5
B3A
330
1F
100
AcDbEntity
  8
2
  6
CONTINUOUS
370
25
 62
7
100
AcDbLine
 10
-2.3528384264038
 20
26.93138231471924
 30
0.0
 11
-1.5718922842692
 21
27.71232845685384
 31
0.0
  0
LINE
  5
B3B
330
1F
100
AcDbEntity
  8
2
  6
CONTINUOUS
370
25
 62
7
100
AcDbLine
 10
-2.883168512293709
 20
26.82531629754126
 30
0.0
 11
-1.925445674862474
 21
27.78303913497249
 31
0.0
  0
LINE
  5
B3C
330
1F
100
AcDbEntity
  8
2
  6
CONTINUOUS
370
25
 62
7
100
AcDbLine
 10
-3.413498598183618
 20
26.71925028036327
 30
0.0
 11
-2.278999065455746
 21
27.85374981309115
 31
0.0
  0
LINE
  5
B3D
330
1F
100
AcDbEntity
  8
2
  6
CONTINUOUS
370
25
 62
7
100
AcDbLine
 10
-3.943828684073527
 20
26.61318426318529
 30
0.0
 11
-2.632552456049019
 21
27.9244604912098
 31
0.0
  0
LINE
  5
B3E
330
1F
100
AcDbEntity
  8
2
  6
CONTINUOUS
370
25
 62
7
100
AcDbLine
 10
-4.474158769963442
 20
26.50711824600731
 30
0.0
 11
-2.986105846642297
 21
27.99517116932846
 31
0.0
  0
LINE
  5
B3F
330
1F
100
AcDbEntity
  8
2
  6
CONTINUOUS
370
25
 62
7
100
AcDbLine
 10
-5.004488855853351
 20
26.40105222882933
 30
0.0
 11
-3.33965923723557
 21
28.06588184744711
 31
0.0
  0
LINE
  5
B40
330
1F
100
AcDbEntity
  8
2
  6
CONTINUOUS
370
25
 62
7
100
AcDbLine
 10
-5.01
 20
26.81980515339461
 30
0.0
 11
-3.693212627828844
 21
28.13659252556577
 31
0.0
  0
LINE
  5
B41
330
1F
100
AcDbEntity
  8
2
  6
CONTINUOUS
370
25
 62
7
100
AcDbLine
 10
-5.01
 20
27.24406922210653
 30
0.0
 11
-4.046766018422116
 21
28.20730320368442
 31
0.0
  0
LINE
  5
B42
330
1F
100
AcDbEntity
  8
2
  6
CONTINUOUS
370
25
 62
7
100
AcDbLine
 10
-5.01
 20
27.66833329081847
 30
0.0
 11
-4.400319409015392
 21
28.27801388180308
 31
0.0
  0
LINE
  5
B43
330
1F
100
AcDbEntity
  8
2
  6
CONTINUOUS
370
25
 62
7
100
AcDbLine
 10
-5.01
 20
28.0925973595304
 30
0.0
 11
-4.753872799608668
 21
28.34872455992173
 31
0.0
  0
LINE
  5
B44
330
1F
100
AcDbEntity
  8
2
  6
CONTINUOUS
370
25
 62
7
100
AcDbLine
 10
-5.01
 20
26.63746750430832
 30
0.0
 11
-4.812068746409735
 21
26.43953625071805
 31
0.0
  0
LINE
  5
B45
330
1F
100
AcDbEntity
  8
2
  6
CONTINUOUS
370
25
 62
7
100
AcDbLine
 10
-5.01
 20
27.06173157302024
 30
0.0
 11
-4.458515355816465
 21
26.5102469288367
 31
0.0
  0
LINE
  5
B46
330
1F
100
AcDbEntity
  8
2
  6
CONTINUOUS
370
25
 62
7
100
AcDbLine
 10
-5.01
 20
27.48599564173217
 30
0.0
 11
-4.104961965223191
 21
26.58095760695536
 31
0.0
  0
LINE
  5
B47
330
1F
100
AcDbEntity
  8
2
  6
CONTINUOUS
370
25
 62
7
100
AcDbLine
 10
-5.01
 20
27.91025971044409
 30
0.0
 11
-3.751408574629918
 21
26.65166828507401
 31
0.0
  0
LINE
  5
B48
330
1F
100
AcDbEntity
  8
2
  6
CONTINUOUS
370
25
 62
7
100
AcDbLine
 10
-5.01
 20
28.33452377915602
 30
0.0
 11
-3.397855184036642
 21
26.72237896319267
 31
0.0
  0
LINE
  5
B49
330
1F
100
AcDbEntity
  8
2
  6
CONTINUOUS
370
25
 62
7
100
AcDbLine
 10
-4.561452690165055
 20
28.31024053803301
 30
0.0
 11
-3.044301793443368
 21
26.79308964131132
 31
0.0
  0
LINE
  5
B4A
330
1F
100
AcDbEntity
  8
2
  6
CONTINUOUS
370
25
 62
7
100
AcDbLine
 10
-4.031122604275144
 20
28.20417452085503
 30
0.0
 11
-2.690748402850094
 21
26.86380031942998
 31
0.0
  0
LINE
  5
B4B
330
1F
100
AcDbEntity
  8
2
  6
CONTINUOUS
370
25
 62
7
100
AcDbLine
 10
-3.500792518385234
 20
28.09810850367704
 30
0.0
 11
-2.337195012256821
 21
26.93451099754863
 31
0.0
  0
LINE
  5
B4C
330
1F
100
AcDbEntity
  8
2
  6
CONTINUOUS
370
25
 62
7
100
AcDbLine
 10
-2.970462432495327
 20
27.99204248649906
 30
0.0
 11
-1.98364162166355
 21
27.00522167566729
 31
0.0
  0
LINE
  5
B4D
330
1F
100
AcDbEntity
  8
2
  6
CONTINUOUS
370
25
 62
7
100
AcDbLine
 10
-2.440132346605411
 20
27.88597646932108
 30
0.0
 11
-1.630088231070274
 21
27.07593235378594
 31
0.0
  0
LINE
  5
B4E
330
1F
100
AcDbEntity
  8
2
  6
CONTINUOUS
370
25
 62
7
100
AcDbLine
 10
-1.9098022607155
 20
27.7799104521431
 30
0.0
 11
-1.276534840476999
 21
27.1466430319046
 31
0.0
  0
LINE
  5
B4F
330
1F
100
AcDbEntity
  8
2
  6
CONTINUOUS
370
25
 62
7
100
AcDbLine
 10
-1.379472174825585
 20
27.67384443496512
 30
0.0
 11
-0.9229814498837228
 21
27.21735371002325
 31
0.0
  0
LINE
  5
B50
330
1F
100
AcDbEntity
  8
2
  6
CONTINUOUS
370
25
 62
7
100
AcDbLine
 10
-0.8491420889356742
 20
27.56777841778713
 30
0.0
 11
-0.5694280592904493
 21
27.28806438814191
 31
0.0
  0
LINE
  5
B51
330
1F
100
AcDbEntity
  8
2
  6
CONTINUOUS
370
25
 62
7
100
AcDbLine
 10
-0.3188120030457642
 20
27.46171240060915
 30
0.0
 11
-0.2158746686971761
 21
27.35877506626056
 31
0.0
  0
LINE
  5
B52
330
1F
100
AcDbEntity
  8
2
  6
CONTINUOUS
370
25
 62
7
100
AcDbLine
 10
8.477000000000002
 20
27.39995
 30
0.0
 11
13.477
 21
28.39995
 31
0.0
  0
LINE
  5
B53
330
1F
100
AcDbEntity
  8
2
  6
CONTINUOUS
370
25
 62
7
100
AcDbLine
 10
13.477
 20
28.39995
 30
0.0
 11
13.477
 21
26.39995
 31
0.0
  0
LINE
  5
B54
330
1F
100
AcDbEntity
  8
2
  6
CONTINUOUS
370
25
 62
7
100
AcDbLine
 10
13.477
 20
26.39995
 30
0.0
 11
8.477000000000002
 21
27.39995
 31
0.0
  0
LINE
  5
B55
330
1F
100
AcDbEntity
  8
2
  6
CONTINUOUS
370
25
 62
7
100
AcDbLine
 10
13.27763655827522
 20
26.43982268834495
 30
0.0
 11
13.477
 21
26.63918613006973
 31
0.0
  0
LINE
  5
B56
330
1F
100
AcDbEntity
  8
2
  6
CONTINUOUS
370
25
 62
7
100
AcDbLine
 10
12.92408316768195
 20
26.51053336646361
 30
0.0
 11
13.477
 21
27.06345019878166
 31
0.0
  0
LINE
  5
B57
330
1F
100
AcDbEntity
  8
2
  6
CONTINUOUS
370
25
 62
7
100
AcDbLine
 10
12.57052977708868
 20
26.58124404458226
 30
0.0
 11
13.477
 21
27.48771426749359
 31
0.0
  0
LINE
  5
B58
330
1F
100
AcDbEntity
  8
2
  6
CONTINUOUS
370
25
 62
7
100
AcDbLine
 10
12.2169763864954
 20
26.65195472270092
 30
0.0
 11
13.477
 21
27.91197833620551
 31
0.0
  0
LINE
  5
B59
330
1F
100
AcDbEntity
  8
2
  6
CONTINUOUS
370
25
 62
7
100
AcDbLine
 10
11.86342299590213
 20
26.72266540081957
 30
0.0
 11
13.477
 21
28.33624240491744
 31
0.0
  0
LINE
  5
B5A
330
1F
100
AcDbEntity
  8
2
  6
CONTINUOUS
370
25
 62
7
100
AcDbLine
 10
11.50986960530886
 20
26.79337607893823
 30
0.0
 11
13.02630440796328
 21
28.30981088159265
 31
0.0
  0
LINE
  5
B5B
330
1F
100
AcDbEntity
  8
2
  6
CONTINUOUS
370
25
 62
7
100
AcDbLine
 10
11.15631621471559
 20
26.86408675705688
 30
0.0
 11
12.49597432207337
 21
28.20374486441467
 31
0.0
  0
LINE
  5
B5C
330
1F
100
AcDbEntity
  8
2
  6
CONTINUOUS
370
25
 62
7
100
AcDbLine
 10
10.80276282412231
 20
26.93479743517554
 30
0.0
 11
11.96564423618346
 21
28.09767884723669
 31
0.0
  0
LINE
  5
B5D
330
1F
100
AcDbEntity
  8
2
  6
CONTINUOUS
370
25
 62
7
100
AcDbLine
 10
10.44920943352904
 20
27.00550811329419
 30
0.0
 11
11.43531415029355
 21
27.99161283005871
 31
0.0
  0
LINE
  5
B5E
330
1F
100
AcDbEntity
  8
2
  6
CONTINUOUS
370
25
 62
7
100
AcDbLine
 10
10.09565604293577
 20
27.07621879141285
 30
0.0
 11
10.90498406440364
 21
27.88554681288072
 31
0.0
  0
LINE
  5
B5F
330
1F
100
AcDbEntity
  8
2
  6
CONTINUOUS
370
25
 62
7
100
AcDbLine
 10
9.74210265234249
 20
27.1469294695315
 30
0.0
 11
10.37465397851373
 21
27.77948079570274
 31
0.0
  0
LINE
  5
B60
330
1F
100
AcDbEntity
  8
2
  6
CONTINUOUS
370
25
 62
7
100
AcDbLine
 10
9.388549261749215
 20
27.21764014765016
 30
0.0
 11
9.844323892623816
 21
27.67341477852476
 31
0.0
  0
LINE
  5
B61
330
1F
100
AcDbEntity
  8
2
  6
CONTINUOUS
370
25
 62
7
100
AcDbLine
 10
9.034995871155942
 20
27.28835082576881
 30
0.0
 11
9.313993806733906
 21
27.56734876134677
 31
0.0
  0
LINE
  5
B62
330
1F
100
AcDbEntity
  8
2
  6
CONTINUOUS
370
25
 62
7
100
AcDbLine
 10
8.681442480562668
 20
27.35906150388747
 30
0.0
 11
8.783663720843995
 21
27.46128274416879
 31
0.0
  0
LINE
  5
B63
330
1F
100
AcDbEntity
  8
2
  6
CONTINUOUS
370
25
 62
7
100
AcDbLine
 10
8.623246533761586
 20
27.42919930675231
 30
0.0
 11
8.696369800642374
 21
27.35607603987152
 31
0.0
  0
LINE
  5
B64
330
1F
100
AcDbEntity
  8
2
  6
CONTINUOUS
370
25
 62
7
100
AcDbLine
 10
8.976799924354859
 20
27.49990998487097
 30
0.0
 11
9.226699886532284
 21
27.25001002269354
 31
0.0
  0
LINE
  5
B65
330
1F
100
AcDbEntity
  8
2
  6
CONTINUOUS
370
25
 62
7
100
AcDbLine
 10
9.330353314948132
 20
27.57062066298962
 30
0.0
 11
9.757029972422194
 21
27.14394400551556
 31
0.0
  0
LINE
  5
B66
330
1F
100
AcDbEntity
  8
2
  6
CONTINUOUS
370
25
 62
7
100
AcDbLine
 10
9.683906705541407
 20
27.64133134110828
 30
0.0
 11
10.2873600583121
 21
27.03787798833758
 31
0.0
  0
LINE
  5
B67
330
1F
100
AcDbEntity
  8
2
  6
CONTINUOUS
370
25
 62
7
100
AcDbLine
 10
10.03746009613468
 20
27.71204201922693
 30
0.0
 11
10.81769014420201
 21
26.9318119711596
 31
0.0
  0
LINE
  5
B68
330
1F
100
AcDbEntity
  8
2
  6
CONTINUOUS
370
25
 62
7
100
AcDbLine
 10
10.39101348672795
 20
27.78275269734559
 30
0.0
 11
11.34802023009193
 21
26.82574595398161
 31
0.0
  0
LINE
  5
B69
330
1F
100
AcDbEntity
  8
2
  6
CONTINUOUS
370
25
 62
7
100
AcDbLine
 10
10.74456687732123
 20
27.85346337546424
 30
0.0
 11
11.87835031598184
 21
26.71967993680363
 31
0.0
  0
LINE
  5
B6A
330
1F
100
AcDbEntity
  8
2
  6
CONTINUOUS
370
25
 62
7
100
AcDbLine
 10
11.0981202679145
 20
27.9241740535829
 30
0.0
 11
12.40868040187174
 21
26.61361391962565
 31
0.0
  0
LINE
  5
B6B
330
1F
100
AcDbEntity
  8
2
  6
CONTINUOUS
370
25
 62
7
100
AcDbLine
 10
11.45167365850777
 20
27.99488473170155
 30
0.0
 11
12.93901048776166
 21
26.50754790244767
 31
0.0
  0
LINE
  5
B6C
330
1F
100
AcDbEntity
  8
2
  6
CONTINUOUS
370
25
 62
7
100
AcDbLine
 10
11.80522704910105
 20
28.0655954098202
 30
0.0
 11
13.46934057365157
 21
26.40148188526969
 31
0.0
  0
LINE
  5
B6D
330
1F
100
AcDbEntity
  8
2
  6
CONTINUOUS
370
25
 62
7
100
AcDbLine
 10
12.15878043969433
 20
28.13630608793886
 30
0.0
 11
13.477
 21
26.81808652763318
 31
0.0
  0
LINE
  5
B6E
330
1F
100
AcDbEntity
  8
2
  6
CONTINUOUS
370
25
 62
7
100
AcDbLine
 10
12.5123338302876
 20
28.20701676605751
 30
0.0
 11
13.477
 21
27.24235059634511
 31
0.0
  0
LINE
  5
B6F
330
1F
100
AcDbEntity
  8
2
  6
CONTINUOUS
370
25
 62
7
100
AcDbLine
 10
12.86588722088087
 20
28.27772744417617
 30
0.0
 11
13.477
 21
27.66661466505704
 31
0.0
  0
LINE
  5
B70
330
1F
100
AcDbEntity
  8
2
  6
CONTINUOUS
370
25
 62
7
100
AcDbLine
 10
13.21944061147415
 20
28.34843812229482
 30
0.0
 11
13.477
 21
28.09087873376897
 31
0.0
  0
TEXT
  5
B71
330
1F
100
AcDbEntity
  8
2
  6
CONTINUOUS
370
25
 62
7
100
AcDbText
 10
14.9145
 20
28.89995
 30
0.0
 40
3.5
  1
8.487
 72
     1
 11
21.9145
 21
28.89995
 31
0.0
100
AcDbText
  0
LINE
  5
B72
330
1F
100
AcDbEntity
  8
SK2
  6
CONTINUOUS
370
25
 62
7
100
AcDbLine
 10
-41.523
 20
-0.0000500000000001
 30
0.0
 11
-41.523
 21
38.39995
 31
0.0
  0
LINE
  5
B73
330
1F
100
AcDbEntity
  8
SK2
  6
CONTINUOUS
370
25
 62
7
100
AcDbLine
 10
8.477000000000002
 20
38.39995
 30
0.0
 11
8.477
 21
0.1299999999999955
 31
0.0
  0
LINE
  5
B74
330
1F
100
AcDbEntity
  8
SK2
  6
CONTINUOUS
370
25
 62
7
100
AcDbLine
 10
-41.523
 20
37.39995
 30
0.0
 11
8.477000000000002
 21
37.39995
 31
0.0
  0
LINE
  5
B75
330
1F
100
AcDbEntity
  8
SK2
  6
CONTINUOUS
370
25
 62
7
100
AcDbLine
 10
-41.523
 20
37.39995
 30
0.0
 11
-36.523
 21
38.39995
 31
0.0
  0
LINE
  5
B76
330
1F
100
AcDbEntity
  8
SK2
  6
CONTINUOUS
370
25
 62
7
100
AcDbLine
 10
-36.523
 20
38.39995
 30
0.0
 11
-36.523
 21
36.39995
 31
0.0
  0
LINE
  5
B77
330
1F
100
AcDbEntity
  8
SK2
  6
CONTINUOUS
370
25
 62
7
100
AcDbLine
 10
-36.523
 20
36.39995
 30
0.0
 11
-41.523
 21
37.39995
 31
0.0
  0
LINE
  5
B78
330
1F
100
AcDbEntity
  8
SK2
  6
CONTINUOUS
370
25
 62
7
100
AcDbLine
 10
-36.57339151537642
 20
36.41002830307529
 30
0.0
 11
-36.523
 21
36.46041981845171
 31
0.0
  0
LINE
  5
B79
330
1F
100
AcDbEntity
  8
SK2
  6
CONTINUOUS
370
25
 62
7
100
AcDbLine
 10
-36.92694490596971
 20
36.48073898119394
 30
0.0
 11
-36.523
 21
36.88468388716365
 31
0.0
  0
LINE
  5
B7A
330
1F
100
AcDbEntity
  8
SK2
  6
CONTINUOUS
370
25
 62
7
100
AcDbLine
 10
-37.28049829656297
 20
36.5514496593126
 30
0.0
 11
-36.523
 21
37.30894795587557
 31
0.0
  0
LINE
  5
B7B
330
1F
100
AcDbEntity
  8
SK2
  6
CONTINUOUS
370
25
 62
7
100
AcDbLine
 10
-37.63405168715627
 20
36.62216033743125
 30
0.0
 11
-36.523
 21
37.73321202458752
 31
0.0
  0
LINE
  5
B7C
330
1F
100
AcDbEntity
  8
SK2
  6
CONTINUOUS
370
25
 62
7
100
AcDbLine
 10
-37.98760507774954
 20
36.6928710155499
 30
0.0
 11
-36.523
 21
38.15747609329945
 31
0.0
  0
LINE
  5
B7D
330
1F
100
AcDbEntity
  8
SK2
  6
CONTINUOUS
370
25
 62
7
100
AcDbLine
 10
-38.34115846834281
 20
36.76358169366856
 30
0.0
 11
-36.75023770251423
 21
38.35450245949716
 31
0.0
  0
LINE
  5
B7E
330
1F
100
AcDbEntity
  8
SK2
  6
CONTINUOUS
370
25
 62
7
100
AcDbLine
 10
-38.6947118589361
 20
36.83429237178721
 30
0.0
 11
-37.28056778840414
 21
38.24843644231917
 31
0.0
  0
LINE
  5
B7F
330
1F
100
AcDbEntity
  8
SK2
  6
CONTINUOUS
370
25
 62
7
100
AcDbLine
 10
-39.04826524952939
 20
36.90500304990587
 30
0.0
 11
-37.81089787429408
 21
38.14237042514118
 31
0.0
  0
LINE
  5
B80
330
1F
100
AcDbEntity
  8
SK2
  6
CONTINUOUS
370
25
 62
7
100
AcDbLine
 10
-39.40181864012265
 20
36.97571372802453
 30
0.0
 11
-38.34122796018398
 21
38.0363044079632
 31
0.0
  0
LINE
  5
B81
330
1F
100
AcDbEntity
  8
SK2
  6
CONTINUOUS
370
25
 62
7
100
AcDbLine
 10
-39.75537203071594
 20
37.04642440614319
 30
0.0
 11
-38.87155804607391
 21
37.93023839078521
 31
0.0
  0
LINE
  5
B82
330
1F
100
AcDbEntity
  8
SK2
  6
CONTINUOUS
370
25
 62
7
100
AcDbLine
 10
-40.10892542130921
 20
37.11713508426183
 30
0.0
 11
-39.40188813196382
 21
37.82417237360723
 31
0.0
  0
LINE
  5
B83
330
1F
100
AcDbEntity
  8
SK2
  6
CONTINUOUS
370
25
 62
7
100
AcDbLine
 10
-40.4624788119025
 20
37.18784576238049
 30
0.0
 11
-39.93221821785374
 21
37.71810635642925
 31
0.0
  0
LINE
  5
B84
330
1F
100
AcDbEntity
  8
SK2
  6
CONTINUOUS
370
25
 62
7
100
AcDbLine
 10
-40.81603220249576
 20
37.25855644049915
 30
0.0
 11
-40.46254830374365
 21
37.61204033925127
 31
0.0
  0
LINE
  5
B85
330
1F
100
AcDbEntity
  8
SK2
  6
CONTINUOUS
370
25
 62
7
100
AcDbLine
 10
-41.16958559308905
 20
37.32926711861781
 30
0.0
 11
-40.99287838963358
 21
37.50597432207328
 31
0.0
  0
LINE
  5
B86
330
1F
100
AcDbEntity
  8
SK2
  6
CONTINUOUS
370
25
 62
7
100
AcDbLine
 10
-41.40104268656155
 20
37.42434146268769
 30
0.0
 11
-41.34006402984232
 21
37.36336280596846
 31
0.0
  0
LINE
  5
B87
330
1F
100
AcDbEntity
  8
SK2
  6
CONTINUOUS
370
25
 62
7
100
AcDbLine
 10
-41.04748929596827
 20
37.49505214080634
 30
0.0
 11
-40.80973394395241
 21
37.25729678879048
 31
0.0
  0
LINE
  5
B88
330
1F
100
AcDbEntity
  8
SK2
  6
CONTINUOUS
370
25
 62
7
100
AcDbLine
 10
-40.69393590537499
 20
37.56576281892499
 30
0.0
 11
-40.27940385806249
 21
37.1512307716125
 31
0.0
  0
LINE
  5
B89
330
1F
100
AcDbEntity
  8
SK2
  6
CONTINUOUS
370
25
 62
7
100
AcDbLine
 10
-40.34038251478172
 20
37.63647349704365
 30
0.0
 11
-39.74907377217258
 21
37.04516475443452
 31
0.0
  0
LINE
  5
B8A
330
1F
100
AcDbEntity
  8
SK2
  6
CONTINUOUS
370
25
 62
7
100
AcDbLine
 10
-39.98682912418844
 20
37.70718417516231
 30
0.0
 11
-39.21874368628266
 21
36.93909873725653
 31
0.0
  0
LINE
  5
B8B
330
1F
100
AcDbEntity
  8
SK2
  6
CONTINUOUS
370
25
 62
7
100
AcDbLine
 10
-39.63327573359516
 20
37.77789485328097
 30
0.0
 11
-38.68841360039274
 21
36.83303272007854
 31
0.0
  0
LINE
  5
B8C
330
1F
100
AcDbEntity
  8
SK2
  6
CONTINUOUS
370
25
 62
7
100
AcDbLine
 10
-39.27972234300188
 20
37.84860553139962
 30
0.0
 11
-38.15808351450283
 21
36.72696670290056
 31
0.0
  0
LINE
  5
B8D
330
1F
100
AcDbEntity
  8
SK2
  6
CONTINUOUS
370
25
 62
7
100
AcDbLine
 10
-38.9261689524086
 20
37.91931620951828
 30
0.0
 11
-37.6277534286129
 21
36.62090068572257
 31
0.0
  0
LINE
  5
B8E
330
1F
100
AcDbEntity
  8
SK2
  6
CONTINUOUS
370
25
 62
7
100
AcDbLine
 10
-38.57261556181532
 20
37.99002688763693
 30
0.0
 11
-37.09742334272298
 21
36.51483466854459
 31
0.0
  0
LINE
  5
B8F
330
1F
100
AcDbEntity
  8
SK2
  6
CONTINUOUS
370
25
 62
7
100
AcDbLine
 10
-38.21906217122204
 20
38.06073756575559
 30
0.0
 11
-36.56709325683306
 21
36.40876865136661
 31
0.0
  0
LINE
  5
B90
330
1F
100
AcDbEntity
  8
SK2
  6
CONTINUOUS
370
25
 62
7
100
AcDbLine
 10
-37.86550878062876
 20
38.13144824387424
 30
0.0
 11
-36.523
 21
36.78893946324548
 31
0.0
  0
LINE
  5
B91
330
1F
100
AcDbEntity
  8
SK2
  6
CONTINUOUS
370
25
 62
7
100
AcDbLine
 10
-37.51195539003548
 20
38.2021589219929
 30
0.0
 11
-36.523
 21
37.21320353195741
 31
0.0
  0
LINE
  5
B92
330
1F
100
AcDbEntity
  8
SK2
  6
CONTINUOUS
370
25
 62
7
100
AcDbLine
 10
-37.15840199944221
 20
38.27286960011156
 30
0.0
 11
-36.523
 21
37.63746760066935
 31
0.0
  0
LINE
  5
B93
330
1F
100
AcDbEntity
  8
SK2
  6
CONTINUOUS
370
25
 62
7
100
AcDbLine
 10
-36.80484860884893
 20
38.34358027823021
 30
0.0
 11
-36.523
 21
38.06173166938128
 31
0.0
  0
LINE
  5
B94
330
1F
100
AcDbEntity
  8
SK2
  6
CONTINUOUS
370
25
 62
7
100
AcDbLine
 10
8.477000000000002
 20
37.39995
 30
0.0
 11
3.477000000000002
 21
36.39995
 31
0.0
  0
LINE
  5
B95
330
1F
100
AcDbEntity
  8
SK2
  6
CONTINUOUS
370
25
 62
7
100
AcDbLine
 10
3.477000000000002
 20
36.39995
 30
0.0
 11
3.477000000000002
 21
38.39995
 31
0.0
  0
LINE
  5
B96
330
1F
100
AcDbEntity
  8
SK2
  6
CONTINUOUS
370
25
 62
7
100
AcDbLine
 10
3.477000000000002
 20
38.39995
 30
0.0
 11
8.477000000000002
 21
37.39995
 31
0.0
  0
LINE
  5
B97
330
1F
100
AcDbEntity
  8
SK2
  6
CONTINUOUS
370
25
 62
7
100
AcDbLine
 10
8.025411573596223
 20
37.30963231471924
 30
0.0
 11
8.175941049064152
 21
37.46016179018717
 31
0.0
  0
LINE
  5
B98
330
1F
100
AcDbEntity
  8
SK2
  6
CONTINUOUS
370
25
 62
7
100
AcDbLine
 10
7.49508148770631
 20
37.20356629754126
 30
0.0
 11
7.822387658470876
 21
37.53087246830582
 31
0.0
  0
LINE
  5
B99
330
1F
100
AcDbEntity
  8
SK2
  6
CONTINUOUS
370
25
 62
7
100
AcDbLine
 10
6.964751401816402
 20
37.09750028036328
 30
0.0
 11
7.468834267877604
 21
37.60158314642448
 31
0.0
  0
LINE
  5
B9A
330
1F
100
AcDbEntity
  8
SK2
  6
CONTINUOUS
370
25
 62
7
100
AcDbLine
 10
6.434421315926484
 20
36.99143426318529
 30
0.0
 11
7.115280877284325
 21
37.67229382454313
 31
0.0
  0
LINE
  5
B9B
330
1F
100
AcDbEntity
  8
SK2
  6
CONTINUOUS
370
25
 62
7
100
AcDbLine
 10
5.904091230036572
 20
36.88536824600731
 30
0.0
 11
6.761727486691051
 21
37.74300450266179
 31
0.0
  0
LINE
  5
B9C
330
1F
100
AcDbEntity
  8
SK2
  6
CONTINUOUS
370
25
 62
7
100
AcDbLine
 10
5.37376114414666
 20
36.77930222882932
 30
0.0
 11
6.408174096097775
 21
37.81371518078044
 31
0.0
  0
LINE
  5
B9D
330
1F
100
AcDbEntity
  8
SK2
  6
CONTINUOUS
370
25
 62
7
100
AcDbLine
 10
4.843431058256743
 20
36.67323621165134
 30
0.0
 11
6.054620705504496
 21
37.8844258588991
 31
0.0
  0
LINE
  5
B9E
330
1F
100
AcDbEntity
  8
SK2
  6
CONTINUOUS
370
25
 62
7
100
AcDbLine
 10
4.313100972366835
 20
36.56717019447336
 30
0.0
 11
5.701067314911224
 21
37.95513653701775
 31
0.0
  0
LINE
  5
B9F
330
1F
100
AcDbEntity
  8
SK2
  6
CONTINUOUS
370
25
 62
7
100
AcDbLine
 10
3.782770886476918
 20
36.46110417729538
 30
0.0
 11
5.347513924317946
 21
38.02584721513641
 31
0.0
  0
LINE
  5
BA0
330
1F
100
AcDbEntity
  8
SK2
  6
CONTINUOUS
370
25
 62
7
100
AcDbLine
 10
3.477000000000002
 20
36.5795973595304
 30
0.0
 11
4.993960533724668
 21
38.09655789325507
 31
0.0
  0
LINE
  5
BA1
330
1F
100
AcDbEntity
  8
SK2
  6
CONTINUOUS
370
25
 62
7
100
AcDbLine
 10
3.477000000000002
 20
37.00386142824232
 30
0.0
 11
4.640407143131395
 21
38.16726857137372
 31
0.0
  0
LINE
  5
BA2
330
1F
100
AcDbEntity
  8
SK2
  6
CONTINUOUS
370
25
 62
7
100
AcDbLine
 10
3.477000000000002
 20
37.42812549695426
 30
0.0
 11
4.286853752538117
 21
38.23797924949238
 31
0.0
  0
LINE
  5
BA3
330
1F
100
AcDbEntity
  8
SK2
  6
CONTINUOUS
370
25
 62
7
100
AcDbLine
 10
3.477000000000002
 20
37.85238956566619
 30
0.0
 11
3.933300361944839
 21
38.30868992761103
 31
0.0
  0
LINE
  5
BA4
330
1F
100
AcDbEntity
  8
SK2
  6
CONTINUOUS
370
25
 62
7
100
AcDbLine
 10
3.477000000000002
 20
38.27665363437812
 30
0.0
 11
3.579746971351566
 21
38.37940060572969
 31
0.0
  0
LINE
  5
BA5
330
1F
100
AcDbEntity
  8
SK2
  6
CONTINUOUS
370
25
 62
7
100
AcDbLine
 10
3.477000000000002
 20
36.81808652763318
 30
0.0
 11
3.825447106360985
 21
36.46963942127219
 31
0.0
  0
LINE
  5
BA6
330
1F
100
AcDbEntity
  8
SK2
  6
CONTINUOUS
370
25
 62
7
100
AcDbLine
 10
3.477000000000002
 20
37.2423505963451
 30
0.0
 11
4.179000496954256
 21
36.54035009939085
 31
0.0
  0
LINE
  5
BA7
330
1F
100
AcDbEntity
  8
SK2
  6
CONTINUOUS
370
25
 62
7
100
AcDbLine
 10
3.477000000000002
 20
37.66661466505703
 30
0.0
 11
4.532553887547533
 21
36.6110607775095
 31
0.0
  0
LINE
  5
BA8
330
1F
100
AcDbEntity
  8
SK2
  6
CONTINUOUS
370
25
 62
7
100
AcDbLine
 10
3.477000000000002
 20
38.09087873376897
 30
0.0
 11
4.88610727814081
 21
36.68177145562816
 31
0.0
  0
LINE
  5
BA9
330
1F
100
AcDbEntity
  8
SK2
  6
CONTINUOUS
370
25
 62
7
100
AcDbLine
 10
3.620991003101123
 20
38.37115179937977
 30
0.0
 11
5.239660668734082
 21
36.75248213374681
 31
0.0
  0
LINE
  5
BAA
330
1F
100
AcDbEntity
  8
SK2
  6
CONTINUOUS
370
25
 62
7
100
AcDbLine
 10
4.15132108899104
 20
38.26508578220179
 30
0.0
 11
5.59321405932736
 21
36.82319281186547
 31
0.0
  0
LINE
  5
BAB
330
1F
100
AcDbEntity
  8
SK2
  6
CONTINUOUS
370
25
 62
7
100
AcDbLine
 10
4.681651174880948
 20
38.15901976502381
 30
0.0
 11
5.946767449920634
 21
36.89390348998412
 31
0.0
  0
LINE
  5
BAC
330
1F
100
AcDbEntity
  8
SK2
  6
CONTINUOUS
370
25
 62
7
100
AcDbLine
 10
5.211981260770863
 20
38.05295374784583
 30
0.0
 11
6.30032084051391
 21
36.96461416810278
 31
0.0
  0
LINE
  5
BAD
330
1F
100
AcDbEntity
  8
SK2
  6
CONTINUOUS
370
25
 62
7
100
AcDbLine
 10
5.742311346660781
 20
37.94688773066784
 30
0.0
 11
6.653874231107189
 21
37.03532484622144
 31
0.0
  0
LINE
  5
BAE
330
1F
100
AcDbEntity
  8
SK2
  6
CONTINUOUS
370
25
 62
7
100
AcDbLine
 10
6.272641432550689
 20
37.84082171348986
 30
0.0
 11
7.007427621700462
 21
37.10603552434009
 31
0.0
  0
LINE
  5
BAF
330
1F
100
AcDbEntity
  8
SK2
  6
CONTINUOUS
370
25
 62
7
100
AcDbLine
 10
6.802971518440605
 20
37.73475569631188
 30
0.0
 11
7.36098101229374
 21
37.17674620245874
 31
0.0
  0
LINE
  5
BB0
330
1F
100
AcDbEntity
  8
SK2
  6
CONTINUOUS
370
25
 62
7
100
AcDbLine
 10
7.333301604330523
 20
37.62868967913389
 30
0.0
 11
7.714534402887018
 21
37.2474568805774
 31
0.0
  0
LINE
  5
BB1
330
1F
100
AcDbEntity
  8
SK2
  6
CONTINUOUS
370
25
 62
7
100
AcDbLine
 10
7.863631690220431
 20
37.52262366195591
 30
0.0
 11
8.06808779348029
 21
37.31816755869605
 31
0.0
  0
LINE
  5
BB2
330
1F
100
AcDbEntity
  8
SK2
  6
CONTINUOUS
370
25
 62
7
100
AcDbLine
 10
8.393961776110348
 20
37.41655764477792
 30
0.0
 11
8.421641184073568
 21
37.3888782368147
 31
0.0
  0
TEXT
  5
BB3
330
1F
100
AcDbEntity
  8
SK2
  6
CONTINUOUS
370
25
 62
7
100
AcDbText
 10
-19.148
 20
38.89995
 30
0.0
 40
3.5
  1
50
 72
     1
 11
-16.523
 21
38.89995
 31
0.0
100
AcDbText
  0
LINE
  5
BB4
330
1F
100
AcDbEntity
  8
2
  6
CONTINUOUS
370
25
 62
7
100
AcDbLine
 10
6.477
 20
-0.13995
 30
0.0
 11
6.476999999999999
 21
-33.15
 31
0.0
  0
LINE
  5
BB5
330
1F
100
AcDbEntity
  8
2
  6
CONTINUOUS
370
25
 62
7
100
AcDbLine
 10
8.476999999999999
 20
-33.15
 30
0.0
 11
8.477
 21
-0.1299999999999955
 31
0.0
  0
LINE
  5
BB6
330
1F
100
AcDbEntity
  8
2
  6
CONTINUOUS
370
25
 62
7
100
AcDbLine
 10
-0.5230000000000017
 20
-32.15
 30
0.0
 11
18.452
 21
-32.15
 31
0.0
  0
LINE
  5
BB7
330
1F
100
AcDbEntity
  8
2
  6
CONTINUOUS
370
25
 62
7
100
AcDbLine
 10
6.476999999999999
 20
-32.15
 30
0.0
 11
1.476999999999998
 21
-33.15
 31
0.0
  0
LINE
  5
BB8
330
1F
100
AcDbEntity
  8
2
  6
CONTINUOUS
370
25
 62
7
100
AcDbLine
 10
1.476999999999998
 20
-33.15
 30
0.0
 11
1.476999999999998
 21
-31.15
 31
0.0
  0
LINE
  5
BB9
330
1F
100
AcDbEntity
  8
2
  6
CONTINUOUS
370
25
 62
7
100
AcDbLine
 10
1.476999999999998
 20
-31.15
 30
0.0
 11
6.476999999999999
 21
-32.15
 31
0.0
  0
LINE
  5
BBA
330
1F
100
AcDbEntity
  8
2
  6
CONTINUOUS
370
25
 62
7
100
AcDbLine
 10
5.961934486869724
 20
-32.25301310262606
 30
0.0
 11
6.133622991246487
 21
-32.0813245982493
 31
0.0
  0
LINE
  5
BBB
330
1F
100
AcDbEntity
  8
2
  6
CONTINUOUS
370
25
 62
7
100
AcDbLine
 10
5.431604400979817
 20
-32.35907911980404
 30
0.0
 11
5.780069600653214
 21
-32.01061392013064
 31
0.0
  0
LINE
  5
BBC
330
1F
100
AcDbEntity
  8
2
  6
CONTINUOUS
370
25
 62
7
100
AcDbLine
 10
4.901274315089897
 20
-32.46514513698202
 30
0.0
 11
5.426516210059936
 21
-31.93990324201199
 31
0.0
  0
LINE
  5
BBD
330
1F
100
AcDbEntity
  8
2
  6
CONTINUOUS
370
25
 62
7
100
AcDbLine
 10
4.370944229199988
 20
-32.57121115416
 30
0.0
 11
5.072962819466664
 21
-31.86919256389333
 31
0.0
  0
LINE
  5
BBE
330
1F
100
AcDbEntity
  8
2
  6
CONTINUOUS
370
25
 62
7
100
AcDbLine
 10
3.840614143310068
 20
-32.67727717133799
 30
0.0
 11
4.719409428873385
 21
-31.79848188577468
 31
0.0
  0
LINE
  5
BBF
330
1F
100
AcDbEntity
  8
2
  6
CONTINUOUS
370
25
 62
7
100
AcDbLine
 10
3.310284057420158
 20
-32.78334318851597
 30
0.0
 11
4.365856038280112
 21
-31.72777120765602
 31
0.0
  0
LINE
  5
BC0
330
1F
100
AcDbEntity
  8
2
  6
CONTINUOUS
370
25
 62
7
100
AcDbLine
 10
2.779953971530246
 20
-32.88940920569395
 30
0.0
 11
4.012302647686839
 21
-31.65706052953737
 31
0.0
  0
LINE
  5
BC1
330
1F
100
AcDbEntity
  8
2
  6
CONTINUOUS
370
25
 62
7
100
AcDbLine
 10
2.249623885640325
 20
-32.99547522287194
 30
0.0
 11
3.658749257093559
 21
-31.58634985141871
 31
0.0
  0
LINE
  5
BC2
330
1F
100
AcDbEntity
  8
2
  6
CONTINUOUS
370
25
 62
7
100
AcDbLine
 10
1.719293799750412
 20
-33.10154124004992
 30
0.0
 11
3.305195866500286
 21
-31.51563917330006
 31
0.0
  0
LINE
  5
BC3
330
1F
100
AcDbEntity
  8
2
  6
CONTINUOUS
370
25
 62
7
100
AcDbLine
 10
1.476999999999998
 20
-32.9195709710884
 30
0.0
 11
2.951642475907012
 21
-31.4449284951814
 31
0.0
  0
LINE
  5
BC4
330
1F
100
AcDbEntity
  8
2
  6
CONTINUOUS
370
25
 62
7
100
AcDbLine
 10
1.476999999999998
 20
-32.49530690237648
 30
0.0
 11
2.598089085313738
 21
-31.37421781706275
 31
0.0
  0
LINE
  5
BC5
330
1F
100
AcDbEntity
  8
2
  6
CONTINUOUS
370
25
 62
7
100
AcDbLine
 10
1.476999999999998
 20
-32.07104283366454
 30
0.0
 11
2.244535694720457
 21
-31.30350713894409
 31
0.0
  0
LINE
  5
BC6
330
1F
100
AcDbEntity
  8
2
  6
CONTINUOUS
370
25
 62
7
100
AcDbLine
 10
1.476999999999998
 20
-31.64677876495261
 30
0.0
 11
1.890982304127182
 21
-31.23279646082544
 31
0.0
  0
LINE
  5
BC7
330
1F
100
AcDbEntity
  8
2
  6
CONTINUOUS
370
25
 62
7
100
AcDbLine
 10
1.476999999999998
 20
-31.22251469624069
 30
0.0
 11
1.537428913533908
 21
-31.16208578270678
 31
0.0
  0
LINE
  5
BC8
330
1F
100
AcDbEntity
  8
2
  6
CONTINUOUS
370
25
 62
7
100
AcDbLine
 10
1.476999999999998
 20
-33.09775710115823
 30
0.0
 11
1.520535749034808
 21
-33.14129285019304
 31
0.0
  0
LINE
  5
BC9
330
1F
100
AcDbEntity
  8
2
  6
CONTINUOUS
370
25
 62
7
100
AcDbLine
 10
1.476999999999998
 20
-32.6734930324463
 30
0.0
 11
1.874089139628085
 21
-33.07058217207438
 31
0.0
  0
LINE
  5
BCA
330
1F
100
AcDbEntity
  8
2
  6
CONTINUOUS
370
25
 62
7
100
AcDbLine
 10
1.476999999999998
 20
-32.24922896373437
 30
0.0
 11
2.22764253022136
 21
-32.99987149395573
 31
0.0
  0
LINE
  5
BCB
330
1F
100
AcDbEntity
  8
2
  6
CONTINUOUS
370
25
 62
7
100
AcDbLine
 10
1.476999999999998
 20
-31.82496489502244
 30
0.0
 11
2.581195920814635
 21
-32.92916081583707
 31
0.0
  0
LINE
  5
BCC
330
1F
100
AcDbEntity
  8
2
  6
CONTINUOUS
370
25
 62
7
100
AcDbLine
 10
1.476999999999998
 20
-31.40070082631052
 30
0.0
 11
2.934749311407909
 21
-32.85845013771842
 31
0.0
  0
LINE
  5
BCD
330
1F
100
AcDbEntity
  8
2
  6
CONTINUOUS
370
25
 62
7
100
AcDbLine
 10
1.693954053001766
 20
-31.19339081060035
 30
0.0
 11
3.288302702001185
 21
-32.78773945959976
 31
0.0
  0
LINE
  5
BCE
330
1F
100
AcDbEntity
  8
2
  6
CONTINUOUS
370
25
 62
7
100
AcDbLine
 10
2.224284138891679
 20
-31.29945682777834
 30
0.0
 11
3.64185609259446
 21
-32.71702878148111
 31
0.0
  0
LINE
  5
BCF
330
1F
100
AcDbEntity
  8
2
  6
CONTINUOUS
370
25
 62
7
100
AcDbLine
 10
2.754614224781593
 20
-31.40552284495632
 30
0.0
 11
3.995409483187736
 21
-32.64631810336245
 31
0.0
  0
LINE
  5
BD0
330
1F
100
AcDbEntity
  8
2
  6
CONTINUOUS
370
25
 62
7
100
AcDbLine
 10
3.284944310671507
 20
-31.5115888621343
 30
0.0
 11
4.348962873781011
 21
-32.5756074252438
 31
0.0
  0
LINE
  5
BD1
330
1F
100
AcDbEntity
  8
2
  6
CONTINUOUS
370
25
 62
7
100
AcDbLine
 10
3.815274396561417
 20
-31.61765487931228
 30
0.0
 11
4.702516264374283
 21
-32.50489674712514
 31
0.0
  0
LINE
  5
BD2
330
1F
100
AcDbEntity
  8
2
  6
CONTINUOUS
370
25
 62
7
100
AcDbLine
 10
4.345604482451331
 20
-31.72372089649026
 30
0.0
 11
5.05606965496756
 21
-32.43418606900649
 31
0.0
  0
LINE
  5
BD3
330
1F
100
AcDbEntity
  8
2
  6
CONTINUOUS
370
25
 62
7
100
AcDbLine
 10
4.875934568341247
 20
-31.82978691366825
 30
0.0
 11
5.409623045560837
 21
-32.36347539088784
 31
0.0
  0
LINE
  5
BD4
330
1F
100
AcDbEntity
  8
2
  6
CONTINUOUS
370
25
 62
7
100
AcDbLine
 10
5.406264654231164
 20
-31.93585293084623
 30
0.0
 11
5.763176436154112
 21
-32.29276471276918
 31
0.0
  0
LINE
  5
BD5
330
1F
100
AcDbEntity
  8
2
  6
CONTINUOUS
370
25
 62
7
100
AcDbLine
 10
5.936594740121076
 20
-32.04191894802422
 30
0.0
 11
6.116729826747387
 21
-32.22205403465053
 31
0.0
  0
LINE
  5
BD6
330
1F
100
AcDbEntity
  8
2
  6
CONTINUOUS
370
25
 62
7
100
AcDbLine
 10
6.466924826010992
 20
-32.1479849652022
 30
0.0
 11
6.470283217340664
 21
-32.15134335653187
 31
0.0
  0
LINE
  5
BD7
330
1F
100
AcDbEntity
  8
2
  6
CONTINUOUS
370
25
 62
7
100
AcDbLine
 10
8.476999999999999
 20
-32.15
 30
0.0
 11
13.477
 21
-31.15
 31
0.0
  0
LINE
  5
BD8
330
1F
100
AcDbEntity
  8
2
  6
CONTINUOUS
370
25
 62
7
100
AcDbLine
 10
13.477
 20
-31.15
 30
0.0
 11
13.477
 21
-33.15
 31
0.0
  0
LINE
  5
BD9
330
1F
100
AcDbEntity
  8
2
  6
CONTINUOUS
370
25
 62
7
100
AcDbLine
 10
13.477
 20
-33.15
 30
0.0
 11
8.476999999999999
 21
-32.15
 31
0.0
  0
LINE
  5
BDA
330
1F
100
AcDbEntity
  8
2
  6
CONTINUOUS
370
25
 62
7
100
AcDbLine
 10
13.18387552294065
 20
-33.09137510458812
 30
0.0
 11
13.477
 21
-32.79825062752877
 31
0.0
  0
LINE
  5
BDB
330
1F
100
AcDbEntity
  8
2
  6
CONTINUOUS
370
25
 62
7
100
AcDbLine
 10
12.83032213234737
 20
-33.02066442646947
 30
0.0
 11
13.477
 21
-32.37398655881685
 31
0.0
  0
LINE
  5
BDC
330
1F
100
AcDbEntity
  8
2
  6
CONTINUOUS
370
25
 62
7
100
AcDbLine
 10
12.4767687417541
 20
-32.94995374835081
 30
0.0
 11
13.477
 21
-31.94972249010492
 31
0.0
  0
LINE
  5
BDD
330
1F
100
AcDbEntity
  8
2
  6
CONTINUOUS
370
25
 62
7
100
AcDbLine
 10
12.12321535116083
 20
-32.87924307023216
 30
0.0
 11
13.477
 21
-31.52545842139299
 31
0.0
  0
LINE
  5
BDE
330
1F
100
AcDbEntity
  8
2
  6
CONTINUOUS
370
25
 62
7
100
AcDbLine
 10
11.76966196056755
 20
-32.80853239211351
 30
0.0
 11
13.41599294085133
 21
-31.16220141182973
 31
0.0
  0
LINE
  5
BDF
330
1F
100
AcDbEntity
  8
2
  6
CONTINUOUS
370
25
 62
7
100
AcDbLine
 10
11.41610856997427
 20
-32.73782171399485
 30
0.0
 11
12.88566285496142
 21
-31.26826742900771
 31
0.0
  0
LINE
  5
BE0
330
1F
100
AcDbEntity
  8
2
  6
CONTINUOUS
370
25
 62
7
100
AcDbLine
 10
11.062555179381
 20
-32.6671110358762
 30
0.0
 11
12.3553327690715
 21
-31.3743334461857
 31
0.0
  0
LINE
  5
BE1
330
1F
100
AcDbEntity
  8
2
  6
CONTINUOUS
370
25
 62
7
100
AcDbLine
 10
10.70900178878773
 20
-32.59640035775755
 30
0.0
 11
11.82500268318159
 21
-31.48039946336368
 31
0.0
  0
LINE
  5
BE2
330
1F
100
AcDbEntity
  8
2
  6
CONTINUOUS
370
25
 62
7
100
AcDbLine
 10
10.35544839819445
 20
-32.52568967963889
 30
0.0
 11
11.29467259729168
 21
-31.58646548054167
 31
0.0
  0
LINE
  5
BE3
330
1F
100
AcDbEntity
  8
2
  6
CONTINUOUS
370
25
 62
7
100
AcDbLine
 10
10.00189500760117
 20
-32.45497900152023
 30
0.0
 11
10.76434251140176
 21
-31.69253149771965
 31
0.0
  0
LINE
  5
BE4
330
1F
100
AcDbEntity
  8
2
  6
CONTINUOUS
370
25
 62
7
100
AcDbLine
 10
9.648341617007896
 20
-32.38426832340158
 30
0.0
 11
10.23401242551185
 21
-31.79859751489763
 31
0.0
  0
LINE
  5
BE5
330
1F
100
AcDbEntity
  8
2
  6
CONTINUOUS
370
25
 62
7
100
AcDbLine
 10
9.294788226414624
 20
-32.31355764528292
 30
0.0
 11
9.703682339621935
 21
-31.90466353207562
 31
0.0
  0
LINE
  5
BE6
330
1F
100
AcDbEntity
  8
2
  6
CONTINUOUS
370
25
 62
7
100
AcDbLine
 10
8.941234835821346
 20
-32.24284696716427
 30
0.0
 11
9.173352253732018
 21
-32.0107295492536
 31
0.0
  0
LINE
  5
BE7
330
1F
100
AcDbEntity
  8
2
  6
CONTINUOUS
370
25
 62
7
100
AcDbLine
 10
8.587681445228075
 20
-32.17213628904561
 30
0.0
 11
8.643022167842108
 21
-32.11679556643158
 31
0.0
  0
LINE
  5
BE8
330
1F
100
AcDbEntity
  8
2
  6
CONTINUOUS
370
25
 62
7
100
AcDbLine
 10
8.570788280728971
 20
-32.1312423438542
 30
0.0
 11
8.617682421093452
 21
-32.17813648421868
 31
0.0
  0
LINE
  5
BE9
330
1F
100
AcDbEntity
  8
2
  6
CONTINUOUS
370
25
 62
7
100
AcDbLine
 10
8.924341671322244
 20
-32.06053166573555
 30
0.0
 11
9.148012506983365
 21
-32.28420250139667
 31
0.0
  0
LINE
  5
BEA
330
1F
100
AcDbEntity
  8
2
  6
CONTINUOUS
370
25
 62
7
100
AcDbLine
 10
9.277895061915519
 20
-31.98982098761689
 30
0.0
 11
9.678342592873276
 21
-32.39026851857465
 31
0.0
  0
LINE
  5
BEB
330
1F
100
AcDbEntity
  8
2
  6
CONTINUOUS
370
25
 62
7
100
AcDbLine
 10
9.631448452508794
 20
-31.91911030949824
 30
0.0
 11
10.20867267876319
 21
-32.49633453575264
 31
0.0
  0
LINE
  5
BEC
330
1F
100
AcDbEntity
  8
2
  6
CONTINUOUS
370
25
 62
7
100
AcDbLine
 10
9.985001843102069
 20
-31.84839963137959
 30
0.0
 11
10.7390027646531
 21
-32.60240055293062
 31
0.0
  0
LINE
  5
BED
330
1F
100
AcDbEntity
  8
2
  6
CONTINUOUS
370
25
 62
7
100
AcDbLine
 10
10.33855523369534
 20
-31.77768895326093
 30
0.0
 11
11.26933285054302
 21
-32.7084665701086
 31
0.0
  0
LINE
  5
BEE
330
1F
100
AcDbEntity
  8
2
  6
CONTINUOUS
370
25
 62
7
100
AcDbLine
 10
10.69210862428862
 20
-31.70697827514228
 30
0.0
 11
11.79966293643293
 21
-32.81453258728659
 31
0.0
  0
LINE
  5
BEF
330
1F
100
AcDbEntity
  8
2
  6
CONTINUOUS
370
25
 62
7
100
AcDbLine
 10
11.04566201488189
 20
-31.63626759702362
 30
0.0
 11
12.32999302232284
 21
-32.92059860446457
 31
0.0
  0
LINE
  5
BF0
330
1F
100
AcDbEntity
  8
2
  6
CONTINUOUS
370
25
 62
7
100
AcDbLine
 10
11.39921540547517
 20
-31.56555691890497
 30
0.0
 11
12.86032310821276
 21
-33.02666462164255
 31
0.0
  0
LINE
  5
BF1
330
1F
100
AcDbEntity
  8
2
  6
CONTINUOUS
370
25
 62
7
100
AcDbLine
 10
11.75276879606844
 20
-31.49484624078631
 30
0.0
 11
13.39065319410268
 21
-33.13273063882053
 31
0.0
  0
LINE
  5
BF2
330
1F
100
AcDbEntity
  8
2
  6
CONTINUOUS
370
25
 62
7
100
AcDbLine
 10
12.10632218666172
 20
-31.42413556266766
 30
0.0
 11
13.477
 21
-32.79481337600593
 31
0.0
  0
LINE
  5
BF3
330
1F
100
AcDbEntity
  8
2
  6
CONTINUOUS
370
25
 62
7
100
AcDbLine
 10
12.459875577255
 20
-31.353424884549
 30
0.0
 11
13.477
 21
-32.370549307294
 31
0.0
  0
LINE
  5
BF4
330
1F
100
AcDbEntity
  8
2
  6
CONTINUOUS
370
25
 62
7
100
AcDbLine
 10
12.81342896784827
 20
-31.28271420643035
 30
0.0
 11
13.477
 21
-31.94628523858207
 31
0.0
  0
LINE
  5
BF5
330
1F
100
AcDbEntity
  8
2
  6
CONTINUOUS
370
25
 62
7
100
AcDbLine
 10
13.16698235844155
 20
-31.21200352831169
 30
0.0
 11
13.477
 21
-31.52202116987014
 31
0.0
  0
TEXT
  5
BF6
330
1F
100
AcDbEntity
  8
2
  6
CONTINUOUS
370
25
 62
7
100
AcDbText
 10
14.79783333333333
 20
-30.65
 30
0.0
 40
3.5
  1
2
 72
     1
 11
15.9645
 21
-30.65
 31
0.0
100
AcDbText
  0
LINE
  5
BF7
330
1F
100
AcDbEntity
  8
2
  6
CONTINUOUS
370
25
 62
7
100
AcDbLine
 10
8.47114214
 20
-0.14414214
 30
0.0
 11
27.3269500034555
 21
-18.99995000345547
 31
0.0
  0
LINE
  5
BF8
330
1F
100
AcDbEntity
  8
2
  6
CONTINUOUS
370
25
 62
7
100
AcDbLine
 10
27.3269500034555
 20
-18.99995000345547
 30
0.0
 11
40.2269500034555
 21
-18.99995000345547
 31
0.0
  0
LINE
  5
BF9
330
1F
100
AcDbEntity
  8
2
  6
CONTINUOUS
370
25
 62
7
100
AcDbLine
 10
8.47114214
 20
-0.14414214
 30
0.0
 11
8.457000004376269
 21
-0.1300000043762691
 31
0.0
  0
LINE
  5
BFA
330
1F
100
AcDbEntity
  8
2
  6
CONTINUOUS
370
25
 62
7
100
AcDbLine
 10
8.47114214
 20
-0.14414214
 30
0.0
 11
12.71378282711929
 21
-2.972569264746187
 31
0.0
  0
LINE
  5
BFB
330
1F
100
AcDbEntity
  8
2
  6
CONTINUOUS
370
25
 62
7
100
AcDbLine
 10
12.71378282711929
 20
-2.972569264746187
 30
0.0
 11
11.29956926474619
 21
-4.386782827119283
 31
0.0
  0
LINE
  5
BFC
330
1F
100
AcDbEntity
  8
2
  6
CONTINUOUS
370
25
 62
7
100
AcDbLine
 10
11.29956926474619
 20
-4.386782827119283
 30
0.0
 11
8.47114214
 21
-0.14414214
 31
0.0
  0
LINE
  5
BFD
330
1F
100
AcDbEntity
  8
2
  6
CONTINUOUS
370
25
 62
7
100
AcDbLine
 10
11.24243510206092
 20
-4.301081583091372
 30
0.0
 11
12.62808158309138
 21
-2.915435102060915
 31
0.0
  0
LINE
  5
BFE
330
1F
100
AcDbEntity
  8
2
  6
CONTINUOUS
370
25
 62
7
100
AcDbLine
 10
11.07272947457615
 20
-4.046523141864215
 30
0.0
 11
12.37352314186422
 21
-2.745729474576143
 31
0.0
  0
LINE
  5
BFF
330
1F
100
AcDbEntity
  8
2
  6
CONTINUOUS
370
25
 62
7
100
AcDbLine
 10
10.90302384709137
 20
-3.79196470063706
 30
0.0
 11
12.11896470063706
 21
-2.576023847091371
 31
0.0
  0
LINE
  5
C00
330
1F
100
AcDbEntity
  8
2
  6
CONTINUOUS
370
25
 62
7
100
AcDbLine
 10
10.7333182196066
 20
-3.537406259409902
 30
0.0
 11
11.86440625940991
 21
-2.406318219606598
 31
0.0
  0
LINE
  5
C01
330
1F
100
AcDbEntity
  8
2
  6
CONTINUOUS
370
25
 62
7
100
AcDbLine
 10
10.56361259212183
 20
-3.282847818182747
 30
0.0
 11
11.60984781818275
 21
-2.236612592121828
 31
0.0
  0
LINE
  5
C02
330
1F
100
AcDbEntity
  8
2
  6
CONTINUOUS
370
25
 62
7
100
AcDbLine
 10
10.39390696463706
 20
-3.028289376955589
 30
0.0
 11
11.35528937695559
 21
-2.066906964637058
 31
0.0
  0
LINE
  5
C03
330
1F
100
AcDbEntity
  8
2
  6
CONTINUOUS
370
25
 62
7
100
AcDbLine
 10
10.22420133715229
 20
-2.773730935728434
 30
0.0
 11
11.10073093572844
 21
-1.897201337152287
 31
0.0
  0
LINE
  5
C04
330
1F
100
AcDbEntity
  8
2
  6
CONTINUOUS
370
25
 62
7
100
AcDbLine
 10
10.05449570966752
 20
-2.519172494501277
 30
0.0
 11
10.84617249450128
 21
-1.727495709667515
 31
0.0
  0
LINE
  5
C05
330
1F
100
AcDbEntity
  8
2
  6
CONTINUOUS
370
25
 62
7
100
AcDbLine
 10
9.884790082182745
 20
-2.264614053274121
 30
0.0
 11
10.59161405327412
 21
-1.557790082182745
 31
0.0
  0
LINE
  5
C06
330
1F
100
AcDbEntity
  8
2
  6
CONTINUOUS
370
25
 62
7
100
AcDbLine
 10
9.715084454697974
 20
-2.010055612046964
 30
0.0
 11
10.33705561204697
 21
-1.388084454697973
 31
0.0
  0
LINE
  5
C07
330
1F
100
AcDbEntity
  8
2
  6
CONTINUOUS
370
25
 62
7
100
AcDbLine
 10
9.545378827213204
 20
-1.755497170819806
 30
0.0
 11
10.08249717081981
 21
-1.218378827213202
 31
0.0
  0
LINE
  5
C08
330
1F
100
AcDbEntity
  8
2
  6
CONTINUOUS
370
25
 62
7
100
AcDbLine
 10
9.375673199728434
 20
-1.500938729592649
 30
0.0
 11
9.82793872959265
 21
-1.048673199728432
 31
0.0
  0
LINE
  5
C09
330
1F
100
AcDbEntity
  8
2
  6
CONTINUOUS
370
25
 62
7
100
AcDbLine
 10
9.205967572243662
 20
-1.246380288365494
 30
0.0
 11
9.573380288365493
 21
-0.8789675722436616
 31
0.0
  0
LINE
  5
C0A
330
1F
100
AcDbEntity
  8
2
  6
CONTINUOUS
370
25
 62
7
100
AcDbLine
 10
9.036261944758891
 20
-0.9918218471383362
 30
0.0
 11
9.318821847138336
 21
-0.7092619447588913
 31
0.0
  0
LINE
  5
C0B
330
1F
100
AcDbEntity
  8
2
  6
CONTINUOUS
370
25
 62
7
100
AcDbLine
 10
8.86655631727412
 20
-0.7372634059111789
 30
0.0
 11
9.06426340591118
 21
-0.5395563172741191
 31
0.0
  0
LINE
  5
C0C
330
1F
100
AcDbEntity
  8
2
  6
CONTINUOUS
370
25
 62
7
100
AcDbLine
 10
8.696850689789347
 20
-0.4827049646840234
 30
0.0
 11
8.809704964684022
 21
-0.3698506897893488
 31
0.0
  0
LINE
  5
C0D
330
1F
100
AcDbEntity
  8
2
  6
CONTINUOUS
370
25
 62
7
100
AcDbLine
 10
8.527145062304577
 20
-0.2281465234568678
 30
0.0
 11
8.555146523456866
 21
-0.2001450623045784
 31
0.0
  0
LINE
  5
C0E
330
1F
100
AcDbEntity
  8
2
  6
CONTINUOUS
370
25
 62
7
100
AcDbLine
 10
10.72016380379442
 20
-3.517674635691636
 30
0.0
 11
11.44442062998413
 21
-4.241931461881343
 31
0.0
  0
LINE
  5
C0F
330
1F
100
AcDbEntity
  8
2
  6
CONTINUOUS
370
25
 62
7
100
AcDbLine
 10
9.871635666370567
 20
-2.24488242955585
 30
0.0
 11
11.6565526643401
 21
-4.029799427525378
 31
0.0
  0
LINE
  5
C10
330
1F
100
AcDbEntity
  8
2
  6
CONTINUOUS
370
25
 62
7
100
AcDbLine
 10
9.023107528946708
 20
-0.9720902234200626
 30
0.0
 11
11.86868469869606
 21
-3.817667393169414
 31
0.0
  0
LINE
  5
C11
330
1F
100
AcDbEntity
  8
2
  6
CONTINUOUS
370
25
 62
7
100
AcDbLine
 10
8.91598626271572
 20
-0.4407048884771463
 30
0.0
 11
12.08081673305203
 21
-3.60553535881345
 31
0.0
  0
LINE
  5
C12
330
1F
100
AcDbEntity
  8
2
  6
CONTINUOUS
370
25
 62
7
100
AcDbLine
 10
10.1887784688515
 20
-1.289233025901
 30
0.0
 11
12.29294876740799
 21
-3.393403324457486
 31
0.0
  0
LINE
  5
C13
330
1F
100
AcDbEntity
  8
2
  6
CONTINUOUS
370
25
 62
7
100
AcDbLine
 10
11.46157067498729
 20
-2.137761163324853
 30
0.0
 11
12.50508080176395
 21
-3.181271290101522
 31
0.0
  0
TEXT
  5
C14
330
1F
100
AcDbEntity
  8
2
  6
CONTINUOUS
370
25
 62
7
100
AcDbText
 10
29.11028333678884
 20
-17.49995000345547
 30
0.0
 40
3.5
  1
0.02
 72
     1
 11
33.7769500034555
 21
-17.49995000345547
 31
0.0
100
AcDbText
  0
LINE
  5
C15
330
1F
100
AcDbEntity
  8
SK1
  6
CONTINUOUS
370
50
 62
4
100
AcDbLine
 10
-0.01
 20
0.0
 30
0.0
 11
2.49
 21
0.0
 31
0.0
  0
LINE
  5
C16
330
1F
100
AcDbEntity
  8
SK1
  6
CONTINUOUS
370
50
 62
4
100
AcDbLine
 10
-0.01
 20
0.0
 30
0.0
 11
-0.01
 21
2.5
 31
0.0
  0
ARC
  5
C17
330
1F
100
AcDbEntity
  8
SK1
  6
CONTINUOUS
370
50
 62
4
100
AcDbCircle
 10
-0.01
 20
0.0
 30
0.0
 40
2.5
100
AcDbArc
 50
0.0
 51
90.0
  0
LINE
  5
C18
330
1F
100
AcDbEntity
  8
SK1
  6
CONTINUOUS
370
50
 62
4
100
AcDbLine
 10
-0.01
 20
0.0
 30
0.0
 11
-2.51
 21
0.0
 31
0.0
  0
ARC
  5
C19
330
1F
100
AcDbEntity
  8
SK1
  6
CONTINUOUS
370
50
 62
4
100
AcDbCircle
 10
-0.01
 20
0.0
 30
0.0
 40
2.5
100
AcDbArc
 50
180.0
 51
270.0
  0
LINE
  5
C1A
330
1F
100
AcDbEntity
  8
SK1
  6
CONTINUOUS
370
50
 62
4
100
AcDbLine
 10
-0.01
 20
-2.5
 30
0.0
 11
-0.01
 21
0.0
 31
0.0
  0
ARC
  5
C1B
330
1F
100
AcDbEntity
  8
SK1
  6
CONTINUOUS
370
50
 62
4
100
AcDbCircle
 10
-0.01
 20
0.0
 30
0.0
 40
2.5
100
AcDbArc
 50
270.0
 51
0.0
  0
ARC
  5
C1C
330
1F
100
AcDbEntity
  8
SK1
  6
CONTINUOUS
370
50
 62
4
100
AcDbCircle
 10
-0.01
 20
0.0
 30
0.0
 40
2.5
100
AcDbArc
 50
90.0
 51
180.0
  0
LINE
  5
C1D
330
1F
100
AcDbEntity
  8
SK1
  6
CONTINUOUS
370
50
 62
4
100
AcDbLine
 10
-0.32832627443191
 20
-2.479495909600069
 30
0.0
 11
-0.01
 21
-2.161169635168159
 31
0.0
  0
LINE
  5
C1E
330
1F
100
AcDbEntity
  8
SK1
  6
CONTINUOUS
370
50
 62
4
100
AcDbLine
 10
2.15116963516816
 20
0.0
 30
0.0
 11
2.469495909600069
 21
0.3183262744319091
 31
0.0
  0
LINE
  5
C1F
330
1F
100
AcDbEntity
  8
SK1
  6
CONTINUOUS
370
50
 62
4
100
AcDbLine
 10
-0.625281817185723
 20
-2.422898061760609
 30
0.0
 11
-0.01
 21
-1.807616244574886
 31
0.0
  0
LINE
  5
C20
330
1F
100
AcDbEntity
  8
SK1
  6
CONTINUOUS
370
50
 62
4
100
AcDbLine
 10
1.797616244574887
 20
0.0
 30
0.0
 11
2.412898061760609
 21
0.6152818171857222
 31
0.0
  0
LINE
  5
C21
330
1F
100
AcDbEntity
  8
SK1
  6
CONTINUOUS
370
50
 62
4
100
AcDbLine
 10
-0.8935965231639721
 20
-2.337659377145585
 30
0.0
 11
-0.01
 21
-1.454062853981614
 31
0.0
  0
LINE
  5
C22
330
1F
100
AcDbEntity
  8
SK1
  6
CONTINUOUS
370
50
 62
4
100
AcDbLine
 10
1.444062853981614
 20
0.0
 30
0.0
 11
2.327659377145586
 21
0.8835965231639715
 31
0.0
  0
LINE
  5
C23
330
1F
100
AcDbEntity
  8
SK1
  6
CONTINUOUS
370
50
 62
4
100
AcDbLine
 10
-1.138779664263143
 20
-2.229289127651483
 30
0.0
 11
-0.01
 21
-1.100509463388341
 31
0.0
  0
LINE
  5
C24
330
1F
100
AcDbEntity
  8
SK1
  6
CONTINUOUS
370
50
 62
4
100
AcDbLine
 10
1.090509463388341
 20
0.0
 30
0.0
 11
2.219289127651484
 21
1.128779664263142
 31
0.0
  0
LINE
  5
C25
330
1F
100
AcDbEntity
  8
SK1
  6
CONTINUOUS
370
50
 62
4
100
AcDbLine
 10
-1.364032791010379
 20
-2.100988863805446
 30
0.0
 11
-0.01
 21
-0.7469560727950677
 31
0.0
  0
LINE
  5
C26
330
1F
100
AcDbEntity
  8
SK1
  6
CONTINUOUS
370
50
 62
4
100
AcDbLine
 10
0.736956072795068
 20
0.0
 30
0.0
 11
2.090988863805447
 21
1.354032791010378
 31
0.0
  0
LINE
  5
C27
330
1F
100
AcDbEntity
  8
SK1
  6
CONTINUOUS
370
50
 62
4
100
AcDbLine
 10
-1.569387394659872
 20
-1.952790076861666
 30
0.0
 11
-0.01
 21
-0.3934026822017946
 31
0.0
  0
LINE
  5
C28
330
1F
100
AcDbEntity
  8
SK1
  6
CONTINUOUS
370
50
 62
4
100
AcDbLine
 10
0.3834026822017948
 20
0.0
 30
0.0
 11
1.942790076861667
 21
1.559387394659871
 31
0.0
  0
LINE
  5
C29
330
1F
100
AcDbEntity
  8
SK1
  6
CONTINUOUS
370
50
 62
4
100
AcDbLine
 10
-1.756970020883365
 20
-1.786819312491886
 30
0.0
 11
-0.01
 21
-0.0398492916085216
 31
0.0
  0
LINE
  5
C2A
330
1F
100
AcDbEntity
  8
SK1
  6
CONTINUOUS
370
50
 62
4
100
AcDbLine
 10
0.0298492916085216
 20
0.0
 30
0.0
 11
1.776819312491887
 21
1.746970020883364
 31
0.0
  0
LINE
  5
C2B
330
1F
100
AcDbEntity
  8
SK1
  6
CONTINUOUS
370
50
 62
4
100
AcDbLine
 10
-1.927371878232655
 20
-1.603667779247902
 30
0.0
 11
-0.3237040989847517
 21
0.0
 31
0.0
  0
LINE
  5
C2C
330
1F
100
AcDbEntity
  8
SK1
  6
CONTINUOUS
370
50
 62
4
100
AcDbLine
 10
-0.01
 20
0.3137040989847515
 30
0.0
 11
1.593667779247903
 21
1.917371878232654
 31
0.0
  0
LINE
  5
C2D
330
1F
100
AcDbEntity
  8
SK1
  6
CONTINUOUS
370
50
 62
4
100
AcDbLine
 10
-2.078741231122433
 20
-1.401483741544407
 30
0.0
 11
-0.6772574895780249
 21
0.0
 31
0.0
  0
LINE
  5
C2E
330
1F
100
AcDbEntity
  8
SK1
  6
CONTINUOUS
370
50
 62
4
100
AcDbLine
 10
-0.01
 20
0.6672574895780246
 30
0.0
 11
1.391483741544409
 21
2.068741231122432
 31
0.0
  0
LINE
  5
C2F
330
1F
100
AcDbEntity
  8
SK1
  6
CONTINUOUS
370
50
 62
4
100
AcDbLine
 10
-2.2123876557675
 20
-1.181576775596201
 30
0.0
 11
-1.030810880171298
 21
0.0
 31
0.0
  0
LINE
  5
C30
330
1F
100
AcDbEntity
  8
SK1
  6
CONTINUOUS
370
50
 62
4
100
AcDbLine
 10
-0.01
 20
1.020810880171298
 30
0.0
 11
1.171576775596202
 21
2.202387655767499
 31
0.0
  0
LINE
  5
C31
330
1F
100
AcDbEntity
  8
SK1
  6
CONTINUOUS
370
50
 62
4
100
AcDbLine
 10
-2.325450943493525
 20
-0.9410866727289533
 30
0.0
 11
-1.384364270764571
 21
0.0
 31
0.0
  0
LINE
  5
C32
330
1F
100
AcDbEntity
  8
SK1
  6
CONTINUOUS
370
50
 62
4
100
AcDbLine
 10
-0.01
 20
1.374364270764571
 30
0.0
 11
0.9310866727289543
 21
2.315450943493524
 31
0.0
  0
LINE
  5
C33
330
1F
100
AcDbEntity
  8
SK1
  6
CONTINUOUS
370
50
 62
4
100
AcDbLine
 10
-2.415290600131854
 20
-0.6773729387740097
 30
0.0
 11
-1.737917661357844
 21
0.0
 31
0.0
  0
LINE
  5
C34
330
1F
100
AcDbEntity
  8
SK1
  6
CONTINUOUS
370
50
 62
4
100
AcDbLine
 10
-0.01
 20
1.727917661357844
 30
0.0
 11
0.6673729387740106
 21
2.405290600131854
 31
0.0
  0
LINE
  5
C35
330
1F
100
AcDbEntity
  8
SK1
  6
CONTINUOUS
370
50
 62
4
100
AcDbLine
 10
-2.478598823056026
 20
-0.3871277711049084
 30
0.0
 11
-2.091471051951117
 21
0.0
 31
0.0
  0
LINE
  5
C36
330
1F
100
AcDbEntity
  8
SK1
  6
CONTINUOUS
370
50
 62
4
100
AcDbLine
 10
-0.01
 20
2.081471051951117
 30
0.0
 11
0.3771277711049085
 21
2.468598823056025
 31
0.0
  0
LINE
  5
C37
330
1F
100
AcDbEntity
  8
SK1
  6
CONTINUOUS
370
50
 62
4
100
AcDbLine
 10
-2.508020276172772
 20
-0.0629958336283822
 30
0.0
 11
-2.44502444254439
 21
0.0
 31
0.0
  0
LINE
  5
C38
330
1F
100
AcDbEntity
  8
SK1
  6
CONTINUOUS
370
50
 62
4
100
AcDbLine
 10
-0.01
 20
2.435024442544389
 30
0.0
 11
0.0529958336283828
 21
2.498020276172772
 31
0.0
  0
LINE
  5
C39
330
1F
100
AcDbEntity
  8
SK1
  6
CONTINUOUS
370
50
 62
4
100
AcDbLine
 10
-2.347336523620827
 20
-0.8844932833271533
 30
0.0
 11
-0.894493283327151
 21
-2.337336523620827
 31
0.0
  0
LINE
  5
C3A
330
1F
100
AcDbEntity
  8
SK1
  6
CONTINUOUS
370
50
 62
4
100
AcDbLine
 10
-2.476237059966593
 20
-0.4020393563881135
 30
0.0
 11
-0.4120393563881111
 21
-2.466237059966594
 31
0.0
  0
LINE
  5
C3B
330
1F
100
AcDbEntity
  8
SK1
  6
CONTINUOUS
370
50
 62
4
100
AcDbLine
 10
-2.509522297881595
 20
-0.0152007278798383
 30
0.0
 11
-0.0252007278798351
 21
-2.499522297881596
 31
0.0
  0
LINE
  5
C3C
330
1F
100
AcDbEntity
  8
SK1
  6
CONTINUOUS
370
50
 62
4
100
AcDbLine
 10
-2.17116963516816
 20
0.0
 30
0.0
 11
-0.01
 21
-2.161169635168158
 31
0.0
  0
LINE
  5
C3D
330
1F
100
AcDbEntity
  8
SK1
  6
CONTINUOUS
370
50
 62
4
100
AcDbLine
 10
-1.817616244574888
 20
0.0
 30
0.0
 11
-0.01
 21
-1.807616244574886
 31
0.0
  0
LINE
  5
C3E
330
1F
100
AcDbEntity
  8
SK1
  6
CONTINUOUS
370
50
 62
4
100
AcDbLine
 10
-1.464062853981615
 20
0.0
 30
0.0
 11
-0.01
 21
-1.454062853981613
 31
0.0
  0
LINE
  5
C3F
330
1F
100
AcDbEntity
  8
SK1
  6
CONTINUOUS
370
50
 62
4
100
AcDbLine
 10
-1.110509463388341
 20
0.0
 30
0.0
 11
-0.01
 21
-1.10050946338834
 31
0.0
  0
LINE
  5
C40
330
1F
100
AcDbEntity
  8
SK1
  6
CONTINUOUS
370
50
 62
4
100
AcDbLine
 10
-0.7569560727950676
 20
0.0
 30
0.0
 11
-0.01
 21
-0.7469560727950668
 31
0.0
  0
LINE
  5
C41
330
1F
100
AcDbEntity
  8
SK1
  6
CONTINUOUS
370
50
 62
4
100
AcDbLine
 10
-0.4034026822017942
 20
0.0
 30
0.0
 11
-0.01
 21
-0.3934026822017938
 31
0.0
  0
LINE
  5
C42
330
1F
100
AcDbEntity
  8
SK1
  6
CONTINUOUS
370
50
 62
4
100
AcDbLine
 10
-0.0498492916085216
 20
0.0
 30
0.0
 11
-0.01
 21
-0.0398492916085216
 31
0.0
  0
LINE
  5
C43
330
1F
100
AcDbEntity
  8
SK1
  6
CONTINUOUS
370
50
 62
4
100
AcDbLine
 10
-0.01
 20
0.3137040989847515
 30
0.0
 11
0.3037040989847518
 21
0.0
 31
0.0
  0
LINE
  5
C44
330
1F
100
AcDbEntity
  8
SK1
  6
CONTINUOUS
370
50
 62
4
100
AcDbLine
 10
-0.01
 20
0.6672574895780246
 30
0.0
 11
0.6572574895780253
 21
0.0
 31
0.0
  0
LINE
  5
C45
330
1F
100
AcDbEntity
  8
SK1
  6
CONTINUOUS
370
50
 62
4
100
AcDbLine
 10
-0.01
 20
1.020810880171298
 30
0.0
 11
1.010810880171299
 21
0.0
 31
0.0
  0
LINE
  5
C46
330
1F
100
AcDbEntity
  8
SK1
  6
CONTINUOUS
370
50
 62
4
100
AcDbLine
 10
-0.01
 20
1.37436427076457
 30
0.0
 11
1.364364270764571
 21
0.0
 31
0.0
  0
LINE
  5
C47
330
1F
100
AcDbEntity
  8
SK1
  6
CONTINUOUS
370
50
 62
4
100
AcDbLine
 10
-0.01
 20
1.727917661357843
 30
0.0
 11
1.717917661357845
 21
0.0
 31
0.0
  0
LINE
  5
C48
330
1F
100
AcDbEntity
  8
SK1
  6
CONTINUOUS
370
50
 62
4
100
AcDbLine
 10
-0.01
 20
2.081471051951116
 30
0.0
 11
2.071471051951118
 21
0.0
 31
0.0
  0
LINE
  5
C49
330
1F
100
AcDbEntity
  8
SK1
  6
CONTINUOUS
370
50
 62
4
100
AcDbLine
 10
-0.01
 20
2.435024442544389
 30
0.0
 11
2.425024442544392
 21
0.0
 31
0.0
  0
LINE
  5
C4A
330
1F
100
AcDbEntity
  8
SK1
  6
CONTINUOUS
370
50
 62
4
100
AcDbLine
 10
0.2977647139123103
 20
2.480813119225352
 30
0.0
 11
2.470813119225352
 21
0.307764713912313
 31
0.0
  0
LINE
  5
C4B
330
1F
100
AcDbEntity
  8
SK1
  6
CONTINUOUS
370
50
 62
4
100
AcDbLine
 10
0.7511924397506667
 20
2.380938783980268
 30
0.0
 11
2.370938783980268
 21
0.7611924397506691
 31
0.0
  0
LINE
  5
C4C
330
1F
100
AcDbEntity
  8
SK1
  6
CONTINUOUS
370
50
 62
4
100
AcDbLine
 10
1.47586376213526
 20
2.009820852188948
 30
0.0
 11
1.999820852188946
 21
1.485863762135263
 31
0.0
  0
LINE
  5
C4D
330
1F
100
AcDbEntity
  8
4
  6
LONGDASH_DASH
370
25
 62
2
100
AcDbLine
 10
-0.01
 20
0.0
 30
0.0
 11
8.477
 21
0.0
 31
0.0
  0
LINE
  5
C4E
330
1F
100
AcDbEntity
  8
SK4
  6
LONGDASH_DASH
370
25
 62
2
100
AcDbLine
 10
-47.523
 20
0.0
 30
0.0
 11
14.477
 21
0.0
 31
0.0
  0
LINE
  5
C4F
330
1F
100
AcDbEntity
  8
INFTOTAL
  6
CONTINUOUS
370
18
 62
9
100
AcDbLine
 10
-80.87531100000001
 20
-37.40001100000001
 30
0.0
 11
55.524711
 21
-37.40001100000001
 31
0.0
  0
LINE
  5
C50
330
1F
100
AcDbEntity
  8
INFTOTAL
  6
CONTINUOUS
370
18
 62
9
100
AcDbLine
 10
55.524711
 20
-37.40001100000001
 30
0.0
 11
55.524711
 21
59.40001100000001
 31
0.0
  0
LINE
  5
C51
330
1F
100
AcDbEntity
  8
INFTOTAL
  6
CONTINUOUS
370
18
 62
9
100
AcDbLine
 10
55.524711
 20
59.40001100000001
 30
0.0
 11
-80.87531100000001
 21
59.40001100000001
 31
0.0
  0
LINE
  5
C52
330
1F
100
AcDbEntity
  8
INFTOTAL
  6
CONTINUOUS
370
18
 62
9
100
AcDbLine
 10
-80.87531100000001
 20
59.40001100000001
 30
0.0
 11
-80.87531100000001
 21
-37.40001100000001
 31
0.0
  0
ENDSEC
  0
SECTION
  2
OBJECTS
  0
DICTIONARY
  5
C
330
0
100
AcDbDictionary
281
     1
  3
ACAD_GROUP
350
D
  3
ACAD_LAYOUT
350
1A
  3
ACAD_MATERIAL
350
3B
  3
ACAD_MLEADERSTYLE
350
C55
  3
ACAD_MLINESTYLE
350
17
  3
ACAD_PLOTSETTINGS
350
19
  3
ACAD_PLOTSTYLENAME
350
E
  3
ACAD_SCALELIST
350
408
  3
ACAD_VISUALSTYLE
350
2A
  3
AcDbVariableDictionary
350
C53
  0
DICTIONARY
  5
D
102
{ACAD_REACTORS
330
C
102
}
330
C
100
AcDbDictionary
281
     1
  0
DICTIONARY
  5
1A
102
{ACAD_REACTORS
330
C
102
}
330
C
100
AcDbDictionary
281
     1
  3
Layout1
350
1E
  3
Layout2
350
26
  3
Model
350
22
  0
DICTIONARY
  5
3B
102
{ACAD_REACTORS
330
C
102
}
330
C
100
AcDbDictionary
281
     1
  3
ByBlock
350
3D
  3
ByLayer
350
3C
  3
Global
350
3E
  0
DICTIONARY
  5
C55
102
{ACAD_REACTORS
330
C
102
}
330
C
100
AcDbDictionary
281
     1
  0
DICTIONARY
  5
17
102
{ACAD_REACTORS
330
C
102
}
330
C
100
AcDbDictionary
281
     1
  3
Standard
350
18
  0
DICTIONARY
  5
19
102
{ACAD_REACTORS
330
C
102
}
330
C
100
AcDbDictionary
281
     1
  0
ACDBDICTIONARYWDFLT
  5
E
102
{ACAD_REACTORS
330
C
102
}
330
C
100
AcDbDictionary
281
     1
  3
Normal
350
F
100
AcDbDictionaryWithDefault
340
F
  0
DICTIONARY
  5
408
102
{ACAD_REACTORS
330
C
102
}
330
C
100
AcDbDictionary
281
     1
  3
A0
350
409
  3
A1
350
40A
  3
A2
350
40B
  3
A3
350
40C
  3
A4
350
40D
  3
A5
350
40E
  3
A6
350
40F
  3
A7
350
410
  3
A8
350
411
  3
A9
350
412
  3
B0
350
413
  3
B1
350
414
  3
B2
350
415
  3
B3
350
416
  3
B4
350
417
  3
B5
350
418
  3
B6
350
419
  3
B7
350
41A
  3
B8
350
41B
  3
B9
350
41C
  3
C0
350
41D
  3
C1
350
41E
  3
C2
350
41F
  3
C3
350
420
  3
C4
350
421
  3
C5
350
422
  3
C6
350
423
  3
C7
350
424
  3
C8
350
425
  3
C9
350
426
  3
D0
350
427
  3
D1
350
428
  3
D2
350
429
  0
DICTIONARY
  5
2A
102
{ACAD_REACTORS
330
C
102
}
330
C
100
AcDbDictionary
281
     1
  3
2dWireframe
350
2F
  3
3D Hidden
350
31
  3
3dWireframe
350
30
  3
Basic
350
32
  3
Brighten
350
36
  3
ColorChange
350
3A
  3
Conceptual
350
34
  3
Dim
350
35
  3
Facepattern
350
39
  3
Flat
350
2B
  3
FlatWithEdges
350
2C
  3
Gouraud
350
2D
  3
GouraudWithEdges
350
2E
  3
Linepattern
350
38
  3
Realistic
350
33
  3
Thicken
350
37
  0
DICTIONARY
  5
C53
102
{ACAD_REACTORS
330
C
102
}
330
C
100
AcDbDictionary
281
     1
  3
CANNOSCALE
350
C58
  3
DIMASSOC
350
C59
  3
HIDETEXT
350
C5A
  3
PSOLHEIGHT
350
C57
  3
PSOLWIDTH
350
C56
  0
LAYOUT
  5
1E
102
{ACAD_REACTORS
330
1A
102
}
330
1A
100
AcDbPlotSettings
  1

  2
none_device
  4

  6

 40
0.0
 41
0.0
 42
0.0
 43
0.0
 44
0.0
 45
0.0
 46
0.0
 47
0.0
 48
0.0
 49
0.0
140
0.0
141
0.0
142
1.0
143
1.0
 70
   688
 72
     0
 73
     0
 74
     5
  7

 75
    16
147
1.0
148
0.0
149
0.0
100
AcDbLayout
  1
Layout1
 70
     1
 71
     1
 10
0.0
 20
0.0
 11
420.0
 21
297.0
 12
0.0
 22
0.0
 32
0.0
 14
1.000000000000000E+20
 24
1.000000000000000E+20
 34
1.000000000000000E+20
 15
-1.000000000000000E+20
 25
-1.000000000000000E+20
 35
-1.000000000000000E+20
146
0.0
 13
0.0
 23
0.0
 33
0.0
 16
1.0
 26
0.0
 36
0.0
 17
0.0
 27
1.0
 37
0.0
 76
     0
330
1B
  0
LAYOUT
  5
26
102
{ACAD_REACTORS
330
1A
102
}
330
1A
100
AcDbPlotSettings
  1

  2
none_device
  4

  6

 40
0.0
 41
0.0
 42
0.0
 43
0.0
 44
0.0
 45
0.0
 46
0.0
 47
0.0
 48
0.0
 49
0.0
140
0.0
141
0.0
142
1.0
143
1.0
 70
   688
 72
     0
 73
     0
 74
     5
  7

 75
    16
147
1.0
148
0.0
149
0.0
100
AcDbLayout
  1
Layout2
 70
     1
 71
     2
 10
0.0
 20
0.0
 11
0.0
 21
0.0
 12
0.0
 22
0.0
 32
0.0
 14
0.0
 24
0.0
 34
0.0
 15
0.0
 25
0.0
 35
0.0
146
0.0
 13
0.0
 23
0.0
 33
0.0
 16
1.0
 26
0.0
 36
0.0
 17
0.0
 27
1.0
 37
0.0
 76
     0
330
23
  0
LAYOUT
  5
22
102
{ACAD_REACTORS
330
1A
102
}
330
1A
100
AcDbPlotSettings
  1

  2
none_device
  4

  6

 40
0.0
 41
0.0
 42
0.0
 43
0.0
 44
0.0
 45
0.0
 46
0.0
 47
0.0
 48
0.0
 49
0.0
140
0.0
141
0.0
142
1.0
143
1.0
 70
  1712
 72
     0
 73
     0
 74
     0
  7

 75
     0
147
1.0
148
0.0
149
0.0
100
AcDbLayout
  1
Model
 70
     1
 71
     0
 10
0.0
 20
0.0
 11
420.0
 21
297.0
 12
0.0
 22
0.0
 32
0.0
 14
0.0
 24
0.0
 34
0.0
 15
25.0
 25
35.0
 35
0.0
146
0.0
 13
0.0
 23
0.0
 33
0.0
 16
1.0
 26
0.0
 36
0.0
 17
0.0
 27
1.0
 37
0.0
 76
     0
330
1F
331
29
  0
MATERIAL
  5
3D
102
{ACAD_REACTORS
330
3B
102
}
102
{ACAD_XDICTIONARY
360
C7D
102
}
330
3B
100
AcDbMaterial
  1
ByBlock
  0
MATERIAL
  5
3C
102
{ACAD_REACTORS
330
3B
102
}
102
{ACAD_XDICTIONARY
360
C7B
102
}
330
3B
100
AcDbMaterial
  1
ByLayer
  0
MATERIAL
  5
3E
102
{ACAD_REACTORS
330
3B
102
}
102
{ACAD_XDICTIONARY
360
C7F
102
}
330
3B
100
AcDbMaterial
  1
Global
  0
MLINESTYLE
  5
18
102
{ACAD_REACTORS
330
17
102
}
330
17
100
AcDbMlineStyle
  2
Standard
 70
     0
  3

 62
   256
 51
90.0
 52
90.0
 71
     2
 49
0.5
 62
   256
  6
BYLAYER
 49
-0.5
 62
   256
  6
BYLAYER
  0
ACDBPLACEHOLDER
  5
F
102
{ACAD_REACTORS
330
E
102
}
330
E
  0
SCALE
  5
409
102
{ACAD_REACTORS
330
408
102
}
330
408
100
AcDbScale
 70
     0
300
1:1
140
1.0
141
1.0
290
     1
  0
SCALE
  5
40A
102
{ACAD_REACTORS
330
408
102
}
330
408
100
AcDbScale
 70
     0
300
1:2
140
1.0
141
2.0
290
     0
  0
SCALE
  5
40B
102
{ACAD_REACTORS
330
408
102
}
330
408
100
AcDbScale
 70
     0
300
1:4
140
1.0
141
4.0
290
     0
  0
SCALE
  5
40C
102
{ACAD_REACTORS
330
408
102
}
330
408
100
AcDbScale
 70
     0
300
1:5
140
1.0
141
5.0
290
     0
  0
SCALE
  5
40D
102
{ACAD_REACTORS
330
408
102
}
330
408
100
AcDbScale
 70
     0
300
1:8
140
1.0
141
8.0
290
     0
  0
SCALE
  5
40E
102
{ACAD_REACTORS
330
408
102
}
330
408
100
AcDbScale
 70
     0
300
1:10
140
1.0
141
10.0
290
     0
  0
SCALE
  5
40F
102
{ACAD_REACTORS
330
408
102
}
330
408
100
AcDbScale
 70
     0
300
1:16
140
1.0
141
16.0
290
     0
  0
SCALE
  5
410
102
{ACAD_REACTORS
330
408
102
}
330
408
100
AcDbScale
 70
     0
300
1:20
140
1.0
141
20.0
290
     0
  0
SCALE
  5
411
102
{ACAD_REACTORS
330
408
102
}
330
408
100
AcDbScale
 70
     0
300
1:30
140
1.0
141
30.0
290
     0
  0
SCALE
  5
412
102
{ACAD_REACTORS
330
408
102
}
330
408
100
AcDbScale
 70
     0
300
1:40
140
1.0
141
40.0
290
     0
  0
SCALE
  5
413
102
{ACAD_REACTORS
330
408
102
}
330
408
100
AcDbScale
 70
     0
300
1:50
140
1.0
141
50.0
290
     0
  0
SCALE
  5
414
102
{ACAD_REACTORS
330
408
102
}
330
408
100
AcDbScale
 70
     0
300
1:100
140
1.0
141
100.0
290
     0
  0
SCALE
  5
415
102
{ACAD_REACTORS
330
408
102
}
330
408
100
AcDbScale
 70
     0
300
2:1
140
2.0
141
1.0
290
     0
  0
SCALE
  5
416
102
{ACAD_REACTORS
330
408
102
}
330
408
100
AcDbScale
 70
     0
300
4:1
140
4.0
141
1.0
290
     0
  0
SCALE
  5
417
102
{ACAD_REACTORS
330
408
102
}
330
408
100
AcDbScale
 70
     0
300
8:1
140
8.0
141
1.0
290
     0
  0
SCALE
  5
418
102
{ACAD_REACTORS
330
408
102
}
330
408
100
AcDbScale
 70
     0
300
10:1
140
10.0
141
1.0
290
     0
  0
SCALE
  5
419
102
{ACAD_REACTORS
330
408
102
}
330
408
100
AcDbScale
 70
     0
300
100:1
140
100.0
141
1.0
290
     0
  0
SCALE
  5
41A
102
{ACAD_REACTORS
330
408
102
}
330
408
100
AcDbScale
 70
     0
300
1/128" = 1'-0"
140
0.0078125
141
12.0
290
     0
  0
SCALE
  5
41B
102
{ACAD_REACTORS
330
408
102
}
330
408
100
AcDbScale
 70
     0
300
1/64" = 1'-0"
140
0.015625
141
12.0
290
     0
  0
SCALE
  5
41C
102
{ACAD_REACTORS
330
408
102
}
330
408
100
AcDbScale
 70
     0
300
1/32" = 1'-0"
140
0.03125
141
12.0
290
     0
  0
SCALE
  5
41D
102
{ACAD_REACTORS
330
408
102
}
330
408
100
AcDbScale
 70
     0
300
1/16" = 1'-0"
140
0.0625
141
12.0
290
     0
  0
SCALE
  5
41E
102
{ACAD_REACTORS
330
408
102
}
330
408
100
AcDbScale
 70
     0
300
3/32" = 1'-0"
140
0.09375
141
12.0
290
     0
  0
SCALE
  5
41F
102
{ACAD_REACTORS
330
408
102
}
330
408
100
AcDbScale
 70
     0
300
1/8" = 1'-0"
140
0.125
141
12.0
290
     0
  0
SCALE
  5
420
102
{ACAD_REACTORS
330
408
102
}
330
408
100
AcDbScale
 70
     0
300
3/16" = 1'-0"
140
0.1875
141
12.0
290
     0
  0
SCALE
  5
421
102
{ACAD_REACTORS
330
408
102
}
330
408
100
AcDbScale
 70
     0
300
1/4" = 1'-0"
140
0.25
141
12.0
290
     0
  0
SCALE
  5
422
102
{ACAD_REACTORS
330
408
102
}
330
408
100
AcDbScale
 70
     0
300
3/8" = 1'-0"
140
0.375
141
12.0
290
     0
  0
SCALE
  5
423
102
{ACAD_REACTORS
330
408
102
}
330
408
100
AcDbScale
 70
     0
300
1/2" = 1'-0"
140
0.5
141
12.0
290
     0
  0
SCALE
  5
424
102
{ACAD_REACTORS
330
408
102
}
330
408
100
AcDbScale
 70
     0
300
3/4" = 1'-0"
140
0.75
141
12.0
290
     0
  0
SCALE
  5
425
102
{ACAD_REACTORS
330
408
102
}
330
408
100
AcDbScale
 70
     0
300
1" = 1'-0"
140
1.0
141
12.0
290
     0
  0
SCALE
  5
426
102
{ACAD_REACTORS
330
408
102
}
330
408
100
AcDbScale
 70
     0
300
1-1/2" = 1'-0"
140
1.5
141
12.0
290
     0
  0
SCALE
  5
427
102
{ACAD_REACTORS
330
408
102
}
330
408
100
AcDbScale
 70
     0
300
3" = 1'-0"
140
3.0
141
12.0
290
     0
  0
SCALE
  5
428
102
{ACAD_REACTORS
330
408
102
}
330
408
100
AcDbScale
 70
     0
300
6" = 1'-0"
140
6.0
141
12.0
290
     0
  0
SCALE
  5
429
102
{ACAD_REACTORS
330
408
102
}
330
408
100
AcDbScale
 70
     0
300
1'-0" = 1'-0"
140
12.0
141
12.0
290
     0
  0
VISUALSTYLE
  5
2F
102
{ACAD_REACTORS
330
2A
102
}
102
{ACAD_XDICTIONARY
360
C63
102
}
330
2A
100
AcDbVisualStyle
  2
2dWireframe
 70
     4
 71
     0
 72
     2
 73
     0
 90
        0
 40
-0.6
 41
-30.0
 62
     5
 63
     7
 74
     1
 91
        4
 64
     7
 65
   257
 75
     1
175
     1
 42
1.0
 92
        0
 66
   257
 43
1.0
 76
     1
 77
     6
 78
     2
 67
     7
 79
     5
170
     0
171
     0
290
     0
174
     0
 93
        1
 44
0.0
173
     0
291
     0
 45
0.0
1001
ACAD
1000
AcDbSavedByObjectVersion
1070
     0
  0
VISUALSTYLE
  5
31
102
{ACAD_REACTORS
330
2A
102
}
102
{ACAD_XDICTIONARY
360
C67
102
}
330
2A
100
AcDbVisualStyle
  2
3D Hidden
 70
     6
 71
     1
 72
     2
 73
     2
 90
        0
 40
-0.6
 41
-30.0
 62
     5
 63
     7
 74
     2
 91
        2
 64
     7
 65
   257
 75
     2
175
     1
 42
40.0
 92
        0
 66
   257
 43
1.0
 76
     1
 77
     6
 78
     2
 67
     7
 79
     3
170
     0
171
     0
290
     0
174
     0
 93
        1
 44
0.0
173
     0
291
     0
 45
0.0
1001
ACAD
1000
AcDbSavedByObjectVersion
1070
     0
  0
VISUALSTYLE
  5
30
102
{ACAD_REACTORS
330
2A
102
}
102
{ACAD_XDICTIONARY
360
C65
102
}
330
2A
100
AcDbVisualStyle
  2
3dWireframe
 70
     5
 71
     0
 72
     2
 73
     0
 90
        0
 40
-0.6
 41
-30.0
 62
     5
 63
     7
 74
     1
 91
        4
 64
     7
 65
   257
 75
     1
175
     1
 42
1.0
 92
        0
 66
   257
 43
1.0
 76
     1
 77
     6
 78
     2
 67
     7
 79
     5
170
     0
171
     0
290
     0
174
     0
 93
        1
 44
0.0
173
     0
291
     0
 45
0.0
1001
ACAD
1000
AcDbSavedByObjectVersion
1070
     0
  0
VISUALSTYLE
  5
32
102
{ACAD_REACTORS
330
2A
102
}
102
{ACAD_XDICTIONARY
360
C69
102
}
330
2A
100
AcDbVisualStyle
  2
Basic
 70
     7
 71
     1
 72
     0
 73
     1
 90
        0
 40
-0.6
 41
-30.0
 62
     5
 63
     7
 74
     0
 91
        4
 64
     7
 65
   257
 75
     1
175
     1
 42
1.0
 92
        8
 66
     7
 43
1.0
 76
     1
 77
     6
 78
     2
 67
     7
 79
     5
170
     0
171
     0
290
     0
174
     0
 93
        1
 44
0.0
173
     0
291
     1
 45
0.0
1001
ACAD
1000
AcDbSavedByObjectVersion
1070
     0
  0
VISUALSTYLE
  5
36
102
{ACAD_REACTORS
330
2A
102
}
102
{ACAD_XDICTIONARY
360
C71
102
}
330
2A
100
AcDbVisualStyle
  2
Brighten
 70
    12
 71
     2
 72
     2
 73
     0
 90
        0
 40
-0.6
 41
-30.0
 62
     5
 63
     7
 74
     1
 91
        4
 64
     7
 65
   257
 75
     1
175
     1
 42
1.0
 92
        8
 66
     7
 43
1.0
 76
     1
 77
     6
 78
     2
 67
     7
 79
     5
170
     0
171
     0
290
     0
174
     0
 93
        1
 44
50.0
173
     0
291
     1
 45
0.0
1001
ACAD
1000
AcDbSavedByObjectVersion
1070
     0
  0
VISUALSTYLE
  5
3A
102
{ACAD_REACTORS
330
2A
102
}
102
{ACAD_XDICTIONARY
360
C79
102
}
330
2A
100
AcDbVisualStyle
  2
ColorChange
 70
    16
 71
     2
 72
     2
 73
     3
 90
        0
 40
-0.6
 41
-30.0
 62
     5
 63
     8
 74
     1
 91
        4
 64
     7
 65
   257
 75
     1
175
     1
 42
1.0
 92
        8
 66
     8
 43
1.0
 76
     1
 77
     6
 78
     2
 67
     7
 79
     5
170
     0
171
     0
290
     0
174
     0
 93
        1
 44
0.0
173
     0
291
     1
 45
0.0
1001
ACAD
1000
AcDbSavedByObjectVersion
1070
     0
  0
VISUALSTYLE
  5
34
102
{ACAD_REACTORS
330
2A
102
}
102
{ACAD_XDICTIONARY
360
C6D
102
}
330
2A
100
AcDbVisualStyle
  2
Conceptual
 70
     9
 71
     3
 72
     2
 73
     0
 90
        0
 40
-0.6
 41
-30.0
 62
     5
 63
     7
 74
     2
 91
        2
 64
     7
 65
   257
 75
     1
175
     1
 42
40.0
 92
        8
 66
     7
 43
1.0
 76
     1
 77
     6
 78
     2
 67
     7
 79
     3
170
     0
171
     0
290
     0
174
     0
 93
        1
 44
0.0
173
     0
291
     0
 45
0.0
1001
ACAD
1000
AcDbSavedByObjectVersion
1070
     0
  0
VISUALSTYLE
  5
35
102
{ACAD_REACTORS
330
2A
102
}
102
{ACAD_XDICTIONARY
360
C6F
102
}
330
2A
100
AcDbVisualStyle
  2
Dim
 70
    11
 71
     2
 72
     2
 73
     0
 90
        0
 40
-0.6
 41
-30.0
 62
     5
 63
     7
 74
     1
 91
        4
 64
     7
 65
   257
 75
     1
175
     1
 42
1.0
 92
        8
 66
     7
 43
1.0
 76
     1
 77
     6
 78
     2
 67
     7
 79
     5
170
     0
171
     0
290
     0
174
     0
 93
        1
 44
-50.0
173
     0
291
     1
 45
0.0
1001
ACAD
1000
AcDbSavedByObjectVersion
1070
     0
  0
VISUALSTYLE
  5
39
102
{ACAD_REACTORS
330
2A
102
}
102
{ACAD_XDICTIONARY
360
C77
102
}
330
2A
100
AcDbVisualStyle
  2
Facepattern
 70
    15
 71
     2
 72
     2
 73
     0
 90
        0
 40
-0.6
 41
-30.0
 62
     5
 63
     7
 74
     1
 91
        4
 64
     7
 65
   257
 75
     1
175
     1
 42
1.0
 92
        8
 66
     7
 43
1.0
 76
     1
 77
     6
 78
     2
 67
     7
 79
     5
170
     0
171
     0
290
     0
174
     0
 93
        1
 44
0.0
173
     0
291
     1
 45
0.0
1001
ACAD
1000
AcDbSavedByObjectVersion
1070
     0
  0
VISUALSTYLE
  5
2B
102
{ACAD_REACTORS
330
2A
102
}
102
{ACAD_XDICTIONARY
360
C5B
102
}
330
2A
100
AcDbVisualStyle
  2
Flat
 70
     0
 71
     2
 72
     1
 73
     1
 90
        2
 40
-0.6
 41
30.0
 62
     5
 63
     7
 74
     0
 91
        4
 64
     7
 65
   257
 75
     1
175
     1
 42
1.0
 92
        8
 66
     7
 43
1.0
 76
     1
 77
     6
 78
     2
 67
     7
 79
     5
170
     0
171
     0
290
     0
174
     0
 93
       13
 44
0.0
173
     0
291
     1
 45
0.0
1001
ACAD
1000
AcDbSavedByObjectVersion
1070
     0
  0
VISUALSTYLE
  5
2C
102
{ACAD_REACTORS
330
2A
102
}
102
{ACAD_XDICTIONARY
360
C5D
102
}
330
2A
100
AcDbVisualStyle
  2
FlatWithEdges
 70
     1
 71
     2
 72
     1
 73
     1
 90
        2
 40
-0.6
 41
30.0
 62
     5
 63
     7
 74
     1
 91
        4
 64
     7
 65
   257
 75
     1
175
     1
 42
1.0
 92
        0
 66
   257
 43
1.0
 76
     1
 77
     6
 78
     2
 67
     7
 79
     5
170
     0
171
     0
290
     0
174
     0
 93
       13
 44
0.0
173
     0
291
     1
 45
0.0
1001
ACAD
1000
AcDbSavedByObjectVersion
1070
     0
  0
VISUALSTYLE
  5
2D
102
{ACAD_REACTORS
330
2A
102
}
102
{ACAD_XDICTIONARY
360
C5F
102
}
330
2A
100
AcDbVisualStyle
  2
Gouraud
 70
     2
 71
     2
 72
     2
 73
     1
 90
        2
 40
-0.6
 41
30.0
 62
     5
 63
     7
 74
     0
 91
        4
 64
     7
 65
   257
 75
     1
175
     1
 42
1.0
 92
        0
 66
     7
 43
1.0
 76
     1
 77
     6
 78
     2
 67
     7
 79
     5
170
     0
171
     0
290
     0
174
     0
 93
       13
 44
0.0
173
     0
291
     1
 45
0.0
1001
ACAD
1000
AcDbSavedByObjectVersion
1070
     0
  0
VISUALSTYLE
  5
2E
102
{ACAD_REACTORS
330
2A
102
}
102
{ACAD_XDICTIONARY
360
C61
102
}
330
2A
100
AcDbVisualStyle
  2
GouraudWithEdges
 70
     3
 71
     2
 72
     2
 73
     1
 90
        2
 40
-0.6
 41
30.0
 62
     5
 63
     7
 74
     1
 91
        4
 64
     7
 65
   257
 75
     1
175
     1
 42
1.0
 92
        0
 66
   257
 43
1.0
 76
     1
 77
     6
 78
     2
 67
     7
 79
     5
170
     0
171
     0
290
     0
174
     0
 93
       13
 44
0.0
173
     0
291
     1
 45
0.0
1001
ACAD
1000
AcDbSavedByObjectVersion
1070
     0
  0
VISUALSTYLE
  5
38
102
{ACAD_REACTORS
330
2A
102
}
102
{ACAD_XDICTIONARY
360
C75
102
}
330
2A
100
AcDbVisualStyle
  2
Linepattern
 70
    14
 71
     2
 72
     2
 73
     0
 90
        0
 40
-0.6
 41
-30.0
 62
     5
 63
     7
 74
     1
 91
        4
 64
     7
 65
   257
 75
     7
175
     7
 42
1.0
 92
        8
 66
     7
 43
1.0
 76
     1
 77
     6
 78
     2
 67
     7
 79
     5
170
     0
171
     0
290
     0
174
     0
 93
        1
 44
0.0
173
     0
291
     1
 45
0.0
1001
ACAD
1000
AcDbSavedByObjectVersion
1070
     0
  0
VISUALSTYLE
  5
33
102
{ACAD_REACTORS
330
2A
102
}
102
{ACAD_XDICTIONARY
360
C6B
102
}
330
2A
100
AcDbVisualStyle
  2
Realistic
 70
     8
 71
     2
 72
     2
 73
     0
 90
        0
 40
-0.6
 41
-30.0
 62
     5
 63
     7
 74
     1
 91
        0
 64
     7
 65
   257
 75
     1
175
     1
 42
1.0
 92
        8
 66
     8
 43
1.0
 76
     1
 77
     6
 78
     2
 67
     7
 79
     5
170
     0
171
     0
290
     0
174
     0
 93
       13
 44
0.0
173
     0
291
     0
 45
0.0
1001
ACAD
1000
AcDbSavedByObjectVersion
1070
     0
  0
VISUALSTYLE
  5
37
102
{ACAD_REACTORS
330
2A
102
}
102
{ACAD_XDICTIONARY
360
C73
102
}
330
2A
100
AcDbVisualStyle
  2
Thicken
 70
    13
 71
     2
 72
     2
 73
     0
 90
        0
 40
-0.6
 41
-30.0
 62
     5
 63
     7
 74
     1
 91
        4
 64
     7
 65
   257
 75
     1
175
     1
 42
1.0
 92
       12
 66
     7
 43
1.0
 76
     1
 77
     6
 78
     2
 67
     7
 79
     5
170
     0
171
     0
290
     0
174
     0
 93
        1
 44
0.0
173
     0
291
     1
 45
0.0
1001
ACAD
1000
AcDbSavedByObjectVersion
1070
     0
  0
DICTIONARYVAR
  5
C58
102
{ACAD_REACTORS
330
C53
102
}
330
C53
100
DictionaryVariables
280
     0
  1
1:1
  0
DICTIONARYVAR
  5
C59
102
{ACAD_REACTORS
330
C53
102
}
330
C53
100
DictionaryVariables
280
     0
  1
2
  0
DICTIONARYVAR
  5
C5A
102
{ACAD_REACTORS
330
C53
102
}
330
C53
100
DictionaryVariables
280
     0
  1
1
  0
DICTIONARYVAR
  5
C57
102
{ACAD_REACTORS
330
C53
102
}
330
C53
100
DictionaryVariables
280
     0
  1
80.000000
  0
DICTIONARYVAR
  5
C56
102
{ACAD_REACTORS
330
C53
102
}
330
C53
100
DictionaryVariables
280
     0
  1
5.000000
  0
DICTIONARY
  5
C7D
330
3D
100
AcDbDictionary
280
     1
281
     1
  3
ACAD_XREC_ROUNDTRIP
360
C7E
  0
DICTIONARY
  5
C7B
330
3C
100
AcDbDictionary
280
     1
281
     1
  3
ACAD_XREC_ROUNDTRIP
360
C7C
  0
DICTIONARY
  5
C7F
330
3E
100
AcDbDictionary
280
     1
281
     1
  3
ACAD_XREC_ROUNDTRIP
360
C80
  0
DICTIONARY
  5
C63
330
2F
100
AcDbDictionary
280
     1
281
     1
  3
ACAD_XREC_ROUNDTRIP
360
C64
  0
DICTIONARY
  5
C67
330
31
100
AcDbDictionary
280
     1
281
     1
  3
ACAD_XREC_ROUNDTRIP
360
C68
  0
DICTIONARY
  5
C65
330
30
100
AcDbDictionary
280
     1
281
     1
  3
ACAD_XREC_ROUNDTRIP
360
C66
  0
DICTIONARY
  5
C69
330
32
100
AcDbDictionary
280
     1
281
     1
  3
ACAD_XREC_ROUNDTRIP
360
C6A
  0
DICTIONARY
  5
C71
330
36
100
AcDbDictionary
280
     1
281
     1
  3
ACAD_XREC_ROUNDTRIP
360
C72
  0
DICTIONARY
  5
C79
330
3A
100
AcDbDictionary
280
     1
281
     1
  3
ACAD_XREC_ROUNDTRIP
360
C7A
  0
DICTIONARY
  5
C6D
330
34
100
AcDbDictionary
280
     1
281
     1
  3
ACAD_XREC_ROUNDTRIP
360
C6E
  0
DICTIONARY
  5
C6F
330
35
100
AcDbDictionary
280
     1
281
     1
  3
ACAD_XREC_ROUNDTRIP
360
C70
  0
DICTIONARY
  5
C77
330
39
100
AcDbDictionary
280
     1
281
     1
  3
ACAD_XREC_ROUNDTRIP
360
C78
  0
DICTIONARY
  5
C5B
330
2B
100
AcDbDictionary
280
     1
281
     1
  3
ACAD_XREC_ROUNDTRIP
360
C5C
  0
DICTIONARY
  5
C5D
330
2C
100
AcDbDictionary
280
     1
281
     1
  3
ACAD_XREC_ROUNDTRIP
360
C5E
  0
DICTIONARY
  5
C5F
330
2D
100
AcDbDictionary
280
     1
281
     1
  3
ACAD_XREC_ROUNDTRIP
360
C60
  0
DICTIONARY
  5
C61
330
2E
100
AcDbDictionary
280
     1
281
     1
  3
ACAD_XREC_ROUNDTRIP
360
C62
  0
DICTIONARY
  5
C75
330
38
100
AcDbDictionary
280
     1
281
     1
  3
ACAD_XREC_ROUNDTRIP
360
C76
  0
DICTIONARY
  5
C6B
330
33
100
AcDbDictionary
280
     1
281
     1
  3
ACAD_XREC_ROUNDTRIP
360
C6C
  0
DICTIONARY
  5
C73
330
37
100
AcDbDictionary
280
     1
281
     1
  3
ACAD_XREC_ROUNDTRIP
360
C74
  0
XRECORD
  5
C7E
102
{ACAD_REACTORS
330
C7D
102
}
330
C7D
100
AcDbXrecord
280
     1
102
MATERIAL
148
0.0
149
0.0
149
0.0
 93
        0
 94
      127
282
     0
 72
     1
 77
     1
171
     1
175
     1
179
     1
273
     0
  0
XRECORD
  5
C7C
102
{ACAD_REACTORS
330
C7B
102
}
330
C7B
100
AcDbXrecord
280
     1
102
MATERIAL
148
0.0
149
0.0
149
0.0
 93
        0
 94
      127
282
     0
 72
     1
 77
     1
171
     1
175
     1
179
     1
273
     0
  0
XRECORD
  5
C80
102
{ACAD_REACTORS
330
C7F
102
}
330
C7F
100
AcDbXrecord
280
     1
102
MATERIAL
148
0.0
149
0.0
149
0.0
 93
        0
 94
      127
282
     0
 72
     1
 77
     1
171
     1
175
     1
179
     1
273
     0
  0
XRECORD
  5
C64
102
{ACAD_REACTORS
330
C63
102
}
330
C63
100
AcDbXrecord
280
     1
102
RTVSPropertyOp0
 70
     1
102
RTVSPropertyOp1
 70
     1
102
RTVSPropertyOp2
 70
     1
102
RTVSPropertyOp3
 70
     1
102
RTVSPropertyOp4
 70
     1
102
RTVSPropertyOp5
 70
     1
102
RTVSPropertyOp6
 70
     1
102
RTVSPropertyOp7
 70
     1
102
RTVSPropertyOp8
 70
     1
102
RTVSPropertyOp9
 70
     1
102
RTVSPropertyOp10
 70
     1
102
RTVSPropertyOp11
 70
     1
102
RTVSPropertyOp12
 70
     1
102
RTVSPropertyOp13
 70
     1
102
RTVSPropertyOp14
 70
     1
102
RTVSPropertyOp15
 70
     1
102
RTVSPropertyOp16
 70
     1
102
RTVSPropertyOp17
 70
     1
102
RTVSPropertyOp18
 70
     1
102
RTVSPropertyOp19
 70
     1
102
RTVSPropertyOp20
 70
     1
102
RTVSPropertyOp21
 70
     1
102
RTVSPropertyOp22
 70
     1
102
RTVSPropertyOp23
 70
     1
102
RTVSPropertyOp24
 70
     1
102
RTVSPropertyOp25
 70
     1
102
RTVSPropertyOp26
 70
     1
102
RTVSPropertyOp27
 70
     1
  0
XRECORD
  5
C68
102
{ACAD_REACTORS
330
C67
102
}
330
C67
100
AcDbXrecord
280
     1
102
RTVSPropertyOp0
 70
     1
102
RTVSPropertyOp1
 70
     1
102
RTVSPropertyOp2
 70
     1
102
RTVSPropertyOp3
 70
     1
102
RTVSPropertyOp4
 70
     1
102
RTVSPropertyOp5
 70
     1
102
RTVSPropertyOp6
 70
     1
102
RTVSPropertyOp7
 70
     1
102
RTVSPropertyOp8
 70
     1
102
RTVSPropertyOp9
 70
     1
102
RTVSPropertyOp10
 70
     1
102
RTVSPropertyOp11
 70
     1
102
RTVSPropertyOp12
 70
     1
102
RTVSPropertyOp13
 70
     1
102
RTVSPropertyOp14
 70
     1
102
RTVSPropertyOp15
 70
     1
102
RTVSPropertyOp16
 70
     1
102
RTVSPropertyOp17
 70
     1
102
RTVSPropertyOp18
 70
     1
102
RTVSPropertyOp19
 70
     1
102
RTVSPropertyOp20
 70
     1
102
RTVSPropertyOp21
 70
     1
102
RTVSPropertyOp22
 70
     1
102
RTVSPropertyOp23
 70
     1
102
RTVSPropertyOp24
 70
     1
102
RTVSPropertyOp25
 70
     1
102
RTVSPropertyOp26
 70
     1
102
RTVSPropertyOp27
 70
     1
  0
XRECORD
  5
C66
102
{ACAD_REACTORS
330
C65
102
}
330
C65
100
AcDbXrecord
280
     1
102
RTVSPropertyOp0
 70
     1
102
RTVSPropertyOp1
 70
     1
102
RTVSPropertyOp2
 70
     1
102
RTVSPropertyOp3
 70
     1
102
RTVSPropertyOp4
 70
     1
102
RTVSPropertyOp5
 70
     1
102
RTVSPropertyOp6
 70
     1
102
RTVSPropertyOp7
 70
     1
102
RTVSPropertyOp8
 70
     1
102
RTVSPropertyOp9
 70
     1
102
RTVSPropertyOp10
 70
     1
102
RTVSPropertyOp11
 70
     1
102
RTVSPropertyOp12
 70
     1
102
RTVSPropertyOp13
 70
     1
102
RTVSPropertyOp14
 70
     1
102
RTVSPropertyOp15
 70
     1
102
RTVSPropertyOp16
 70
     1
102
RTVSPropertyOp17
 70
     1
102
RTVSPropertyOp18
 70
     1
102
RTVSPropertyOp19
 70
     1
102
RTVSPropertyOp20
 70
     1
102
RTVSPropertyOp21
 70
     1
102
RTVSPropertyOp22
 70
     1
102
RTVSPropertyOp23
 70
     1
102
RTVSPropertyOp24
 70
     1
102
RTVSPropertyOp25
 70
     1
102
RTVSPropertyOp26
 70
     1
102
RTVSPropertyOp27
 70
     1
  0
XRECORD
  5
C6A
102
{ACAD_REACTORS
330
C69
102
}
330
C69
100
AcDbXrecord
280
     1
102
RTVSPropertyOp0
 70
     1
102
RTVSPropertyOp1
 70
     1
102
RTVSPropertyOp2
 70
     1
102
RTVSPropertyOp3
 70
     1
102
RTVSPropertyOp4
 70
     1
102
RTVSPropertyOp5
 70
     1
102
RTVSPropertyOp6
 70
     1
102
RTVSPropertyOp7
 70
     1
102
RTVSPropertyOp8
 70
     1
102
RTVSPropertyOp9
 70
     1
102
RTVSPropertyOp10
 70
     1
102
RTVSPropertyOp11
 70
     1
102
RTVSPropertyOp12
 70
     1
102
RTVSPropertyOp13
 70
     1
102
RTVSPropertyOp14
 70
     1
102
RTVSPropertyOp15
 70
     1
102
RTVSPropertyOp16
 70
     1
102
RTVSPropertyOp17
 70
     1
102
RTVSPropertyOp18
 70
     1
102
RTVSPropertyOp19
 70
     1
102
RTVSPropertyOp20
 70
     1
102
RTVSPropertyOp21
 70
     1
102
RTVSPropertyOp22
 70
     1
102
RTVSPropertyOp23
 70
     1
102
RTVSPropertyOp24
 70
     1
102
RTVSPropertyOp25
 70
     1
102
RTVSPropertyOp26
 70
     1
102
RTVSPropertyOp27
 70
     1
  0
XRECORD
  5
C72
102
{ACAD_REACTORS
330
C71
102
}
330
C71
100
AcDbXrecord
280
     1
102
RTVSPropertyOp0
 70
     1
102
RTVSPropertyOp1
 70
     1
102
RTVSPropertyOp2
 70
     1
102
RTVSPropertyOp3
 70
     1
102
RTVSPropertyOp4
 70
     1
102
RTVSPropertyOp5
 70
     1
102
RTVSPropertyOp6
 70
     1
102
RTVSPropertyOp7
 70
     1
102
RTVSPropertyOp8
 70
     1
102
RTVSPropertyOp9
 70
     1
102
RTVSPropertyOp10
 70
     1
102
RTVSPropertyOp11
 70
     1
102
RTVSPropertyOp12
 70
     1
102
RTVSPropertyOp13
 70
     1
102
RTVSPropertyOp14
 70
     1
102
RTVSPropertyOp15
 70
     1
102
RTVSPropertyOp16
 70
     1
102
RTVSPropertyOp17
 70
     1
102
RTVSPropertyOp18
 70
     1
102
RTVSPropertyOp19
 70
     1
102
RTVSPropertyOp20
 70
     1
102
RTVSPropertyOp21
 70
     1
102
RTVSPropertyOp22
 70
     1
102
RTVSPropertyOp23
 70
     1
102
RTVSPropertyOp24
 70
     1
102
RTVSPropertyOp25
 70
     1
102
RTVSPropertyOp26
 70
     1
102
RTVSPropertyOp27
 70
     1
  0
XRECORD
  5
C7A
102
{ACAD_REACTORS
330
C79
102
}
330
C79
100
AcDbXrecord
280
     1
102
RTVSPropertyOp0
 70
     1
102
RTVSPropertyOp1
 70
     1
102
RTVSPropertyOp2
 70
     1
102
RTVSPropertyOp3
 70
     1
102
RTVSPropertyOp4
 70
     1
102
RTVSPropertyOp5
 70
     1
102
RTVSPropertyOp6
 70
     1
102
RTVSPropertyOp7
 70
     1
102
RTVSPropertyOp8
 70
     1
102
RTVSPropertyOp9
 70
     1
102
RTVSPropertyOp10
 70
     1
102
RTVSPropertyOp11
 70
     1
102
RTVSPropertyOp12
 70
     1
102
RTVSPropertyOp13
 70
     1
102
RTVSPropertyOp14
 70
     1
102
RTVSPropertyOp15
 70
     1
102
RTVSPropertyOp16
 70
     1
102
RTVSPropertyOp17
 70
     1
102
RTVSPropertyOp18
 70
     1
102
RTVSPropertyOp19
 70
     1
102
RTVSPropertyOp20
 70
     1
102
RTVSPropertyOp21
 70
     1
102
RTVSPropertyOp22
 70
     1
102
RTVSPropertyOp23
 70
     1
102
RTVSPropertyOp24
 70
     1
102
RTVSPropertyOp25
 70
     1
102
RTVSPropertyOp26
 70
     1
102
RTVSPropertyOp27
 70
     1
  0
XRECORD
  5
C6E
102
{ACAD_REACTORS
330
C6D
102
}
330
C6D
100
AcDbXrecord
280
     1
102
RTVSPropertyOp0
 70
     1
102
RTVSPropertyOp1
 70
     1
102
RTVSPropertyOp2
 70
     1
102
RTVSPropertyOp3
 70
     1
102
RTVSPropertyOp4
 70
     1
102
RTVSPropertyOp5
 70
     1
102
RTVSPropertyOp6
 70
     1
102
RTVSPropertyOp7
 70
     1
102
RTVSPropertyOp8
 70
     1
102
RTVSPropertyOp9
 70
     1
102
RTVSPropertyOp10
 70
     1
102
RTVSPropertyOp11
 70
     1
102
RTVSPropertyOp12
 70
     1
102
RTVSPropertyOp13
 70
     1
102
RTVSPropertyOp14
 70
     1
102
RTVSPropertyOp15
 70
     1
102
RTVSPropertyOp16
 70
     1
102
RTVSPropertyOp17
 70
     1
102
RTVSPropertyOp18
 70
     1
102
RTVSPropertyOp19
 70
     1
102
RTVSPropertyOp20
 70
     1
102
RTVSPropertyOp21
 70
     1
102
RTVSPropertyOp22
 70
     1
102
RTVSPropertyOp23
 70
     1
102
RTVSPropertyOp24
 70
     1
102
RTVSPropertyOp25
 70
     1
102
RTVSPropertyOp26
 70
     1
102
RTVSPropertyOp27
 70
     1
  0
XRECORD
  5
C70
102
{ACAD_REACTORS
330
C6F
102
}
330
C6F
100
AcDbXrecord
280
     1
102
RTVSPropertyOp0
 70
     1
102
RTVSPropertyOp1
 70
     1
102
RTVSPropertyOp2
 70
     1
102
RTVSPropertyOp3
 70
     1
102
RTVSPropertyOp4
 70
     1
102
RTVSPropertyOp5
 70
     1
102
RTVSPropertyOp6
 70
     1
102
RTVSPropertyOp7
 70
     1
102
RTVSPropertyOp8
 70
     1
102
RTVSPropertyOp9
 70
     1
102
RTVSPropertyOp10
 70
     1
102
RTVSPropertyOp11
 70
     1
102
RTVSPropertyOp12
 70
     1
102
RTVSPropertyOp13
 70
     1
102
RTVSPropertyOp14
 70
     1
102
RTVSPropertyOp15
 70
     1
102
RTVSPropertyOp16
 70
     1
102
RTVSPropertyOp17
 70
     1
102
RTVSPropertyOp18
 70
     1
102
RTVSPropertyOp19
 70
     1
102
RTVSPropertyOp20
 70
     1
102
RTVSPropertyOp21
 70
     1
102
RTVSPropertyOp22
 70
     1
102
RTVSPropertyOp23
 70
     1
102
RTVSPropertyOp24
 70
     1
102
RTVSPropertyOp25
 70
     1
102
RTVSPropertyOp26
 70
     1
102
RTVSPropertyOp27
 70
     1
  0
XRECORD
  5
C78
102
{ACAD_REACTORS
330
C77
102
}
330
C77
100
AcDbXrecord
280
     1
102
RTVSPropertyOp0
 70
     1
102
RTVSPropertyOp1
 70
     1
102
RTVSPropertyOp2
 70
     1
102
RTVSPropertyOp3
 70
     1
102
RTVSPropertyOp4
 70
     1
102
RTVSPropertyOp5
 70
     1
102
RTVSPropertyOp6
 70
     1
102
RTVSPropertyOp7
 70
     1
102
RTVSPropertyOp8
 70
     1
102
RTVSPropertyOp9
 70
     1
102
RTVSPropertyOp10
 70
     1
102
RTVSPropertyOp11
 70
     1
102
RTVSPropertyOp12
 70
     1
102
RTVSPropertyOp13
 70
     1
102
RTVSPropertyOp14
 70
     1
102
RTVSPropertyOp15
 70
     1
102
RTVSPropertyOp16
 70
     1
102
RTVSPropertyOp17
 70
     1
102
RTVSPropertyOp18
 70
     1
102
RTVSPropertyOp19
 70
     1
102
RTVSPropertyOp20
 70
     1
102
RTVSPropertyOp21
 70
     1
102
RTVSPropertyOp22
 70
     1
102
RTVSPropertyOp23
 70
     1
102
RTVSPropertyOp24
 70
     1
102
RTVSPropertyOp25
 70
     1
102
RTVSPropertyOp26
 70
     1
102
RTVSPropertyOp27
 70
     1
  0
XRECORD
  5
C5C
102
{ACAD_REACTORS
330
C5B
102
}
330
C5B
100
AcDbXrecord
280
     1
102
RTVSPropertyOp0
 70
     1
102
RTVSPropertyOp1
 70
     1
102
RTVSPropertyOp2
 70
     1
102
RTVSPropertyOp3
 70
     1
102
RTVSPropertyOp4
 70
     1
102
RTVSPropertyOp5
 70
     1
102
RTVSPropertyOp6
 70
     1
102
RTVSPropertyOp7
 70
     1
102
RTVSPropertyOp8
 70
     1
102
RTVSPropertyOp9
 70
     1
102
RTVSPropertyOp10
 70
     1
102
RTVSPropertyOp11
 70
     1
102
RTVSPropertyOp12
 70
     1
102
RTVSPropertyOp13
 70
     1
102
RTVSPropertyOp14
 70
     1
102
RTVSPropertyOp15
 70
     1
102
RTVSPropertyOp16
 70
     1
102
RTVSPropertyOp17
 70
     1
102
RTVSPropertyOp18
 70
     1
102
RTVSPropertyOp19
 70
     1
102
RTVSPropertyOp20
 70
     1
102
RTVSPropertyOp21
 70
     1
102
RTVSPropertyOp22
 70
     1
102
RTVSPropertyOp23
 70
     1
102
RTVSPropertyOp24
 70
     1
102
RTVSPropertyOp25
 70
     1
102
RTVSPropertyOp26
 70
     1
102
RTVSPropertyOp27
 70
     1
  0
XRECORD
  5
C5E
102
{ACAD_REACTORS
330
C5D
102
}
330
C5D
100
AcDbXrecord
280
     1
102
RTVSPropertyOp0
 70
     1
102
RTVSPropertyOp1
 70
     1
102
RTVSPropertyOp2
 70
     1
102
RTVSPropertyOp3
 70
     1
102
RTVSPropertyOp4
 70
     1
102
RTVSPropertyOp5
 70
     1
102
RTVSPropertyOp6
 70
     1
102
RTVSPropertyOp7
 70
     1
102
RTVSPropertyOp8
 70
     1
102
RTVSPropertyOp9
 70
     1
102
RTVSPropertyOp10
 70
     1
102
RTVSPropertyOp11
 70
     1
102
RTVSPropertyOp12
 70
     1
102
RTVSPropertyOp13
 70
     1
102
RTVSPropertyOp14
 70
     1
102
RTVSPropertyOp15
 70
     1
102
RTVSPropertyOp16
 70
     1
102
RTVSPropertyOp17
 70
     1
102
RTVSPropertyOp18
 70
     1
102
RTVSPropertyOp19
 70
     1
102
RTVSPropertyOp20
 70
     1
102
RTVSPropertyOp21
 70
     1
102
RTVSPropertyOp22
 70
     1
102
RTVSPropertyOp23
 70
     1
102
RTVSPropertyOp24
 70
     1
102
RTVSPropertyOp25
 70
     1
102
RTVSPropertyOp26
 70
     1
102
RTVSPropertyOp27
 70
     1
  0
XRECORD
  5
C60
102
{ACAD_REACTORS
330
C5F
102
}
330
C5F
100
AcDbXrecord
280
     1
102
RTVSPropertyOp0
 70
     1
102
RTVSPropertyOp1
 70
     1
102
RTVSPropertyOp2
 70
     1
102
RTVSPropertyOp3
 70
     1
102
RTVSPropertyOp4
 70
     1
102
RTVSPropertyOp5
 70
     1
102
RTVSPropertyOp6
 70
     1
102
RTVSPropertyOp7
 70
     1
102
RTVSPropertyOp8
 70
     1
102
RTVSPropertyOp9
 70
     1
102
RTVSPropertyOp10
 70
     1
102
RTVSPropertyOp11
 70
     1
102
RTVSPropertyOp12
 70
     1
102
RTVSPropertyOp13
 70
     1
102
RTVSPropertyOp14
 70
     1
102
RTVSPropertyOp15
 70
     1
102
RTVSPropertyOp16
 70
     1
102
RTVSPropertyOp17
 70
     1
102
RTVSPropertyOp18
 70
     1
102
RTVSPropertyOp19
 70
     1
102
RTVSPropertyOp20
 70
     1
102
RTVSPropertyOp21
 70
     1
102
RTVSPropertyOp22
 70
     1
102
RTVSPropertyOp23
 70
     1
102
RTVSPropertyOp24
 70
     1
102
RTVSPropertyOp25
 70
     1
102
RTVSPropertyOp26
 70
     1
102
RTVSPropertyOp27
 70
     1
  0
XRECORD
  5
C62
102
{ACAD_REACTORS
330
C61
102
}
330
C61
100
AcDbXrecord
280
     1
102
RTVSPropertyOp0
 70
     1
102
RTVSPropertyOp1
 70
     1
102
RTVSPropertyOp2
 70
     1
102
RTVSPropertyOp3
 70
     1
102
RTVSPropertyOp4
 70
     1
102
RTVSPropertyOp5
 70
     1
102
RTVSPropertyOp6
 70
     1
102
RTVSPropertyOp7
 70
     1
102
RTVSPropertyOp8
 70
     1
102
RTVSPropertyOp9
 70
     1
102
RTVSPropertyOp10
 70
     1
102
RTVSPropertyOp11
 70
     1
102
RTVSPropertyOp12
 70
     1
102
RTVSPropertyOp13
 70
     1
102
RTVSPropertyOp14
 70
     1
102
RTVSPropertyOp15
 70
     1
102
RTVSPropertyOp16
 70
     1
102
RTVSPropertyOp17
 70
     1
102
RTVSPropertyOp18
 70
     1
102
RTVSPropertyOp19
 70
     1
102
RTVSPropertyOp20
 70
     1
102
RTVSPropertyOp21
 70
     1
102
RTVSPropertyOp22
 70
     1
102
RTVSPropertyOp23
 70
     1
102
RTVSPropertyOp24
 70
     1
102
RTVSPropertyOp25
 70
     1
102
RTVSPropertyOp26
 70
     1
102
RTVSPropertyOp27
 70
     1
  0
XRECORD
  5
C76
102
{ACAD_REACTORS
330
C75
102
}
330
C75
100
AcDbXrecord
280
     1
102
RTVSPropertyOp0
 70
     1
102
RTVSPropertyOp1
 70
     1
102
RTVSPropertyOp2
 70
     1
102
RTVSPropertyOp3
 70
     1
102
RTVSPropertyOp4
 70
     1
102
RTVSPropertyOp5
 70
     1
102
RTVSPropertyOp6
 70
     1
102
RTVSPropertyOp7
 70
     1
102
RTVSPropertyOp8
 70
     1
102
RTVSPropertyOp9
 70
     1
102
RTVSPropertyOp10
 70
     1
102
RTVSPropertyOp11
 70
     1
102
RTVSPropertyOp12
 70
     1
102
RTVSPropertyOp13
 70
     1
102
RTVSPropertyOp14
 70
     1
102
RTVSPropertyOp15
 70
     1
102
RTVSPropertyOp16
 70
     1
102
RTVSPropertyOp17
 70
     1
102
RTVSPropertyOp18
 70
     1
102
RTVSPropertyOp19
 70
     1
102
RTVSPropertyOp20
 70
     1
102
RTVSPropertyOp21
 70
     1
102
RTVSPropertyOp22
 70
     1
102
RTVSPropertyOp23
 70
     1
102
RTVSPropertyOp24
 70
     1
102
RTVSPropertyOp25
 70
     1
102
RTVSPropertyOp26
 70
     1
102
RTVSPropertyOp27
 70
     1
  0
XRECORD
  5
C6C
102
{ACAD_REACTORS
330
C6B
102
}
330
C6B
100
AcDbXrecord
280
     1
102
RTVSPropertyOp0
 70
     1
102
RTVSPropertyOp1
 70
     1
102
RTVSPropertyOp2
 70
     1
102
RTVSPropertyOp3
 70
     1
102
RTVSPropertyOp4
 70
     1
102
RTVSPropertyOp5
 70
     1
102
RTVSPropertyOp6
 70
     1
102
RTVSPropertyOp7
 70
     1
102
RTVSPropertyOp8
 70
     1
102
RTVSPropertyOp9
 70
     1
102
RTVSPropertyOp10
 70
     1
102
RTVSPropertyOp11
 70
     1
102
RTVSPropertyOp12
 70
     1
102
RTVSPropertyOp13
 70
     1
102
RTVSPropertyOp14
 70
     1
102
RTVSPropertyOp15
 70
     1
102
RTVSPropertyOp16
 70
     1
102
RTVSPropertyOp17
 70
     1
102
RTVSPropertyOp18
 70
     1
102
RTVSPropertyOp19
 70
     1
102
RTVSPropertyOp20
 70
     1
102
RTVSPropertyOp21
 70
     1
102
RTVSPropertyOp22
 70
     1
102
RTVSPropertyOp23
 70
     1
102
RTVSPropertyOp24
 70
     1
102
RTVSPropertyOp25
 70
     1
102
RTVSPropertyOp26
 70
     1
102
RTVSPropertyOp27
 70
     1
  0
XRECORD
  5
C74
102
{ACAD_REACTORS
330
C73
102
}
330
C73
100
AcDbXrecord
280
     1
102
RTVSPropertyOp0
 70
     1
102
RTVSPropertyOp1
 70
     1
102
RTVSPropertyOp2
 70
     1
102
RTVSPropertyOp3
 70
     1
102
RTVSPropertyOp4
 70
     1
102
RTVSPropertyOp5
 70
     1
102
RTVSPropertyOp6
 70
     1
102
RTVSPropertyOp7
 70
     1
102
RTVSPropertyOp8
 70
     1
102
RTVSPropertyOp9
 70
     1
102
RTVSPropertyOp10
 70
     1
102
RTVSPropertyOp11
 70
     1
102
RTVSPropertyOp12
 70
     1
102
RTVSPropertyOp13
 70
     1
102
RTVSPropertyOp14
 70
     1
102
RTVSPropertyOp15
 70
     1
102
RTVSPropertyOp16
 70
     1
102
RTVSPropertyOp17
 70
     1
102
RTVSPropertyOp18
 70
     1
102
RTVSPropertyOp19
 70
     1
102
RTVSPropertyOp20
 70
     1
102
RTVSPropertyOp21
 70
     1
102
RTVSPropertyOp22
 70
     1
102
RTVSPropertyOp23
 70
     1
102
RTVSPropertyOp24
 70
     1
102
RTVSPropertyOp25
 70
     1
102
RTVSPropertyOp26
 70
     1
102
RTVSPropertyOp27
 70
     1
  0
ENDSEC
  0
EOF
