  0
SECTION
  2
HEADER
  9
$ACADVER
  1
AC1015
  9
$ACADMAINTVER
 70
     6
  9
$DWGCODEPAGE
  3
ANSI_1252
  9
$INSBASE
 10
0.0
 20
0.0
 30
0.0
  9
$EXTMIN
 10
0.0
 20
0.0
 30
0.0
  9
$EXTMAX
 10
25.0
 20
35.0
 30
0.0
  9
$LIMMIN
 10
0.0
 20
0.0
  9
$LIMMAX
 10
420.0
 20
297.0
  9
$ORTHOMODE
 70
     0
  9
$REGENMODE
 70
     1
  9
$FILLMODE
 70
     1
  9
$QTEXTMODE
 70
     0
  9
$MIRRTEXT
 70
     1
  9
$LTSCALE
 40
5.7
  9
$ATTMODE
 70
     1
  9
$TEXTSIZE
 40
2.5
  9
$TRACEWID
 40
1.0
  9
$TEXTSTYLE
  7
Standard
  9
$CLAYER
  8
0
  9
$CELTYPE
  6
ByLayer
  9
$CECOLOR
 62
   256
  9
$CELTSCALE
 40
1.0
  9
$DISPSILH
 70
     0
  9
$DIMSCALE
 40
1.0
  9
$DIMASZ
 40
2.5
  9
$DIMEXO
 40
0.625
  9
$DIMDLI
 40
3.75
  9
$DIMRND
 40
0.0
  9
$DIMDLE
 40
0.0
  9
$DIMEXE
 40
1.25
  9
$DIMTP
 40
0.0
  9
$DIMTM
 40
0.0
  9
$DIMTXT
 40
2.5
  9
$DIMCEN
 40
2.5
  9
$DIMTSZ
 40
0.0
  9
$DIMTOL
 70
     0
  9
$DIMLIM
 70
     0
  9
$DIMTIH
 70
     0
  9
$DIMTOH
 70
     0
  9
$DIMSE1
 70
     0
  9
$DIMSE2
 70
     0
  9
$DIMTAD
 70
     1
  9
$DIMZIN
 70
     8
  9
$DIMBLK
  1

  9
$DIMASO
 70
     1
  9
$DIMSHO
 70
     1
  9
$DIMPOST
  1

  9
$DIMAPOST
  1

  9
$DIMALT
 70
     0
  9
$DIMALTD
 70
     3
  9
$DIMALTF
 40
0.03937007874016
  9
$DIMLFAC
 40
1.0
  9
$DIMTOFL
 70
     1
  9
$DIMTVP
 40
0.0
  9
$DIMTIX
 70
     0
  9
$DIMSOXD
 70
     0
  9
$DIMSAH
 70
     0
  9
$DIMBLK1
  1

  9
$DIMBLK2
  1

  9
$DIMSTYLE
  2
ISO-25
  9
$DIMCLRD
 70
     0
  9
$DIMCLRE
 70
     0
  9
$DIMCLRT
 70
     0
  9
$DIMTFAC
 40
1.0
  9
$DIMGAP
 40
0.625
  9
$DIMJUST
 70
     0
  9
$DIMSD1
 70
     0
  9
$DIMSD2
 70
     0
  9
$DIMTOLJ
 70
     0
  9
$DIMTZIN
 70
     8
  9
$DIMALTZ
 70
     0
  9
$DIMALTTZ
 70
     0
  9
$DIMUPT
 70
     0
  9
$DIMDEC
 70
     2
  9
$DIMTDEC
 70
     2
  9
$DIMALTU
 70
     2
  9
$DIMALTTD
 70
     3
  9
$DIMTXSTY
  7
Standard
  9
$DIMAUNIT
 70
     0
  9
$DIMADEC
 70
     0
  9
$DIMALTRND
 40
0.0
  9
$DIMAZIN
 70
     0
  9
$DIMDSEP
 70
    44
  9
$DIMATFIT
 70
     3
  9
$DIMFRAC
 70
     0
  9
$DIMLDRBLK
  1

  9
$DIMLUNIT
 70
     2
  9
$DIMLWD
 70
    -2
  9
$DIMLWE
 70
    -2
  9
$DIMTMOVE
 70
     0
  9
$LUNITS
 70
     2
  9
$LUPREC
 70
     4
  9
$SKETCHINC
 40
1.0
  9
$FILLETRAD
 40
10.0
  9
$AUNITS
 70
     0
  9
$AUPREC
 70
     0
  9
$MENU
  1
.
  9
$ELEVATION
 40
0.0
  9
$PELEVATION
 40
0.0
  9
$THICKNESS
 40
0.0
  9
$LIMCHECK
 70
     0
  9
$CHAMFERA
 40
10.0
  9
$CHAMFERB
 40
10.0
  9
$CHAMFERC
 40
20.0
  9
$CHAMFERD
 40
0.0
  9
$SKPOLY
 70
     0
  9
$TDCREATE
 40
2458899.461805556
  9
$TDUCREATE
 40
2458899.420138889
  9
$TDUPDATE
 40
2458899.465277778
  9
$TDUUPDATE
 40
2458899.423611111
  9
$TDINDWG
 40
0.0000000116
  9
$TDUSRTIMER
 40
0.0000000116
  9
$USRTIMER
 70
     1
  9
$ANGBASE
 50
0.0
  9
$ANGDIR
 70
     0
  9
$PDMODE
 70
     0
  9
$PDSIZE
 40
0.0
  9
$PLINEWID
 40
0.0
  9
$SPLFRAME
 70
     0
  9
$SPLINETYPE
 70
     6
  9
$SPLINESEGS
 70
     8
  9
$HANDSEED
  5
C8D
  9
$SURFTAB1
 70
     6
  9
$SURFTAB2
 70
     6
  9
$SURFTYPE
 70
     6
  9
$SURFU
 70
     6
  9
$SURFV
 70
     6
  9
$UCSBASE
  2

  9
$UCSNAME
  2

  9
$UCSORG
 10
0.0
 20
0.0
 30
0.0
  9
$UCSXDIR
 10
1.0
 20
0.0
 30
0.0
  9
$UCSYDIR
 10
0.0
 20
1.0
 30
0.0
  9
$UCSORTHOREF
  2

  9
$UCSORTHOVIEW
 70
     0
  9
$UCSORGTOP
 10
0.0
 20
0.0
 30
0.0
  9
$UCSORGBOTTOM
 10
0.0
 20
0.0
 30
0.0
  9
$UCSORGLEFT
 10
0.0
 20
0.0
 30
0.0
  9
$UCSORGRIGHT
 10
0.0
 20
0.0
 30
0.0
  9
$UCSORGFRONT
 10
0.0
 20
0.0
 30
0.0
  9
$UCSORGBACK
 10
0.0
 20
0.0
 30
0.0
  9
$PUCSBASE
  2

  9
$PUCSNAME
  2

  9
$PUCSORG
 10
0.0
 20
0.0
 30
0.0
  9
$PUCSXDIR
 10
1.0
 20
0.0
 30
0.0
  9
$PUCSYDIR
 10
0.0
 20
1.0
 30
0.0
  9
$PUCSORTHOREF
  2

  9
$PUCSORTHOVIEW
 70
     0
  9
$PUCSORGTOP
 10
0.0
 20
0.0
 30
0.0
  9
$PUCSORGBOTTOM
 10
0.0
 20
0.0
 30
0.0
  9
$PUCSORGLEFT
 10
0.0
 20
0.0
 30
0.0
  9
$PUCSORGRIGHT
 10
0.0
 20
0.0
 30
0.0
  9
$PUCSORGFRONT
 10
0.0
 20
0.0
 30
0.0
  9
$PUCSORGBACK
 10
0.0
 20
0.0
 30
0.0
  9
$USERI1
 70
     0
  9
$USERI2
 70
     0
  9
$USERI3
 70
     0
  9
$USERI4
 70
     0
  9
$USERI5
 70
     0
  9
$USERR1
 40
0.0
  9
$USERR2
 40
0.0
  9
$USERR3
 40
0.0
  9
$USERR4
 40
0.0
  9
$USERR5
 40
0.0
  9
$WORLDVIEW
 70
     1
  9
$SHADEDGE
 70
     3
  9
$SHADEDIF
 70
    70
  9
$TILEMODE
 70
     1
  9
$MAXACTVP
 70
    64
  9
$PINSBASE
 10
0.0
 20
0.0
 30
0.0
  9
$PLIMCHECK
 70
     0
  9
$PEXTMIN
 10
1.000000000000000E+20
 20
1.000000000000000E+20
 30
1.000000000000000E+20
  9
$PEXTMAX
 10
-1.000000000000000E+20
 20
-1.000000000000000E+20
 30
-1.000000000000000E+20
  9
$PLIMMIN
 10
0.0
 20
0.0
  9
$PLIMMAX
 10
420.0
 20
297.0
  9
$UNITMODE
 70
     0
  9
$VISRETAIN
 70
     1
  9
$PLINEGEN
 70
     0
  9
$PSLTSCALE
 70
     1
  9
$TREEDEPTH
 70
  3020
  9
$CMLSTYLE
  2
Standard
  9
$CMLJUST
 70
     0
  9
$CMLSCALE
 40
20.0
  9
$PROXYGRAPHICS
 70
     1
  9
$MEASUREMENT
 70
     1
  9
$CELWEIGHT
370
    -1
  9
$ENDCAPS
280
     0
  9
$JOINSTYLE
280
     0
  9
$LWDISPLAY
290
     0
  9
$INSUNITS
 70
     4
  9
$HYPERLINKBASE
  1

  9
$STYLESHEET
  1

  9
$XEDIT
290
     1
  9
$CEPSNTYPE
380
     0
  9
$PSTYLEMODE
290
     1
  9
$FINGERPRINTGUID
  2
{A887CF1F-6DFA-46E7-B035-6C1C381C3A81}
  9
$VERSIONGUID
  2
{FAEB1C32-E019-11D5-929B-00C0DF256EC4}
  9
$EXTNAMES
290
     1
  9
$PSVPSCALE
 40
0.0
  9
$OLESTARTUP
290
     0
  0
ENDSEC
  0
SECTION
  2
CLASSES
  0
CLASS
  1
ACDBDICTIONARYWDFLT
  2
AcDbDictionaryWithDefault
  3
ObjectDBX Classes
 90
        0
280
     0
281
     0
  0
CLASS
  1
VISUALSTYLE
  2
AcDbVisualStyle
  3
ObjectDBX Classes
 90
     4095
280
     0
281
     0
  0
CLASS
  1
MATERIAL
  2
AcDbMaterial
  3
ObjectDBX Classes
 90
     1153
280
     0
281
     0
  0
CLASS
  1
SCALE
  2
AcDbScale
  3
ObjectDBX Classes
 90
     1153
280
     0
281
     0
  0
CLASS
  1
DICTIONARYVAR
  2
AcDbDictionaryVar
  3
ObjectDBX Classes
 90
        0
280
     0
281
     0
  0
CLASS
  1
ACDBPLACEHOLDER
  2
AcDbPlaceHolder
  3
ObjectDBX Classes
 90
        0
280
     0
281
     0
  0
CLASS
  1
LAYOUT
  2
AcDbLayout
  3
ObjectDBX Classes
 90
        0
280
     0
281
     0
  0
ENDSEC
  0
SECTION
  2
TABLES
  0
TABLE
  2
VPORT
  5
8
330
0
100
AcDbSymbolTable
 70
     1
  0
VPORT
  5
29
330
8
100
AcDbSymbolTableRecord
100
AcDbViewportTableRecord
  2
*Active
 70
     0
 10
0.0
 20
0.0
 11
1.0
 21
1.0
 12
11.26
 22
4.5
 13
0.0
 23
0.0
 14
10.0
 24
10.0
 15
10.0
 25
10.0
 16
0.0
 26
0.0
 36
1.0
 17
0.0
 27
0.0
 37
0.0
 40
9.0
 41
2.503333333333333
 42
50.0
 43
0.0
 44
0.0
 50
0.0
 51
0.0
 71
     0
 72
   100
 73
     1
 74
     3
 75
     0
 76
     0
 77
     0
 78
     0
281
     0
 65
     1
110
0.0
120
0.0
130
0.0
111
1.0
121
0.0
131
0.0
112
0.0
122
1.0
132
0.0
 79
     0
146
0.0
  0
ENDTAB
  0
TABLE
  2
LTYPE
  5
5
330
0
100
AcDbSymbolTable
 70
    10
  0
LTYPE
  5
14
330
5
100
AcDbSymbolTableRecord
100
AcDbLinetypeTableRecord
  2
ByBlock
 70
     0
  3

 72
    65
 73
     0
 40
0.0
  0
LTYPE
  5
15
330
5
100
AcDbSymbolTableRecord
100
AcDbLinetypeTableRecord
  2
ByLayer
 70
     0
  3

 72
    65
 73
     0
 40
0.0
  0
LTYPE
  5
16
330
5
100
AcDbSymbolTableRecord
100
AcDbLinetypeTableRecord
  2
Continuous
 70
     0
  3
Solid line
 72
    65
 73
     0
 40
0.0
  0
LTYPE
  5
45
330
5
100
AcDbSymbolTableRecord
100
AcDbLinetypeTableRecord
  2
phl_thick
 70
     0
  3
THICK
 72
    65
 73
     0
 40
0.0
  0
LTYPE
  5
3AE
330
5
100
AcDbSymbolTableRecord
100
AcDbLinetypeTableRecord
  2
CUT
 70
     0
  3
THICK
 72
    65
 73
     0
 40
0.0
  0
LTYPE
  5
3B6
330
5
100
AcDbSymbolTableRecord
100
AcDbLinetypeTableRecord
  2
NOCUT
 70
     0
  3
THICK
 72
    65
 73
     0
 40
0.0
  0
LTYPE
  5
3C0
330
5
100
AcDbSymbolTableRecord
100
AcDbLinetypeTableRecord
  2
SK1
 70
     0
  3
THICK
 72
    65
 73
     0
 40
0.0
  0
LTYPE
  5
3C8
330
5
100
AcDbSymbolTableRecord
100
AcDbLinetypeTableRecord
  2
ls_SK2
 70
     0
  3
THIN
 72
    65
 73
     0
 40
0.0
  0
LTYPE
  5
474
330
5
100
AcDbSymbolTableRecord
100
AcDbLinetypeTableRecord
  2
ls_2
 70
     0
  3
THIN
 72
    65
 73
     0
 40
0.0
  0
LTYPE
  5
628
330
5
100
AcDbSymbolTableRecord
100
AcDbLinetypeTableRecord
  2
ls_SK1
 70
     0
  3
THICK
 72
    65
 73
     0
 40
0.0
  0
LTYPE
  5
662
330
5
100
AcDbSymbolTableRecord
100
AcDbLinetypeTableRecord
  2
LONGDASH_DASH
 70
     0
  3
THIN_DASHDOT
 72
    65
 73
     4
 40
0.85
 49
0.4
 74
     0
 49
-0.2
 74
     0
 49
0.05
 74
     0
 49
-0.2
 74
     0
  0
LTYPE
  5
667
330
5
100
AcDbSymbolTableRecord
100
AcDbLinetypeTableRecord
  2
INFTOTAL
 70
     0
  3
THIN
 72
    65
 73
     0
 40
0.0
  0
ENDTAB
  0
TABLE
  2
LAYER
  5
2
330
0
100
AcDbSymbolTable
 70
    10
  0
LAYER
  5
10
330
2
100
AcDbSymbolTableRecord
100
AcDbLayerTableRecord
  2
0
 70
     0
 62
     7
  6
Continuous
370
    -3
390
F
  0
LAYER
  5
44
330
2
100
AcDbSymbolTableRecord
100
AcDbLayerTableRecord
  2
1
 70
     0
 62
4
  6
CONTINUOUS
370
50
370
    -3
390
F
  0
LAYER
  5
3AD
330
2
100
AcDbSymbolTableRecord
100
AcDbLayerTableRecord
  2
CUT
 70
     0
 62
1
  6
CONTINUOUS
370
25
370
    -3
390
F
  0
LAYER
  5
3B5
330
2
100
AcDbSymbolTableRecord
100
AcDbLayerTableRecord
  2
NOCUT
 70
     0
 62
7
  6
CONTINUOUS
370
25
370
    -3
390
F
  0
LAYER
  5
3BF
330
2
100
AcDbSymbolTableRecord
100
AcDbLayerTableRecord
  2
SK1
 70
     0
 62
4
  6
CONTINUOUS
370
50
370
    -3
390
F
  0
LAYER
  5
3C7
330
2
100
AcDbSymbolTableRecord
100
AcDbLayerTableRecord
  2
SK2
 70
     0
 62
7
  6
CONTINUOUS
370
25
370
    -3
390
F
  0
LAYER
  5
473
330
2
100
AcDbSymbolTableRecord
100
AcDbLayerTableRecord
  2
2
 70
     0
 62
7
  6
CONTINUOUS
370
25
370
    -3
390
F
  0
LAYER
  5
661
330
2
100
AcDbSymbolTableRecord
100
AcDbLayerTableRecord
  2
4
 70
     0
 62
2
  6
LONGDASH_DASH
370
25
370
    -3
390
F
  0
LAYER
  5
664
330
2
100
AcDbSymbolTableRecord
100
AcDbLayerTableRecord
  2
SK4
 70
     0
 62
2
  6
LONGDASH_DASH
370
25
370
    -3
390
F
  0
LAYER
  5
666
330
2
100
AcDbSymbolTableRecord
100
AcDbLayerTableRecord
  2
INFTOTAL
 70
     0
 62
9
  6
CONTINUOUS
370
18
370
    -3
390
F
  0
ENDTAB
  0
TABLE
  2
STYLE
  5
3
330
0
100
AcDbSymbolTable
 70
     1
  0
STYLE
  5
11
330
3
100
AcDbSymbolTableRecord
100
AcDbTextStyleTableRecord
  2
Standard
 70
     0
 40
0.0
 41
1.0
 50
0.0
 71
     0
 42
2.5
  3
Monospac821 BT
  4

  0
ENDTAB
  0
TABLE
  2
VIEW
  5
6
330
0
100
AcDbSymbolTable
 70
     0
  0
ENDTAB
  0
TABLE
  2
UCS
  5
7
330
0
100
AcDbSymbolTable
 70
     0
  0
ENDTAB
  0
TABLE
  2
APPID
  5
9
330
0
100
AcDbSymbolTable
 70
     2
  0
APPID
  5
12
330
9
100
AcDbSymbolTableRecord
100
AcDbRegAppTableRecord
  2
ACAD
 70
     0
  0
APPID
  5
3F
330
9
100
AcDbSymbolTableRecord
100
AcDbRegAppTableRecord
  2
ccLab
 70
     0
  0
ENDTAB
  0
TABLE
  2
DIMSTYLE
  5
A
330
0
100
AcDbSymbolTable
 70
     1
100
AcDbDimStyleTable
  0
DIMSTYLE
105
27
330
A
100
AcDbSymbolTableRecord
100
AcDbDimStyleTableRecord
  2
ISO-25
 70
     0
 41
2.5
 42
0.625
 43
3.75
 44
1.25
 73
     0
 74
     0
 77
     1
 78
     8
140
2.5
141
2.5
143
0.03937007874016
147
0.625
171
     3
172
     1
271
     2
272
     2
274
     3
278
    44
283
     0
284
     8
340
11
  0
ENDTAB
  0
TABLE
  2
BLOCK_RECORD
  5
1
330
0
100
AcDbSymbolTable
 70
     2
  0
BLOCK_RECORD
  5
1F
330
1
100
AcDbSymbolTableRecord
100
AcDbBlockTableRecord
  2
*Model_Space
340
22
  0
BLOCK_RECORD
  5
1B
330
1
100
AcDbSymbolTableRecord
100
AcDbBlockTableRecord
  2
*Paper_Space
340
1E
  0
BLOCK_RECORD
  5
23
330
1
100
AcDbSymbolTableRecord
100
AcDbBlockTableRecord
  2
*Paper_Space0
340
26
  0
ENDTAB
  0
ENDSEC
  0
SECTION
  2
BLOCKS
  0
BLOCK
  5
20
330
1F
100
AcDbEntity
  8
0
100
AcDbBlockBegin
  2
*Model_Space
 70
     0
 10
0.0
 20
0.0
 30
0.0
  3
*Model_Space
  1

  0
ENDBLK
  5
21
330
1F
100
AcDbEntity
  8
0
100
AcDbBlockEnd
  0
BLOCK
  5
1C
330
1B
100
AcDbEntity
 67
     1
  8
0
100
AcDbBlockBegin
  2
*Paper_Space
 70
     0
 10
0.0
 20
0.0
 30
0.0
  3
*Paper_Space
  1

  0
ENDBLK
  5
1D
330
1B
100
AcDbEntity
 67
     1
  8
0
100
AcDbBlockEnd
  0
BLOCK
  5
24
330
23
100
AcDbEntity
  8
0
100
AcDbBlockBegin
  2
*Paper_Space0
 70
     0
 10
0.0
 20
0.0
 30
0.0
  3
*Paper_Space0
  1

  0
ENDBLK
  5
25
330
23
100
AcDbEntity
  8
0
100
AcDbBlockEnd
  0
ENDSEC
  0
SECTION
  2
ENTITIES
  0
LINE
  5
66B
330
1F
100
AcDbEntity
  8
1
  6
CONTINUOUS
370
50
 62
4
100
AcDbLine
 10
7.062628999999999
 20
0.033847
 30
0.0
 11
7.062615999999999
 21
0.036713
 31
0.0
  0
LINE
  5
66C
330
1F
100
AcDbEntity
  8
1
  6
CONTINUOUS
370
50
 62
4
100
AcDbLine
 10
7.06263
 20
0.033594
 30
0.0
 11
7.062615
 21
0.036885
 31
0.0
  0
LINE
  5
66D
330
1F
100
AcDbEntity
  8
1
  6
CONTINUOUS
370
50
 62
4
100
AcDbLine
 10
7.270982
 20
-0.04286
 30
0.0
 11
7.270950999999999
 21
-0.040276
 31
0.0
  0
LINE
  5
66E
330
1F
100
AcDbEntity
  8
1
  6
CONTINUOUS
370
50
 62
4
100
AcDbLine
 10
7.062615999999999
 20
0.036713
 30
0.0
 11
7.062578999999999
 21
0.039616
 31
0.0
  0
LINE
  5
66F
330
1F
100
AcDbEntity
  8
1
  6
CONTINUOUS
370
50
 62
4
100
AcDbLine
 10
7.270041999999999
 20
-0.087206
 30
0.0
 11
7.269939
 21
-0.079364
 31
0.0
  0
LINE
  5
670
330
1F
100
AcDbEntity
  8
1
  6
CONTINUOUS
370
50
 62
4
100
AcDbLine
 10
7.062615
 20
0.036885
 30
0.0
 11
7.062569
 21
0.040225
 31
0.0
  0
LINE
  5
671
330
1F
100
AcDbEntity
  8
1
  6
CONTINUOUS
370
50
 62
4
100
AcDbLine
 10
7.293959
 20
0.1
 30
0.0
 11
7.293867
 21
0.104865
 31
0.0
  0
LINE
  5
672
330
1F
100
AcDbEntity
  8
1
  6
CONTINUOUS
370
50
 62
4
100
AcDbLine
 10
7.062578999999999
 20
0.039616
 30
0.0
 11
7.062519
 21
0.04255
 31
0.0
  0
LINE
  5
673
330
1F
100
AcDbEntity
  8
1
  6
CONTINUOUS
370
50
 62
4
100
AcDbLine
 10
7.062569
 20
0.040225
 30
0.0
 11
7.062492
 21
0.043602
 31
0.0
  0
LINE
  5
674
330
1F
100
AcDbEntity
  8
1
  6
CONTINUOUS
370
50
 62
4
100
AcDbLine
 10
7.270950999999999
 20
-0.040276
 30
0.0
 11
7.270881999999999
 21
-0.037699
 31
0.0
  0
LINE
  5
675
330
1F
100
AcDbEntity
  8
1
  6
CONTINUOUS
370
50
 62
4
100
AcDbLine
 10
7.062519
 20
0.04255
 30
0.0
 11
7.062436
 21
0.045509
 31
0.0
  0
LINE
  5
676
330
1F
100
AcDbEntity
  8
1
  6
CONTINUOUS
370
50
 62
4
100
AcDbLine
 10
7.270282
 20
-0.095031
 30
0.0
 11
7.270041999999999
 21
-0.087206
 31
0.0
  0
LINE
  5
677
330
1F
100
AcDbEntity
  8
1
  6
CONTINUOUS
370
50
 62
4
100
AcDbLine
 10
7.062492
 20
0.043602
 30
0.0
 11
7.062386
 21
0.047007
 31
0.0
  0
LINE
  5
678
330
1F
100
AcDbEntity
  8
1
  6
CONTINUOUS
370
50
 62
4
100
AcDbLine
 10
7.062436
 20
0.045509
 30
0.0
 11
7.062330999999999
 21
0.048488
 31
0.0
  0
LINE
  5
679
330
1F
100
AcDbEntity
  8
1
  6
CONTINUOUS
370
50
 62
4
100
AcDbLine
 10
7.062386
 20
0.047007
 30
0.0
 11
7.062253
 21
0.050429
 31
0.0
  0
LINE
  5
67A
330
1F
100
AcDbEntity
  8
1
  6
CONTINUOUS
370
50
 62
4
100
AcDbLine
 10
7.270881999999999
 20
-0.037699
 30
0.0
 11
7.270776
 21
-0.035134
 31
0.0
  0
LINE
  5
67B
330
1F
100
AcDbEntity
  8
1
  6
CONTINUOUS
370
50
 62
4
100
AcDbLine
 10
7.062330999999999
 20
0.048488
 30
0.0
 11
7.062205
 21
0.051479
 31
0.0
  0
LINE
  5
67C
330
1F
100
AcDbEntity
  8
1
  6
CONTINUOUS
370
50
 62
4
100
AcDbLine
 10
6.918888
 20
0.08039
 30
0.0
 11
6.918768999999999
 21
0.083113
 31
0.0
  0
LINE
  5
67D
330
1F
100
AcDbEntity
  8
1
  6
CONTINUOUS
370
50
 62
4
100
AcDbLine
 10
7.062253
 20
0.050429
 30
0.0
 11
7.062092
 21
0.053861
 31
0.0
  0
LINE
  5
67E
330
1F
100
AcDbEntity
  8
1
  6
CONTINUOUS
370
50
 62
4
100
AcDbLine
 10
7.225924
 20
0.013402
 30
0.0
 11
7.225810999999999
 21
0.015807
 31
0.0
  0
LINE
  5
67F
330
1F
100
AcDbEntity
  8
1
  6
CONTINUOUS
370
50
 62
4
100
AcDbLine
 10
7.062205
 20
0.051479
 30
0.0
 11
7.06206
 21
0.054478
 31
0.0
  0
LINE
  5
680
330
1F
100
AcDbEntity
  8
1
  6
CONTINUOUS
370
50
 62
4
100
AcDbLine
 10
7.270659999999999
 20
-0.102823
 30
0.0
 11
7.270282
 21
-0.095031
 31
0.0
  0
LINE
  5
681
330
1F
100
AcDbEntity
  8
1
  6
CONTINUOUS
370
50
 62
4
100
AcDbLine
 10
7.062092
 20
0.053861
 30
0.0
 11
7.061907
 21
0.057293
 31
0.0
  0
LINE
  5
682
330
1F
100
AcDbEntity
  8
1
  6
CONTINUOUS
370
50
 62
4
100
AcDbLine
 10
7.06206
 20
0.054478
 30
0.0
 11
7.061896
 21
0.057466
 31
0.0
  0
LINE
  5
683
330
1F
100
AcDbEntity
  8
1
  6
CONTINUOUS
370
50
 62
4
100
AcDbLine
 10
7.270776
 20
-0.035134
 30
0.0
 11
7.270632999999999
 21
-0.032583
 31
0.0
  0
LINE
  5
684
330
1F
100
AcDbEntity
  8
1
  6
CONTINUOUS
370
50
 62
4
100
AcDbLine
 10
7.225924
 20
0.115594
 30
0.0
 11
7.225795
 21
0.117853
 31
0.0
  0
LINE
  5
685
330
1F
100
AcDbEntity
  8
1
  6
CONTINUOUS
370
50
 62
4
100
AcDbLine
 10
7.061896
 20
0.057466
 30
0.0
 11
7.061716
 21
0.060432
 31
0.0
  0
LINE
  5
686
330
1F
100
AcDbEntity
  8
1
  6
CONTINUOUS
370
50
 62
4
100
AcDbLine
 10
7.061907
 20
0.057293
 30
0.0
 11
7.0617
 21
0.0607
 31
0.0
  0
LINE
  5
687
330
1F
100
AcDbEntity
  8
1
  6
CONTINUOUS
370
50
 62
4
100
AcDbLine
 10
7.061716
 20
0.060432
 30
0.0
 11
7.061521
 21
0.063372
 31
0.0
  0
LINE
  5
688
330
1F
100
AcDbEntity
  8
1
  6
CONTINUOUS
370
50
 62
4
100
AcDbLine
 10
7.271176
 20
-0.110541
 30
0.0
 11
7.270659999999999
 21
-0.102823
 31
0.0
  0
LINE
  5
689
330
1F
100
AcDbEntity
  8
1
  6
CONTINUOUS
370
50
 62
4
100
AcDbLine
 10
7.0617
 20
0.0607
 30
0.0
 11
7.061472999999999
 21
0.064068
 31
0.0
  0
LINE
  5
68A
330
1F
100
AcDbEntity
  8
1
  6
CONTINUOUS
370
50
 62
4
100
AcDbLine
 10
7.293867
 20
0.104865
 30
0.0
 11
7.293546999999999
 21
0.109501
 31
0.0
  0
LINE
  5
68B
330
1F
100
AcDbEntity
  8
1
  6
CONTINUOUS
370
50
 62
4
100
AcDbLine
 10
7.270632999999999
 20
-0.032583
 30
0.0
 11
7.270455
 21
-0.030051
 31
0.0
  0
LINE
  5
68C
330
1F
100
AcDbEntity
  8
1
  6
CONTINUOUS
370
50
 62
4
100
AcDbLine
 10
7.061521
 20
0.063372
 30
0.0
 11
7.061312
 21
0.066279
 31
0.0
  0
LINE
  5
68D
330
1F
100
AcDbEntity
  8
1
  6
CONTINUOUS
370
50
 62
4
100
AcDbLine
 10
7.061472999999999
 20
0.064068
 30
0.0
 11
7.061229
 21
0.067391
 31
0.0
  0
LINE
  5
68E
330
1F
100
AcDbEntity
  8
1
  6
CONTINUOUS
370
50
 62
4
100
AcDbLine
 10
7.061312
 20
0.066279
 30
0.0
 11
7.06109
 21
0.069148
 31
0.0
  0
LINE
  5
68F
330
1F
100
AcDbEntity
  8
1
  6
CONTINUOUS
370
50
 62
4
100
AcDbLine
 10
7.061229
 20
0.067391
 30
0.0
 11
7.060969
 21
0.070658
 31
0.0
  0
LINE
  5
690
330
1F
100
AcDbEntity
  8
1
  6
CONTINUOUS
370
50
 62
4
100
AcDbLine
 10
7.06109
 20
0.069148
 30
0.0
 11
7.060856999999999
 21
0.071974
 31
0.0
  0
LINE
  5
691
330
1F
100
AcDbEntity
  8
1
  6
CONTINUOUS
370
50
 62
4
100
AcDbLine
 10
7.271824
 20
-0.118131
 30
0.0
 11
7.271176
 21
-0.110541
 31
0.0
  0
LINE
  5
692
330
1F
100
AcDbEntity
  8
1
  6
CONTINUOUS
370
50
 62
4
100
AcDbLine
 10
7.060969
 20
0.070658
 30
0.0
 11
7.060695
 21
0.073864
 31
0.0
  0
LINE
  5
693
330
1F
100
AcDbEntity
  8
1
  6
CONTINUOUS
370
50
 62
4
100
AcDbLine
 10
7.060856999999999
 20
0.071974
 30
0.0
 11
7.060613999999999
 21
0.074751
 31
0.0
  0
LINE
  5
694
330
1F
100
AcDbEntity
  8
1
  6
CONTINUOUS
370
50
 62
4
100
AcDbLine
 10
7.060695
 20
0.073864
 30
0.0
 11
7.060409
 21
0.076999
 31
0.0
  0
LINE
  5
695
330
1F
100
AcDbEntity
  8
1
  6
CONTINUOUS
370
50
 62
4
100
AcDbLine
 10
7.060613999999999
 20
0.074751
 30
0.0
 11
7.060362
 21
0.077471
 31
0.0
  0
LINE
  5
696
330
1F
100
AcDbEntity
  8
1
  6
CONTINUOUS
370
50
 62
4
100
AcDbLine
 10
7.060409
 20
0.076999
 30
0.0
 11
7.060111999999999
 21
0.080054
 31
0.0
  0
LINE
  5
697
330
1F
100
AcDbEntity
  8
1
  6
CONTINUOUS
370
50
 62
4
100
AcDbLine
 10
7.060362
 20
0.077471
 30
0.0
 11
7.060103
 21
0.080126
 31
0.0
  0
LINE
  5
698
330
1F
100
AcDbEntity
  8
1
  6
CONTINUOUS
370
50
 62
4
100
AcDbLine
 10
7.225810999999999
 20
0.015807
 30
0.0
 11
7.225584
 21
0.018119
 31
0.0
  0
LINE
  5
699
330
1F
100
AcDbEntity
  8
1
  6
CONTINUOUS
370
50
 62
4
100
AcDbLine
 10
7.060103
 20
0.080126
 30
0.0
 11
7.059837
 21
0.08271
 31
0.0
  0
LINE
  5
69A
330
1F
100
AcDbEntity
  8
1
  6
CONTINUOUS
370
50
 62
4
100
AcDbLine
 10
7.060111999999999
 20
0.080054
 30
0.0
 11
7.059806999999999
 21
0.083016
 31
0.0
  0
LINE
  5
69B
330
1F
100
AcDbEntity
  8
1
  6
CONTINUOUS
370
50
 62
4
100
AcDbLine
 10
7.272603999999999
 20
-0.125581
 30
0.0
 11
7.271824
 21
-0.118131
 31
0.0
  0
LINE
  5
69C
330
1F
100
AcDbEntity
  8
1
  6
CONTINUOUS
370
50
 62
4
100
AcDbLine
 10
7.059837
 20
0.08271
 30
0.0
 11
7.059565999999999
 21
0.08522
 31
0.0
  0
LINE
  5
69D
330
1F
100
AcDbEntity
  8
1
  6
CONTINUOUS
370
50
 62
4
100
AcDbLine
 10
7.059806999999999
 20
0.083016
 30
0.0
 11
7.059495999999999
 21
0.085876
 31
0.0
  0
LINE
  5
69E
330
1F
100
AcDbEntity
  8
1
  6
CONTINUOUS
370
50
 62
4
100
AcDbLine
 10
7.225795
 20
0.117853
 30
0.0
 11
7.225531999999999
 21
0.120233
 31
0.0
  0
LINE
  5
69F
330
1F
100
AcDbEntity
  8
1
  6
CONTINUOUS
370
50
 62
4
100
AcDbLine
 10
7.059565999999999
 20
0.08522
 30
0.0
 11
7.059291
 21
0.087652
 31
0.0
  0
LINE
  5
6A0
330
1F
100
AcDbEntity
  8
1
  6
CONTINUOUS
370
50
 62
4
100
AcDbLine
 10
7.059495999999999
 20
0.085876
 30
0.0
 11
7.05918
 21
0.088628
 31
0.0
  0
LINE
  5
6A1
330
1F
100
AcDbEntity
  8
1
  6
CONTINUOUS
370
50
 62
4
100
AcDbLine
 10
7.059291
 20
0.087652
 30
0.0
 11
7.059012
 21
0.089998
 31
0.0
  0
LINE
  5
6A2
330
1F
100
AcDbEntity
  8
1
  6
CONTINUOUS
370
50
 62
4
100
AcDbLine
 10
7.05918
 20
0.088628
 30
0.0
 11
7.058858
 21
0.091267
 31
0.0
  0
LINE
  5
6A3
330
1F
100
AcDbEntity
  8
1
  6
CONTINUOUS
370
50
 62
4
100
AcDbLine
 10
7.293546999999999
 20
0.109501
 30
0.0
 11
7.292966
 21
0.11418
 31
0.0
  0
LINE
  5
6A4
330
1F
100
AcDbEntity
  8
1
  6
CONTINUOUS
370
50
 62
4
100
AcDbLine
 10
7.273511999999999
 20
-0.132876
 30
0.0
 11
7.272603999999999
 21
-0.125581
 31
0.0
  0
LINE
  5
6A5
330
1F
100
AcDbEntity
  8
1
  6
CONTINUOUS
370
50
 62
4
100
AcDbLine
 10
7.059012
 20
0.089998
 30
0.0
 11
7.058731
 21
0.092254
 31
0.0
  0
LINE
  5
6A6
330
1F
100
AcDbEntity
  8
1
  6
CONTINUOUS
370
50
 62
4
100
AcDbLine
 10
7.058858
 20
0.091267
 30
0.0
 11
7.058534
 21
0.093786
 31
0.0
  0
LINE
  5
6A7
330
1F
100
AcDbEntity
  8
1
  6
CONTINUOUS
370
50
 62
4
100
AcDbLine
 10
7.058731
 20
0.092254
 30
0.0
 11
7.058446999999999
 21
0.094416
 31
0.0
  0
LINE
  5
6A8
330
1F
100
AcDbEntity
  8
1
  6
CONTINUOUS
370
50
 62
4
100
AcDbLine
 10
7.058534
 20
0.093786
 30
0.0
 11
7.058208
 21
0.096179
 31
0.0
  0
LINE
  5
6A9
330
1F
100
AcDbEntity
  8
1
  6
CONTINUOUS
370
50
 62
4
100
AcDbLine
 10
7.058446999999999
 20
0.094416
 30
0.0
 11
7.058161999999999
 21
0.096479
 31
0.0
  0
LINE
  5
6AA
330
1F
100
AcDbEntity
  8
1
  6
CONTINUOUS
370
50
 62
4
100
AcDbLine
 10
7.058161999999999
 20
0.096479
 30
0.0
 11
7.057877
 21
0.098442
 31
0.0
  0
LINE
  5
6AB
330
1F
100
AcDbEntity
  8
1
  6
CONTINUOUS
370
50
 62
4
100
AcDbLine
 10
7.058208
 20
0.096179
 30
0.0
 11
7.057879
 21
0.098441
 31
0.0
  0
LINE
  5
6AC
330
1F
100
AcDbEntity
  8
1
  6
CONTINUOUS
370
50
 62
4
100
AcDbLine
 10
7.056215
 20
0.109542
 30
0.0
 11
7.055662
 21
0.113242
 31
0.0
  0
LINE
  5
6AD
330
1F
100
AcDbEntity
  8
1
  6
CONTINUOUS
370
50
 62
4
100
AcDbLine
 10
7.057325
 20
0.102145
 30
0.0
 11
7.055663
 21
0.11326
 31
0.0
  0
LINE
  5
6AE
330
1F
100
AcDbEntity
  8
1
  6
CONTINUOUS
370
50
 62
4
100
AcDbLine
 10
7.057879
 20
0.098441
 30
0.0
 11
7.057325
 21
0.102145
 31
0.0
  0
LINE
  5
6AF
330
1F
100
AcDbEntity
  8
1
  6
CONTINUOUS
370
50
 62
4
100
AcDbLine
 10
7.055663
 20
0.11326
 30
0.0
 11
7.055109
 21
0.116964
 31
0.0
  0
LINE
  5
6B0
330
1F
100
AcDbEntity
  8
1
  6
CONTINUOUS
370
50
 62
4
100
AcDbLine
 10
7.054554
 20
0.120668
 30
0.0
 11
7.053999999999999
 21
0.124372
 31
0.0
  0
LINE
  5
6B1
330
1F
100
AcDbEntity
  8
1
  6
CONTINUOUS
370
50
 62
4
100
AcDbLine
 10
7.057877
 20
0.098442
 30
0.0
 11
7.056215
 21
0.109542
 31
0.0
  0
LINE
  5
6B2
330
1F
100
AcDbEntity
  8
1
  6
CONTINUOUS
370
50
 62
4
100
AcDbLine
 10
7.055108
 20
0.116941
 30
0.0
 11
7.054554
 21
0.120641
 31
0.0
  0
LINE
  5
6B3
330
1F
100
AcDbEntity
  8
1
  6
CONTINUOUS
370
50
 62
4
100
AcDbLine
 10
7.055662
 20
0.113242
 30
0.0
 11
7.055108
 21
0.116941
 31
0.0
  0
LINE
  5
6B4
330
1F
100
AcDbEntity
  8
1
  6
CONTINUOUS
370
50
 62
4
100
AcDbLine
 10
7.054554
 20
0.120641
 30
0.0
 11
7.053999999999999
 21
0.12434
 31
0.0
  0
LINE
  5
6B5
330
1F
100
AcDbEntity
  8
1
  6
CONTINUOUS
370
50
 62
4
100
AcDbLine
 10
7.055109
 20
0.116964
 30
0.0
 11
7.054554
 21
0.120668
 31
0.0
  0
LINE
  5
6B6
330
1F
100
AcDbEntity
  8
1
  6
CONTINUOUS
370
50
 62
4
100
AcDbLine
 10
7.225584
 20
0.018119
 30
0.0
 11
7.225249
 21
0.020336
 31
0.0
  0
LINE
  5
6B7
330
1F
100
AcDbEntity
  8
1
  6
CONTINUOUS
370
50
 62
4
100
AcDbLine
 10
6.919312
 20
0.07768
 30
0.0
 11
6.918888
 21
0.08039
 31
0.0
  0
LINE
  5
6B8
330
1F
100
AcDbEntity
  8
1
  6
CONTINUOUS
370
50
 62
4
100
AcDbLine
 10
7.225531999999999
 20
0.120233
 30
0.0
 11
7.225141
 21
0.122719
 31
0.0
  0
LINE
  5
6B9
330
1F
100
AcDbEntity
  8
1
  6
CONTINUOUS
370
50
 62
4
100
AcDbLine
 10
7.292966
 20
0.11418
 30
0.0
 11
7.292132
 21
0.119
 31
0.0
  0
LINE
  5
6BA
330
1F
100
AcDbEntity
  8
1
  6
CONTINUOUS
370
50
 62
4
100
AcDbLine
 10
7.225141
 20
0.122719
 30
0.0
 11
7.224627
 21
0.125309
 31
0.0
  0
LINE
  5
6BB
330
1F
100
AcDbEntity
  8
1
  6
CONTINUOUS
370
50
 62
4
100
AcDbLine
 10
7.225249
 20
0.020336
 30
0.0
 11
7.224812
 21
0.022459
 31
0.0
  0
LINE
  5
6BC
330
1F
100
AcDbEntity
  8
1
  6
CONTINUOUS
370
50
 62
4
100
AcDbLine
 10
7.292132
 20
0.119
 30
0.0
 11
7.291074
 21
0.123823
 31
0.0
  0
LINE
  5
6BD
330
1F
100
AcDbEntity
  8
1
  6
CONTINUOUS
370
50
 62
4
100
AcDbLine
 10
7.224627
 20
0.125309
 30
0.0
 11
7.223992
 21
0.12801
 31
0.0
  0
LINE
  5
6BE
330
1F
100
AcDbEntity
  8
1
  6
CONTINUOUS
370
50
 62
4
100
AcDbLine
 10
6.919125999999999
 20
-0.175644
 30
0.0
 11
6.918791
 21
-0.174247
 31
0.0
  0
LINE
  5
6BF
330
1F
100
AcDbEntity
  8
1
  6
CONTINUOUS
370
50
 62
4
100
AcDbLine
 10
6.920014999999999
 20
0.075008
 30
0.0
 11
6.919312
 21
0.07768
 31
0.0
  0
LINE
  5
6C0
330
1F
100
AcDbEntity
  8
1
  6
CONTINUOUS
370
50
 62
4
100
AcDbLine
 10
7.224812
 20
0.022459
 30
0.0
 11
7.224271
 21
0.024498
 31
0.0
  0
LINE
  5
6C1
330
1F
100
AcDbEntity
  8
1
  6
CONTINUOUS
370
50
 62
4
100
AcDbLine
 10
7.291074
 20
0.123823
 30
0.0
 11
7.289823999999999
 21
0.128514
 31
0.0
  0
LINE
  5
6C2
330
1F
100
AcDbEntity
  8
1
  6
CONTINUOUS
370
50
 62
4
100
AcDbLine
 10
7.223992
 20
0.12801
 30
0.0
 11
7.223237999999999
 21
0.130813
 31
0.0
  0
LINE
  5
6C3
330
1F
100
AcDbEntity
  8
1
  6
CONTINUOUS
370
50
 62
4
100
AcDbLine
 10
7.223237999999999
 20
0.130813
 30
0.0
 11
7.222367999999999
 21
0.133713
 31
0.0
  0
LINE
  5
6C4
330
1F
100
AcDbEntity
  8
1
  6
CONTINUOUS
370
50
 62
4
100
AcDbLine
 10
7.289823999999999
 20
0.128514
 30
0.0
 11
7.288412
 21
0.132934
 31
0.0
  0
LINE
  5
6C5
330
1F
100
AcDbEntity
  8
1
  6
CONTINUOUS
370
50
 62
4
100
AcDbLine
 10
7.293952999999999
 20
0.02737
 30
0.0
 11
7.293805
 21
0.027827
 31
0.0
  0
LINE
  5
6C6
330
1F
100
AcDbEntity
  8
1
  6
CONTINUOUS
370
50
 62
4
100
AcDbLine
 10
7.291656
 20
0.034439
 30
0.0
 11
7.290997
 21
0.03647
 31
0.0
  0
LINE
  5
6C7
330
1F
100
AcDbEntity
  8
1
  6
CONTINUOUS
370
50
 62
4
100
AcDbLine
 10
7.283249
 20
0.060314
 30
0.0
 11
7.282335
 21
0.06313
 31
0.0
  0
LINE
  5
6C8
330
1F
100
AcDbEntity
  8
1
  6
CONTINUOUS
370
50
 62
4
100
AcDbLine
 10
7.293552999999999
 20
0.028603
 30
0.0
 11
7.293219
 21
0.029632
 31
0.0
  0
LINE
  5
6C9
330
1F
100
AcDbEntity
  8
1
  6
CONTINUOUS
370
50
 62
4
100
AcDbLine
 10
7.270033
 20
0.100989
 30
0.0
 11
7.269933999999999
 21
0.101294
 31
0.0
  0
LINE
  5
6CA
330
1F
100
AcDbEntity
  8
1
  6
CONTINUOUS
370
50
 62
4
100
AcDbLine
 10
7.271535
 20
0.096366
 30
0.0
 11
7.270835
 21
0.098522
 31
0.0
  0
LINE
  5
6CB
330
1F
100
AcDbEntity
  8
1
  6
CONTINUOUS
370
50
 62
4
100
AcDbLine
 10
7.277464999999999
 20
0.078116
 30
0.0
 11
7.276460999999999
 21
0.081208
 31
0.0
  0
LINE
  5
6CC
330
1F
100
AcDbEntity
  8
1
  6
CONTINUOUS
370
50
 62
4
100
AcDbLine
 10
7.293805
 20
0.027827
 30
0.0
 11
7.293552999999999
 21
0.028603
 31
0.0
  0
LINE
  5
6CD
330
1F
100
AcDbEntity
  8
1
  6
CONTINUOUS
370
50
 62
4
100
AcDbLine
 10
7.274477
 20
0.087311
 30
0.0
 11
7.273512999999999
 21
0.090279
 31
0.0
  0
LINE
  5
6CE
330
1F
100
AcDbEntity
  8
1
  6
CONTINUOUS
370
50
 62
4
100
AcDbLine
 10
7.289479
 20
0.04114
 30
0.0
 11
7.288703
 21
0.043529
 31
0.0
  0
LINE
  5
6CF
330
1F
100
AcDbEntity
  8
1
  6
CONTINUOUS
370
50
 62
4
100
AcDbLine
 10
7.273511999999999
 20
0.090281
 30
0.0
 11
7.272429
 21
0.093615
 31
0.0
  0
LINE
  5
6D0
330
1F
100
AcDbEntity
  8
1
  6
CONTINUOUS
370
50
 62
4
100
AcDbLine
 10
7.288703
 20
0.043529
 30
0.0
 11
7.287872999999999
 21
0.046084
 31
0.0
  0
LINE
  5
6D1
330
1F
100
AcDbEntity
  8
1
  6
CONTINUOUS
370
50
 62
4
100
AcDbLine
 10
7.287872999999999
 20
0.046084
 30
0.0
 11
7.286991
 21
0.048799
 31
0.0
  0
LINE
  5
6D2
330
1F
100
AcDbEntity
  8
1
  6
CONTINUOUS
370
50
 62
4
100
AcDbLine
 10
7.285132
 20
0.054519
 30
0.0
 11
7.284186
 21
0.057431
 31
0.0
  0
LINE
  5
6D3
330
1F
100
AcDbEntity
  8
1
  6
CONTINUOUS
370
50
 62
4
100
AcDbLine
 10
7.281404999999999
 20
0.065991
 30
0.0
 11
7.280446
 21
0.068943
 31
0.0
  0
LINE
  5
6D4
330
1F
100
AcDbEntity
  8
1
  6
CONTINUOUS
370
50
 62
4
100
AcDbLine
 10
7.290997
 20
0.03647
 30
0.0
 11
7.290254999999999
 21
0.038754
 31
0.0
  0
LINE
  5
6D5
330
1F
100
AcDbEntity
  8
1
  6
CONTINUOUS
370
50
 62
4
100
AcDbLine
 10
7.270835
 20
0.098522
 30
0.0
 11
7.270333
 21
0.100067
 31
0.0
  0
LINE
  5
6D6
330
1F
100
AcDbEntity
  8
1
  6
CONTINUOUS
370
50
 62
4
100
AcDbLine
 10
7.286072
 20
0.051626
 30
0.0
 11
7.285132
 21
0.054519
 31
0.0
  0
LINE
  5
6D7
330
1F
100
AcDbEntity
  8
1
  6
CONTINUOUS
370
50
 62
4
100
AcDbLine
 10
7.280446
 20
0.068943
 30
0.0
 11
7.279465
 21
0.071962
 31
0.0
  0
LINE
  5
6D8
330
1F
100
AcDbEntity
  8
1
  6
CONTINUOUS
370
50
 62
4
100
AcDbLine
 10
7.279465
 20
0.071962
 30
0.0
 11
7.278468999999999
 21
0.075027
 31
0.0
  0
LINE
  5
6D9
330
1F
100
AcDbEntity
  8
1
  6
CONTINUOUS
370
50
 62
4
100
AcDbLine
 10
7.272429
 20
0.093615
 30
0.0
 11
7.271535
 21
0.096366
 31
0.0
  0
LINE
  5
6DA
330
1F
100
AcDbEntity
  8
1
  6
CONTINUOUS
370
50
 62
4
100
AcDbLine
 10
7.275462
 20
0.08428
 30
0.0
 11
7.274477
 21
0.087311
 31
0.0
  0
LINE
  5
6DB
330
1F
100
AcDbEntity
  8
1
  6
CONTINUOUS
370
50
 62
4
100
AcDbLine
 10
7.293219
 20
0.029632
 30
0.0
 11
7.292777999999999
 21
0.030989
 31
0.0
  0
LINE
  5
6DC
330
1F
100
AcDbEntity
  8
1
  6
CONTINUOUS
370
50
 62
4
100
AcDbLine
 10
7.284186
 20
0.057431
 30
0.0
 11
7.283249
 21
0.060314
 31
0.0
  0
LINE
  5
6DD
330
1F
100
AcDbEntity
  8
1
  6
CONTINUOUS
370
50
 62
4
100
AcDbLine
 10
7.278468999999999
 20
0.075027
 30
0.0
 11
7.277464999999999
 21
0.078116
 31
0.0
  0
LINE
  5
6DE
330
1F
100
AcDbEntity
  8
1
  6
CONTINUOUS
370
50
 62
4
100
AcDbLine
 10
7.292777999999999
 20
0.030989
 30
0.0
 11
7.292241
 21
0.032641
 31
0.0
  0
LINE
  5
6DF
330
1F
100
AcDbEntity
  8
1
  6
CONTINUOUS
370
50
 62
4
100
AcDbLine
 10
7.282335
 20
0.06313
 30
0.0
 11
7.281404999999999
 21
0.065991
 31
0.0
  0
LINE
  5
6E0
330
1F
100
AcDbEntity
  8
1
  6
CONTINUOUS
370
50
 62
4
100
AcDbLine
 10
7.286991
 20
0.048799
 30
0.0
 11
7.286072
 21
0.051626
 31
0.0
  0
LINE
  5
6E1
330
1F
100
AcDbEntity
  8
1
  6
CONTINUOUS
370
50
 62
4
100
AcDbLine
 10
7.276460999999999
 20
0.081208
 30
0.0
 11
7.275462
 21
0.08428
 31
0.0
  0
LINE
  5
6E2
330
1F
100
AcDbEntity
  8
1
  6
CONTINUOUS
370
50
 62
4
100
AcDbLine
 10
7.290254999999999
 20
0.038754
 30
0.0
 11
7.289479
 21
0.04114
 31
0.0
  0
LINE
  5
6E3
330
1F
100
AcDbEntity
  8
1
  6
CONTINUOUS
370
50
 62
4
100
AcDbLine
 10
7.292241
 20
0.032641
 30
0.0
 11
7.291656
 21
0.034439
 31
0.0
  0
LINE
  5
6E4
330
1F
100
AcDbEntity
  8
1
  6
CONTINUOUS
370
50
 62
4
100
AcDbLine
 10
7.270333
 20
0.100067
 30
0.0
 11
7.270033
 21
0.100989
 31
0.0
  0
LINE
  5
6E5
330
1F
100
AcDbEntity
  8
1
  6
CONTINUOUS
370
50
 62
4
100
AcDbLine
 10
7.293994
 20
0.027245
 30
0.0
 11
7.293952999999999
 21
0.02737
 31
0.0
  0
LINE
  5
6E6
330
1F
100
AcDbEntity
  8
1
  6
CONTINUOUS
370
50
 62
4
100
AcDbLine
 10
7.224271
 20
0.024498
 30
0.0
 11
7.223629
 21
0.026453
 31
0.0
  0
LINE
  5
6E7
330
1F
100
AcDbEntity
  8
1
  6
CONTINUOUS
370
50
 62
4
100
AcDbLine
 10
7.222367999999999
 20
0.133713
 30
0.0
 11
7.221384
 21
0.1367
 31
0.0
  0
LINE
  5
6E8
330
1F
100
AcDbEntity
  8
1
  6
CONTINUOUS
370
50
 62
4
100
AcDbLine
 10
7.221384
 20
0.1367
 30
0.0
 11
7.220288
 21
0.139769
 31
0.0
  0
LINE
  5
6E9
330
1F
100
AcDbEntity
  8
1
  6
CONTINUOUS
370
50
 62
4
100
AcDbLine
 10
6.920974999999999
 20
0.07238
 30
0.0
 11
6.920014999999999
 21
0.075008
 31
0.0
  0
LINE
  5
6EA
330
1F
100
AcDbEntity
  8
1
  6
CONTINUOUS
370
50
 62
4
100
AcDbLine
 10
7.288412
 20
0.132933
 30
0.0
 11
7.287522999999999
 21
0.135349
 31
0.0
  0
LINE
  5
6EB
330
1F
100
AcDbEntity
  8
1
  6
CONTINUOUS
370
50
 62
4
100
AcDbLine
 10
7.220288
 20
0.139769
 30
0.0
 11
7.219085
 21
0.142911
 31
0.0
  0
LINE
  5
6EC
330
1F
100
AcDbEntity
  8
1
  6
CONTINUOUS
370
50
 62
4
100
AcDbLine
 10
7.223629
 20
0.026453
 30
0.0
 11
7.222888999999999
 21
0.02832
 31
0.0
  0
LINE
  5
6ED
330
1F
100
AcDbEntity
  8
1
  6
CONTINUOUS
370
50
 62
4
100
AcDbLine
 10
7.287522999999999
 20
0.135349
 30
0.0
 11
7.286549
 21
0.137789
 31
0.0
  0
LINE
  5
6EE
330
1F
100
AcDbEntity
  8
1
  6
CONTINUOUS
370
50
 62
4
100
AcDbLine
 10
7.219085
 20
0.142911
 30
0.0
 11
7.217776
 21
0.146118
 31
0.0
  0
LINE
  5
6EF
330
1F
100
AcDbEntity
  8
1
  6
CONTINUOUS
370
50
 62
4
100
AcDbLine
 10
7.214499
 20
0.154002
 30
0.0
 11
7.213959999999999
 21
0.155314
 31
0.0
  0
LINE
  5
6F0
330
1F
100
AcDbEntity
  8
1
  6
CONTINUOUS
370
50
 62
4
100
AcDbLine
 10
7.215039
 20
0.15269
 30
0.0
 11
7.214499
 21
0.154002
 31
0.0
  0
LINE
  5
6F1
330
1F
100
AcDbEntity
  8
1
  6
CONTINUOUS
370
50
 62
4
100
AcDbLine
 10
7.215581999999999
 20
0.151377
 30
0.0
 11
7.215039
 21
0.15269
 31
0.0
  0
LINE
  5
6F2
330
1F
100
AcDbEntity
  8
1
  6
CONTINUOUS
370
50
 62
4
100
AcDbLine
 10
7.216126999999999
 20
0.150063
 30
0.0
 11
7.215581999999999
 21
0.151377
 31
0.0
  0
LINE
  5
6F3
330
1F
100
AcDbEntity
  8
1
  6
CONTINUOUS
370
50
 62
4
100
AcDbLine
 10
7.216673999999999
 20
0.148749
 30
0.0
 11
7.216126999999999
 21
0.150063
 31
0.0
  0
LINE
  5
6F4
330
1F
100
AcDbEntity
  8
1
  6
CONTINUOUS
370
50
 62
4
100
AcDbLine
 10
7.217224
 20
0.147434
 30
0.0
 11
7.216673999999999
 21
0.148749
 31
0.0
  0
LINE
  5
6F5
330
1F
100
AcDbEntity
  8
1
  6
CONTINUOUS
370
50
 62
4
100
AcDbLine
 10
7.217776
 20
0.146118
 30
0.0
 11
7.217224
 21
0.147434
 31
0.0
  0
LINE
  5
6F6
330
1F
100
AcDbEntity
  8
1
  6
CONTINUOUS
370
50
 62
4
100
AcDbLine
 10
7.286549
 20
0.137789
 30
0.0
 11
7.285486
 21
0.14025
 31
0.0
  0
LINE
  5
6F7
330
1F
100
AcDbEntity
  8
1
  6
CONTINUOUS
370
50
 62
4
100
AcDbLine
 10
6.922166
 20
0.069804
 30
0.0
 11
6.920974999999999
 21
0.07238
 31
0.0
  0
LINE
  5
6F8
330
1F
100
AcDbEntity
  8
1
  6
CONTINUOUS
370
50
 62
4
100
AcDbLine
 10
7.285486
 20
0.14025
 30
0.0
 11
7.284331
 21
0.142728
 31
0.0
  0
LINE
  5
6F9
330
1F
100
AcDbEntity
  8
1
  6
CONTINUOUS
370
50
 62
4
100
AcDbLine
 10
7.222888999999999
 20
0.02832
 30
0.0
 11
7.222052
 21
0.030096
 31
0.0
  0
LINE
  5
6FA
330
1F
100
AcDbEntity
  8
1
  6
CONTINUOUS
370
50
 62
4
100
AcDbLine
 10
7.284331
 20
0.142728
 30
0.0
 11
7.283081999999999
 21
0.145219
 31
0.0
  0
LINE
  5
6FB
330
1F
100
AcDbEntity
  8
1
  6
CONTINUOUS
370
50
 62
4
100
AcDbLine
 10
7.238072
 20
0.108526
 30
0.0
 11
7.213959999999999
 21
0.155314
 31
0.0
  0
LINE
  5
6FC
330
1F
100
AcDbEntity
  8
1
  6
CONTINUOUS
370
50
 62
4
100
AcDbLine
 10
6.919822
 20
-0.176959
 30
0.0
 11
6.919125999999999
 21
-0.175644
 31
0.0
  0
LINE
  5
6FD
330
1F
100
AcDbEntity
  8
1
  6
CONTINUOUS
370
50
 62
4
100
AcDbLine
 10
7.283081999999999
 20
0.145219
 30
0.0
 11
7.281733999999999
 21
0.147722
 31
0.0
  0
LINE
  5
6FE
330
1F
100
AcDbEntity
  8
1
  6
CONTINUOUS
370
50
 62
4
100
AcDbLine
 10
7.222052
 20
0.030096
 30
0.0
 11
7.221119
 21
0.031777
 31
0.0
  0
LINE
  5
6FF
330
1F
100
AcDbEntity
  8
1
  6
CONTINUOUS
370
50
 62
4
100
AcDbLine
 10
6.957771999999999
 20
0.010275
 30
0.0
 11
6.951886999999999
 21
0.020486
 31
0.0
  0
LINE
  5
700
330
1F
100
AcDbEntity
  8
1
  6
CONTINUOUS
370
50
 62
4
100
AcDbLine
 10
7.281733999999999
 20
0.147722
 30
0.0
 11
7.280287
 21
0.150231
 31
0.0
  0
LINE
  5
701
330
1F
100
AcDbEntity
  8
1
  6
CONTINUOUS
370
50
 62
4
100
AcDbLine
 10
6.951886999999999
 20
0.020486
 30
0.0
 11
6.946045
 21
0.030609
 31
0.0
  0
LINE
  5
702
330
1F
100
AcDbEntity
  8
1
  6
CONTINUOUS
370
50
 62
4
100
AcDbLine
 10
6.963747
 20
0.0
 30
0.0
 11
6.957771999999999
 21
0.010275
 31
0.0
  0
LINE
  5
703
330
1F
100
AcDbEntity
  8
1
  6
CONTINUOUS
370
50
 62
4
100
AcDbLine
 10
6.946045
 20
0.030609
 30
0.0
 11
6.940199
 21
0.040624
 31
0.0
  0
LINE
  5
704
330
1F
100
AcDbEntity
  8
1
  6
CONTINUOUS
370
50
 62
4
100
AcDbLine
 10
6.970622
 20
-0.011583
 30
0.0
 11
6.963747
 21
0.0
 31
0.0
  0
LINE
  5
705
330
1F
100
AcDbEntity
  8
1
  6
CONTINUOUS
370
50
 62
4
100
AcDbLine
 10
6.940199
 20
0.040624
 30
0.0
 11
6.934302
 21
0.050509
 31
0.0
  0
LINE
  5
706
330
1F
100
AcDbEntity
  8
1
  6
CONTINUOUS
370
50
 62
4
100
AcDbLine
 10
6.977606
 20
-0.022953
 30
0.0
 11
6.970622
 21
-0.011583
 31
0.0
  0
LINE
  5
707
330
1F
100
AcDbEntity
  8
1
  6
CONTINUOUS
370
50
 62
4
100
AcDbLine
 10
6.934302
 20
0.050509
 30
0.0
 11
6.928306999999999
 21
0.060243
 31
0.0
  0
LINE
  5
708
330
1F
100
AcDbEntity
  8
1
  6
CONTINUOUS
370
50
 62
4
100
AcDbLine
 10
7.280287
 20
0.150231
 30
0.0
 11
7.277176
 21
0.155095
 31
0.0
  0
LINE
  5
709
330
1F
100
AcDbEntity
  8
1
  6
CONTINUOUS
370
50
 62
4
100
AcDbLine
 10
6.928306999999999
 20
0.060243
 30
0.0
 11
6.922166
 21
0.069804
 31
0.0
  0
LINE
  5
70A
330
1F
100
AcDbEntity
  8
1
  6
CONTINUOUS
370
50
 62
4
100
AcDbLine
 10
6.984769999999999
 20
-0.034084
 30
0.0
 11
6.977606
 21
-0.022953
 31
0.0
  0
LINE
  5
70B
330
1F
100
AcDbEntity
  8
1
  6
CONTINUOUS
370
50
 62
4
100
AcDbLine
 10
7.221119
 20
0.031777
 30
0.0
 11
7.220095
 21
0.033361
 31
0.0
  0
LINE
  5
70C
330
1F
100
AcDbEntity
  8
1
  6
CONTINUOUS
370
50
 62
4
100
AcDbLine
 10
6.992186999999999
 20
-0.044947
 30
0.0
 11
6.984769999999999
 21
-0.034084
 31
0.0
  0
LINE
  5
70D
330
1F
100
AcDbEntity
  8
1
  6
CONTINUOUS
370
50
 62
4
100
AcDbLine
 10
7.277176
 20
0.155095
 30
0.0
 11
7.273814
 21
0.159696
 31
0.0
  0
LINE
  5
70E
330
1F
100
AcDbEntity
  8
1
  6
CONTINUOUS
370
50
 62
4
100
AcDbLine
 10
6.999924999999999
 20
-0.055516
 30
0.0
 11
6.992186999999999
 21
-0.044947
 31
0.0
  0
LINE
  5
70F
330
1F
100
AcDbEntity
  8
1
  6
CONTINUOUS
370
50
 62
4
100
AcDbLine
 10
7.288412
 20
0.002616
 30
0.0
 11
7.287522999999999
 21
0.003808
 31
0.0
  0
LINE
  5
710
330
1F
100
AcDbEntity
  8
1
  6
CONTINUOUS
370
50
 62
4
100
AcDbLine
 10
7.220095
 20
0.033361
 30
0.0
 11
7.218979999999999
 21
0.034844
 31
0.0
  0
LINE
  5
711
330
1F
100
AcDbEntity
  8
1
  6
CONTINUOUS
370
50
 62
4
100
AcDbLine
 10
7.00805
 20
-0.065755
 30
0.0
 11
6.999924999999999
 21
-0.055516
 31
0.0
  0
LINE
  5
712
330
1F
100
AcDbEntity
  8
1
  6
CONTINUOUS
370
50
 62
4
100
AcDbLine
 10
6.920846999999999
 20
-0.178193
 30
0.0
 11
6.919822
 21
-0.176959
 31
0.0
  0
LINE
  5
713
330
1F
100
AcDbEntity
  8
1
  6
CONTINUOUS
370
50
 62
4
100
AcDbLine
 10
7.273814
 20
0.159696
 30
0.0
 11
7.270213
 21
0.164025
 31
0.0
  0
LINE
  5
714
330
1F
100
AcDbEntity
  8
1
  6
CONTINUOUS
370
50
 62
4
100
AcDbLine
 10
7.287522999999999
 20
0.003808
 30
0.0
 11
7.286549
 21
0.004934
 31
0.0
  0
LINE
  5
715
330
1F
100
AcDbEntity
  8
1
  6
CONTINUOUS
370
50
 62
4
100
AcDbLine
 10
7.016493
 20
-0.075476
 30
0.0
 11
7.00805
 21
-0.065755
 31
0.0
  0
LINE
  5
716
330
1F
100
AcDbEntity
  8
1
  6
CONTINUOUS
370
50
 62
4
100
AcDbLine
 10
7.218979999999999
 20
0.034844
 30
0.0
 11
7.217776
 21
0.036224
 31
0.0
  0
LINE
  5
717
330
1F
100
AcDbEntity
  8
1
  6
CONTINUOUS
370
50
 62
4
100
AcDbLine
 10
7.214499
 20
0.039818
 30
0.0
 11
7.213959999999999
 21
0.040429
 31
0.0
  0
LINE
  5
718
330
1F
100
AcDbEntity
  8
1
  6
CONTINUOUS
370
50
 62
4
100
AcDbLine
 10
7.215039
 20
0.03921
 30
0.0
 11
7.214499
 21
0.039818
 31
0.0
  0
LINE
  5
719
330
1F
100
AcDbEntity
  8
1
  6
CONTINUOUS
370
50
 62
4
100
AcDbLine
 10
7.215581999999999
 20
0.038606
 30
0.0
 11
7.215039
 21
0.03921
 31
0.0
  0
LINE
  5
71A
330
1F
100
AcDbEntity
  8
1
  6
CONTINUOUS
370
50
 62
4
100
AcDbLine
 10
7.216126999999999
 20
0.038005
 30
0.0
 11
7.215581999999999
 21
0.038606
 31
0.0
  0
LINE
  5
71B
330
1F
100
AcDbEntity
  8
1
  6
CONTINUOUS
370
50
 62
4
100
AcDbLine
 10
7.216673999999999
 20
0.037408
 30
0.0
 11
7.216126999999999
 21
0.038005
 31
0.0
  0
LINE
  5
71C
330
1F
100
AcDbEntity
  8
1
  6
CONTINUOUS
370
50
 62
4
100
AcDbLine
 10
7.217224
 20
0.036814
 30
0.0
 11
7.216673999999999
 21
0.037408
 31
0.0
  0
LINE
  5
71D
330
1F
100
AcDbEntity
  8
1
  6
CONTINUOUS
370
50
 62
4
100
AcDbLine
 10
7.217776
 20
0.036224
 30
0.0
 11
7.217224
 21
0.036814
 31
0.0
  0
LINE
  5
71E
330
1F
100
AcDbEntity
  8
1
  6
CONTINUOUS
370
50
 62
4
100
AcDbLine
 10
7.270213
 20
0.164025
 30
0.0
 11
7.266387
 21
0.168074
 31
0.0
  0
LINE
  5
71F
330
1F
100
AcDbEntity
  8
1
  6
CONTINUOUS
370
50
 62
4
100
AcDbLine
 10
7.025252999999999
 20
-0.084632
 30
0.0
 11
7.016493
 21
-0.075476
 31
0.0
  0
LINE
  5
720
330
1F
100
AcDbEntity
  8
1
  6
CONTINUOUS
370
50
 62
4
100
AcDbLine
 10
7.286549
 20
0.004934
 30
0.0
 11
7.285486
 21
0.005998
 31
0.0
  0
LINE
  5
721
330
1F
100
AcDbEntity
  8
1
  6
CONTINUOUS
370
50
 62
4
100
AcDbLine
 10
7.034387
 20
-0.093253
 30
0.0
 11
7.025252999999999
 21
-0.084632
 31
0.0
  0
LINE
  5
722
330
1F
100
AcDbEntity
  8
1
  6
CONTINUOUS
370
50
 62
4
100
AcDbLine
 10
7.266387
 20
0.168074
 30
0.0
 11
7.262347
 21
0.171834
 31
0.0
  0
LINE
  5
723
330
1F
100
AcDbEntity
  8
1
  6
CONTINUOUS
370
50
 62
4
100
AcDbLine
 10
6.922166
 20
-0.179344
 30
0.0
 11
6.920846999999999
 21
-0.178193
 31
0.0
  0
LINE
  5
724
330
1F
100
AcDbEntity
  8
1
  6
CONTINUOUS
370
50
 62
4
100
AcDbLine
 10
7.285486
 20
0.005998
 30
0.0
 11
7.284331
 21
0.007002
 31
0.0
  0
LINE
  5
725
330
1F
100
AcDbEntity
  8
1
  6
CONTINUOUS
370
50
 62
4
100
AcDbLine
 10
7.043951
 20
-0.101365
 30
0.0
 11
7.034387
 21
-0.093253
 31
0.0
  0
LINE
  5
726
330
1F
100
AcDbEntity
  8
1
  6
CONTINUOUS
370
50
 62
4
100
AcDbLine
 10
7.059006
 20
-0.127991
 30
0.0
 11
7.058093
 21
-0.127234
 31
0.0
  0
LINE
  5
727
330
1F
100
AcDbEntity
  8
1
  6
CONTINUOUS
370
50
 62
4
100
AcDbLine
 10
7.262347
 20
0.171834
 30
0.0
 11
7.258116999999999
 21
0.17529
 31
0.0
  0
LINE
  5
728
330
1F
100
AcDbEntity
  8
1
  6
CONTINUOUS
370
50
 62
4
100
AcDbLine
 10
7.059965
 20
-0.12874
 30
0.0
 11
7.059006
 21
-0.127991
 31
0.0
  0
LINE
  5
729
330
1F
100
AcDbEntity
  8
1
  6
CONTINUOUS
370
50
 62
4
100
AcDbLine
 10
7.053999999999999
 20
-0.108998
 30
0.0
 11
7.043951
 21
-0.101365
 31
0.0
  0
LINE
  5
72A
330
1F
100
AcDbEntity
  8
1
  6
CONTINUOUS
370
50
 62
4
100
AcDbLine
 10
7.284331
 20
0.007002
 30
0.0
 11
7.283081999999999
 21
0.00795
 31
0.0
  0
LINE
  5
72B
330
1F
100
AcDbEntity
  8
1
  6
CONTINUOUS
370
50
 62
4
100
AcDbLine
 10
7.060956
 20
-0.129475
 30
0.0
 11
7.059965
 21
-0.12874
 31
0.0
  0
LINE
  5
72C
330
1F
100
AcDbEntity
  8
1
  6
CONTINUOUS
370
50
 62
4
100
AcDbLine
 10
7.258116999999999
 20
0.17529
 30
0.0
 11
7.25373
 21
0.178419
 31
0.0
  0
LINE
  5
72D
330
1F
100
AcDbEntity
  8
1
  6
CONTINUOUS
370
50
 62
4
100
AcDbLine
 10
7.061967999999999
 20
-0.130192
 30
0.0
 11
7.060956
 21
-0.129475
 31
0.0
  0
LINE
  5
72E
330
1F
100
AcDbEntity
  8
1
  6
CONTINUOUS
370
50
 62
4
100
AcDbLine
 10
7.059006
 20
0.153557
 30
0.0
 11
7.058093
 21
0.154184
 31
0.0
  0
LINE
  5
72F
330
1F
100
AcDbEntity
  8
1
  6
CONTINUOUS
370
50
 62
4
100
AcDbLine
 10
7.062987
 20
-0.130887
 30
0.0
 11
7.061967999999999
 21
-0.130192
 31
0.0
  0
LINE
  5
730
330
1F
100
AcDbEntity
  8
1
  6
CONTINUOUS
370
50
 62
4
100
AcDbLine
 10
7.283081999999999
 20
0.00795
 30
0.0
 11
7.281733999999999
 21
0.008844
 31
0.0
  0
LINE
  5
731
330
1F
100
AcDbEntity
  8
1
  6
CONTINUOUS
370
50
 62
4
100
AcDbLine
 10
7.064
 20
-0.131554
 30
0.0
 11
7.062987
 21
-0.130887
 31
0.0
  0
LINE
  5
732
330
1F
100
AcDbEntity
  8
1
  6
CONTINUOUS
370
50
 62
4
100
AcDbLine
 10
7.059965
 20
0.15293
 30
0.0
 11
7.059006
 21
0.153557
 31
0.0
  0
LINE
  5
733
330
1F
100
AcDbEntity
  8
1
  6
CONTINUOUS
370
50
 62
4
100
AcDbLine
 10
7.054678
 20
-0.125103
 30
0.0
 11
7.053999999999999
 21
-0.124669
 31
0.0
  0
LINE
  5
734
330
1F
100
AcDbEntity
  8
1
  6
CONTINUOUS
370
50
 62
4
100
AcDbLine
 10
7.055358
 20
-0.125534
 30
0.0
 11
7.054678
 21
-0.125103
 31
0.0
  0
LINE
  5
735
330
1F
100
AcDbEntity
  8
1
  6
CONTINUOUS
370
50
 62
4
100
AcDbLine
 10
7.23489
 20
0.037073
 30
0.0
 11
7.229933
 21
0.040193
 31
0.0
  0
LINE
  5
736
330
1F
100
AcDbEntity
  8
1
  6
CONTINUOUS
370
50
 62
4
100
AcDbLine
 10
7.239768
 20
0.034003
 30
0.0
 11
7.23489
 21
0.037073
 31
0.0
  0
LINE
  5
737
330
1F
100
AcDbEntity
  8
1
  6
CONTINUOUS
370
50
 62
4
100
AcDbLine
 10
7.056039999999999
 20
-0.125962
 30
0.0
 11
7.055358
 21
-0.125534
 31
0.0
  0
LINE
  5
738
330
1F
100
AcDbEntity
  8
1
  6
CONTINUOUS
370
50
 62
4
100
AcDbLine
 10
7.244543999999999
 20
0.031006
 30
0.0
 11
7.239768
 21
0.034003
 31
0.0
  0
LINE
  5
739
330
1F
100
AcDbEntity
  8
1
  6
CONTINUOUS
370
50
 62
4
100
AcDbLine
 10
7.229933
 20
0.040193
 30
0.0
 11
7.224911
 21
0.043344
 31
0.0
  0
LINE
  5
73A
330
1F
100
AcDbEntity
  8
1
  6
CONTINUOUS
370
50
 62
4
100
AcDbLine
 10
7.060956
 20
0.152309
 30
0.0
 11
7.059965
 21
0.15293
 31
0.0
  0
LINE
  5
73B
330
1F
100
AcDbEntity
  8
1
  6
CONTINUOUS
370
50
 62
4
100
AcDbLine
 10
7.056723
 20
-0.126389
 30
0.0
 11
7.056039999999999
 21
-0.125962
 31
0.0
  0
LINE
  5
73C
330
1F
100
AcDbEntity
  8
1
  6
CONTINUOUS
370
50
 62
4
100
AcDbLine
 10
7.249201999999999
 20
0.028097
 30
0.0
 11
7.244543999999999
 21
0.031006
 31
0.0
  0
LINE
  5
73D
330
1F
100
AcDbEntity
  8
1
  6
CONTINUOUS
370
50
 62
4
100
AcDbLine
 10
7.224911
 20
0.043344
 30
0.0
 11
7.219834
 21
0.046512
 31
0.0
  0
LINE
  5
73E
330
1F
100
AcDbEntity
  8
1
  6
CONTINUOUS
370
50
 62
4
100
AcDbLine
 10
7.25373
 20
0.02529
 30
0.0
 11
7.249201999999999
 21
0.028097
 31
0.0
  0
LINE
  5
73F
330
1F
100
AcDbEntity
  8
1
  6
CONTINUOUS
370
50
 62
4
100
AcDbLine
 10
7.057407
 20
-0.126813
 30
0.0
 11
7.056723
 21
-0.126389
 31
0.0
  0
LINE
  5
740
330
1F
100
AcDbEntity
  8
1
  6
CONTINUOUS
370
50
 62
4
100
AcDbLine
 10
7.25373
 20
0.178419
 30
0.0
 11
7.249201999999999
 21
0.181219
 31
0.0
  0
LINE
  5
741
330
1F
100
AcDbEntity
  8
1
  6
CONTINUOUS
370
50
 62
4
100
AcDbLine
 10
7.219834
 20
0.046512
 30
0.0
 11
7.214709999999999
 21
0.04968
 31
0.0
  0
LINE
  5
742
330
1F
100
AcDbEntity
  8
1
  6
CONTINUOUS
370
50
 62
4
100
AcDbLine
 10
7.258116999999999
 20
0.022597
 30
0.0
 11
7.25373
 21
0.02529
 31
0.0
  0
LINE
  5
743
330
1F
100
AcDbEntity
  8
1
  6
CONTINUOUS
370
50
 62
4
100
AcDbLine
 10
7.058093
 20
-0.127234
 30
0.0
 11
7.057407
 21
-0.126813
 31
0.0
  0
LINE
  5
744
330
1F
100
AcDbEntity
  8
1
  6
CONTINUOUS
370
50
 62
4
100
AcDbLine
 10
7.214709999999999
 20
0.04968
 30
0.0
 11
7.209554
 21
0.052831
 31
0.0
  0
LINE
  5
745
330
1F
100
AcDbEntity
  8
1
  6
CONTINUOUS
370
50
 62
4
100
AcDbLine
 10
7.262347
 20
0.020034
 30
0.0
 11
7.258116999999999
 21
0.022597
 31
0.0
  0
LINE
  5
746
330
1F
100
AcDbEntity
  8
1
  6
CONTINUOUS
370
50
 62
4
100
AcDbLine
 10
7.061967999999999
 20
0.151698
 30
0.0
 11
7.060956
 21
0.152309
 31
0.0
  0
LINE
  5
747
330
1F
100
AcDbEntity
  8
1
  6
CONTINUOUS
370
50
 62
4
100
AcDbLine
 10
7.209554
 20
0.052831
 30
0.0
 11
7.204377999999999
 21
0.055946
 31
0.0
  0
LINE
  5
748
330
1F
100
AcDbEntity
  8
1
  6
CONTINUOUS
370
50
 62
4
100
AcDbLine
 10
7.266387
 20
0.017624
 30
0.0
 11
7.262347
 21
0.020034
 31
0.0
  0
LINE
  5
749
330
1F
100
AcDbEntity
  8
1
  6
CONTINUOUS
370
50
 62
4
100
AcDbLine
 10
7.204377999999999
 20
0.055946
 30
0.0
 11
7.19919
 21
0.059008
 31
0.0
  0
LINE
  5
74A
330
1F
100
AcDbEntity
  8
1
  6
CONTINUOUS
370
50
 62
4
100
AcDbLine
 10
7.062987
 20
0.1511
 30
0.0
 11
7.061967999999999
 21
0.151698
 31
0.0
  0
LINE
  5
74B
330
1F
100
AcDbEntity
  8
1
  6
CONTINUOUS
370
50
 62
4
100
AcDbLine
 10
7.270213
 20
0.01538
 30
0.0
 11
7.266387
 21
0.017624
 31
0.0
  0
LINE
  5
74C
330
1F
100
AcDbEntity
  8
1
  6
CONTINUOUS
370
50
 62
4
100
AcDbLine
 10
7.281733999999999
 20
0.008844
 30
0.0
 11
7.280287
 21
0.009687
 31
0.0
  0
LINE
  5
74D
330
1F
100
AcDbEntity
  8
1
  6
CONTINUOUS
370
50
 62
4
100
AcDbLine
 10
7.19919
 20
0.059008
 30
0.0
 11
7.194
 21
0.062001
 31
0.0
  0
LINE
  5
74E
330
1F
100
AcDbEntity
  8
1
  6
CONTINUOUS
370
50
 62
4
100
AcDbLine
 10
7.273814
 20
0.013306
 30
0.0
 11
7.270213
 21
0.01538
 31
0.0
  0
LINE
  5
74F
330
1F
100
AcDbEntity
  8
1
  6
CONTINUOUS
370
50
 62
4
100
AcDbLine
 10
7.064
 20
0.15052
 30
0.0
 11
7.062987
 21
0.1511
 31
0.0
  0
LINE
  5
750
330
1F
100
AcDbEntity
  8
1
  6
CONTINUOUS
370
50
 62
4
100
AcDbLine
 10
7.194
 20
0.062001
 30
0.0
 11
7.179372
 21
0.07028
 31
0.0
  0
LINE
  5
751
330
1F
100
AcDbEntity
  8
1
  6
CONTINUOUS
370
50
 62
4
100
AcDbLine
 10
7.277176
 20
0.011406
 30
0.0
 11
7.273814
 21
0.013306
 31
0.0
  0
LINE
  5
752
330
1F
100
AcDbEntity
  8
1
  6
CONTINUOUS
370
50
 62
4
100
AcDbLine
 10
7.179372
 20
0.07028
 30
0.0
 11
7.163238
 21
0.079223
 31
0.0
  0
LINE
  5
753
330
1F
100
AcDbEntity
  8
1
  6
CONTINUOUS
370
50
 62
4
100
AcDbLine
 10
6.929260999999999
 20
-0.183273
 30
0.0
 11
6.922166
 21
-0.179344
 31
0.0
  0
LINE
  5
754
330
1F
100
AcDbEntity
  8
1
  6
CONTINUOUS
370
50
 62
4
100
AcDbLine
 10
7.280287
 20
0.009687
 30
0.0
 11
7.277176
 21
0.011406
 31
0.0
  0
LINE
  5
755
330
1F
100
AcDbEntity
  8
1
  6
CONTINUOUS
370
50
 62
4
100
AcDbLine
 10
7.163238
 20
0.079223
 30
0.0
 11
7.145414
 21
0.088771
 31
0.0
  0
LINE
  5
756
330
1F
100
AcDbEntity
  8
1
  6
CONTINUOUS
370
50
 62
4
100
AcDbLine
 10
7.249201999999999
 20
0.181219
 30
0.0
 11
7.244543999999999
 21
0.183689
 31
0.0
  0
LINE
  5
757
330
1F
100
AcDbEntity
  8
1
  6
CONTINUOUS
370
50
 62
4
100
AcDbLine
 10
7.194
 20
0.091934
 30
0.0
 11
7.182727
 21
0.097904
 31
0.0
  0
LINE
  5
758
330
1F
100
AcDbEntity
  8
1
  6
CONTINUOUS
370
50
 62
4
100
AcDbLine
 10
7.182727
 20
0.097904
 30
0.0
 11
7.168871999999999
 21
0.105062
 31
0.0
  0
LINE
  5
759
330
1F
100
AcDbEntity
  8
1
  6
CONTINUOUS
370
50
 62
4
100
AcDbLine
 10
7.197107
 20
0.090339
 30
0.0
 11
7.194
 21
0.091934
 31
0.0
  0
LINE
  5
75A
330
1F
100
AcDbEntity
  8
1
  6
CONTINUOUS
370
50
 62
4
100
AcDbLine
 10
7.145414
 20
0.088771
 30
0.0
 11
7.125728
 21
0.098861
 31
0.0
  0
LINE
  5
75B
330
1F
100
AcDbEntity
  8
1
  6
CONTINUOUS
370
50
 62
4
100
AcDbLine
 10
7.054678
 20
0.155915
 30
0.0
 11
7.053999999999999
 21
0.156261
 31
0.0
  0
LINE
  5
75C
330
1F
100
AcDbEntity
  8
1
  6
CONTINUOUS
370
50
 62
4
100
AcDbLine
 10
7.055358
 20
0.155569
 30
0.0
 11
7.054678
 21
0.155915
 31
0.0
  0
LINE
  5
75D
330
1F
100
AcDbEntity
  8
1
  6
CONTINUOUS
370
50
 62
4
100
AcDbLine
 10
7.229747
 20
0.032407
 30
0.0
 11
7.224926
 21
0.034857
 31
0.0
  0
LINE
  5
75E
330
1F
100
AcDbEntity
  8
1
  6
CONTINUOUS
370
50
 62
4
100
AcDbLine
 10
7.219672999999999
 20
0.037526
 30
0.0
 11
7.213959999999999
 21
0.040429
 31
0.0
  0
LINE
  5
75F
330
1F
100
AcDbEntity
  8
1
  6
CONTINUOUS
370
50
 62
4
100
AcDbLine
 10
7.224926
 20
0.034857
 30
0.0
 11
7.219672999999999
 21
0.037526
 31
0.0
  0
LINE
  5
760
330
1F
100
AcDbEntity
  8
1
  6
CONTINUOUS
370
50
 62
4
100
AcDbLine
 10
7.238197
 20
0.028114
 30
0.0
 11
7.234162
 21
0.030164
 31
0.0
  0
LINE
  5
761
330
1F
100
AcDbEntity
  8
1
  6
CONTINUOUS
370
50
 62
4
100
AcDbLine
 10
7.056723
 20
0.154876
 30
0.0
 11
7.056039999999999
 21
0.155223
 31
0.0
  0
LINE
  5
762
330
1F
100
AcDbEntity
  8
1
  6
CONTINUOUS
370
50
 62
4
100
AcDbLine
 10
7.234162
 20
0.030164
 30
0.0
 11
7.229747
 21
0.032407
 31
0.0
  0
LINE
  5
763
330
1F
100
AcDbEntity
  8
1
  6
CONTINUOUS
370
50
 62
4
100
AcDbLine
 10
7.260765999999999
 20
0.016654
 30
0.0
 11
7.255058
 21
0.019553
 31
0.0
  0
LINE
  5
764
330
1F
100
AcDbEntity
  8
1
  6
CONTINUOUS
370
50
 62
4
100
AcDbLine
 10
7.288411
 20
0.002616
 30
0.0
 11
7.280822
 21
0.00647
 31
0.0
  0
LINE
  5
765
330
1F
100
AcDbEntity
  8
1
  6
CONTINUOUS
370
50
 62
4
100
AcDbLine
 10
7.280822
 20
0.00647
 30
0.0
 11
7.27367
 21
0.010102
 31
0.0
  0
LINE
  5
766
330
1F
100
AcDbEntity
  8
1
  6
CONTINUOUS
370
50
 62
4
100
AcDbLine
 10
7.27367
 20
0.010102
 30
0.0
 11
7.266978
 21
0.0135
 31
0.0
  0
LINE
  5
767
330
1F
100
AcDbEntity
  8
1
  6
CONTINUOUS
370
50
 62
4
100
AcDbLine
 10
7.249873999999999
 20
0.022185
 30
0.0
 11
7.245235999999999
 21
0.02454
 31
0.0
  0
LINE
  5
768
330
1F
100
AcDbEntity
  8
1
  6
CONTINUOUS
370
50
 62
4
100
AcDbLine
 10
7.245235999999999
 20
0.02454
 30
0.0
 11
7.24188
 21
0.026244
 31
0.0
  0
LINE
  5
769
330
1F
100
AcDbEntity
  8
1
  6
CONTINUOUS
370
50
 62
4
100
AcDbLine
 10
7.24188
 20
0.026244
 30
0.0
 11
7.238197
 21
0.028114
 31
0.0
  0
LINE
  5
76A
330
1F
100
AcDbEntity
  8
1
  6
CONTINUOUS
370
50
 62
4
100
AcDbLine
 10
7.266978
 20
0.0135
 30
0.0
 11
7.260765999999999
 21
0.016654
 31
0.0
  0
LINE
  5
76B
330
1F
100
AcDbEntity
  8
1
  6
CONTINUOUS
370
50
 62
4
100
AcDbLine
 10
7.255058
 20
0.019553
 30
0.0
 11
7.249873999999999
 21
0.022185
 31
0.0
  0
LINE
  5
76C
330
1F
100
AcDbEntity
  8
1
  6
CONTINUOUS
370
50
 62
4
100
AcDbLine
 10
7.056039999999999
 20
0.155223
 30
0.0
 11
7.055358
 21
0.155569
 31
0.0
  0
LINE
  5
76D
330
1F
100
AcDbEntity
  8
1
  6
CONTINUOUS
370
50
 62
4
100
AcDbLine
 10
7.057407
 20
0.15453
 30
0.0
 11
7.056723
 21
0.154876
 31
0.0
  0
LINE
  5
76E
330
1F
100
AcDbEntity
  8
1
  6
CONTINUOUS
370
50
 62
4
100
AcDbLine
 10
7.058093
 20
0.154184
 30
0.0
 11
7.057407
 21
0.15453
 31
0.0
  0
LINE
  5
76F
330
1F
100
AcDbEntity
  8
1
  6
CONTINUOUS
370
50
 62
4
100
AcDbLine
 10
7.289823999999999
 20
0.001905
 30
0.0
 11
7.288412
 21
0.002615
 31
0.0
  0
LINE
  5
770
330
1F
100
AcDbEntity
  8
1
  6
CONTINUOUS
370
50
 62
4
100
AcDbLine
 10
7.291074
 20
0.001277
 30
0.0
 11
7.289823999999999
 21
0.001905
 31
0.0
  0
LINE
  5
771
330
1F
100
AcDbEntity
  8
1
  6
CONTINUOUS
370
50
 62
4
100
AcDbLine
 10
7.292132
 20
0.000748
 30
0.0
 11
7.291074
 21
0.001277
 31
0.0
  0
LINE
  5
772
330
1F
100
AcDbEntity
  8
1
  6
CONTINUOUS
370
50
 62
4
100
AcDbLine
 10
7.292966
 20
0.000332
 30
0.0
 11
7.292132
 21
0.000748
 31
0.0
  0
LINE
  5
773
330
1F
100
AcDbEntity
  8
1
  6
CONTINUOUS
370
50
 62
4
100
AcDbLine
 10
7.042300999999999
 20
0.16442
 30
0.0
 11
7.036701
 21
0.167211
 31
0.0
  0
LINE
  5
774
330
1F
100
AcDbEntity
  8
1
  6
CONTINUOUS
370
50
 62
4
100
AcDbLine
 10
7.048063
 20
0.161549
 30
0.0
 11
7.042300999999999
 21
0.16442
 31
0.0
  0
LINE
  5
775
330
1F
100
AcDbEntity
  8
1
  6
CONTINUOUS
370
50
 62
4
100
AcDbLine
 10
7.168871999999999
 20
0.105062
 30
0.0
 11
7.152523
 21
0.113188
 31
0.0
  0
LINE
  5
776
330
1F
100
AcDbEntity
  8
1
  6
CONTINUOUS
370
50
 62
4
100
AcDbLine
 10
7.036701
 20
0.167211
 30
0.0
 11
7.031251999999999
 21
0.169914
 31
0.0
  0
LINE
  5
777
330
1F
100
AcDbEntity
  8
1
  6
CONTINUOUS
370
50
 62
4
100
AcDbLine
 10
7.053999999999999
 20
0.158608
 30
0.0
 11
7.048063
 21
0.161549
 31
0.0
  0
LINE
  5
778
330
1F
100
AcDbEntity
  8
1
  6
CONTINUOUS
370
50
 62
4
100
AcDbLine
 10
7.293546999999999
 20
0.000045
 30
0.0
 11
7.292966
 21
0.000332
 31
0.0
  0
LINE
  5
779
330
1F
100
AcDbEntity
  8
1
  6
CONTINUOUS
370
50
 62
4
100
AcDbLine
 10
7.031251999999999
 20
0.169914
 30
0.0
 11
7.025944
 21
0.17252
 31
0.0
  0
LINE
  5
77A
330
1F
100
AcDbEntity
  8
1
  6
CONTINUOUS
370
50
 62
4
100
AcDbLine
 10
7.125728
 20
0.098861
 30
0.0
 11
7.105197
 21
0.108893
 31
0.0
  0
LINE
  5
77B
330
1F
100
AcDbEntity
  8
1
  6
CONTINUOUS
370
50
 62
4
100
AcDbLine
 10
7.293867
 20
-0.00011
 30
0.0
 11
7.293546999999999
 21
0.000045
 31
0.0
  0
LINE
  5
77C
330
1F
100
AcDbEntity
  8
1
  6
CONTINUOUS
370
50
 62
4
100
AcDbLine
 10
7.025944
 20
0.17252
 30
0.0
 11
7.020765
 21
0.175021
 31
0.0
  0
LINE
  5
77D
330
1F
100
AcDbEntity
  8
1
  6
CONTINUOUS
370
50
 62
4
100
AcDbLine
 10
7.026452
 20
0.172293
 30
0.0
 11
7.020765
 21
0.175007
 31
0.0
  0
LINE
  5
77E
330
1F
100
AcDbEntity
  8
1
  6
CONTINUOUS
370
50
 62
4
100
AcDbLine
 10
7.200286999999999
 20
0.088827
 30
0.0
 11
7.197107
 21
0.090339
 31
0.0
  0
LINE
  5
77F
330
1F
100
AcDbEntity
  8
1
  6
CONTINUOUS
370
50
 62
4
100
AcDbLine
 10
7.032146
 20
0.169592
 30
0.0
 11
7.026452
 21
0.172293
 31
0.0
  0
LINE
  5
780
330
1F
100
AcDbEntity
  8
1
  6
CONTINUOUS
370
50
 62
4
100
AcDbLine
 10
7.152523
 20
0.113188
 30
0.0
 11
7.133770999999999
 21
0.122061
 31
0.0
  0
LINE
  5
781
330
1F
100
AcDbEntity
  8
1
  6
CONTINUOUS
370
50
 62
4
100
AcDbLine
 10
7.037847999999999
 20
0.166905
 30
0.0
 11
7.032146
 21
0.169592
 31
0.0
  0
LINE
  5
782
330
1F
100
AcDbEntity
  8
1
  6
CONTINUOUS
370
50
 62
4
100
AcDbLine
 10
6.93617
 20
-0.186519
 30
0.0
 11
6.929260999999999
 21
-0.183273
 31
0.0
  0
LINE
  5
783
330
1F
100
AcDbEntity
  8
1
  6
CONTINUOUS
370
50
 62
4
100
AcDbLine
 10
7.043557
 20
0.164231
 30
0.0
 11
7.037847999999999
 21
0.166905
 31
0.0
  0
LINE
  5
784
330
1F
100
AcDbEntity
  8
1
  6
CONTINUOUS
370
50
 62
4
100
AcDbLine
 10
7.105197
 20
0.108893
 30
0.0
 11
7.084600999999999
 21
0.118484
 31
0.0
  0
LINE
  5
785
330
1F
100
AcDbEntity
  8
1
  6
CONTINUOUS
370
50
 62
4
100
AcDbLine
 10
7.020765
 20
0.175021
 30
0.0
 11
7.011523
 21
0.179324
 31
0.0
  0
LINE
  5
786
330
1F
100
AcDbEntity
  8
1
  6
CONTINUOUS
370
50
 62
4
100
AcDbLine
 10
7.049272999999999
 20
0.161571
 30
0.0
 11
7.043557
 21
0.164231
 31
0.0
  0
LINE
  5
787
330
1F
100
AcDbEntity
  8
1
  6
CONTINUOUS
370
50
 62
4
100
AcDbLine
 10
7.054996
 20
0.158923
 30
0.0
 11
7.049272999999999
 21
0.161571
 31
0.0
  0
LINE
  5
788
330
1F
100
AcDbEntity
  8
1
  6
CONTINUOUS
370
50
 62
4
100
AcDbLine
 10
7.056171
 20
0.158382
 30
0.0
 11
7.054993
 21
0.158925
 31
0.0
  0
LINE
  5
789
330
1F
100
AcDbEntity
  8
1
  6
CONTINUOUS
370
50
 62
4
100
AcDbLine
 10
7.057348999999999
 20
0.15784
 30
0.0
 11
7.056171
 21
0.158382
 31
0.0
  0
LINE
  5
78A
330
1F
100
AcDbEntity
  8
1
  6
CONTINUOUS
370
50
 62
4
100
AcDbLine
 10
7.05889
 20
0.157132
 30
0.0
 11
7.057348999999999
 21
0.15784
 31
0.0
  0
LINE
  5
78B
330
1F
100
AcDbEntity
  8
1
  6
CONTINUOUS
370
50
 62
4
100
AcDbLine
 10
7.060673
 20
0.156314
 30
0.0
 11
7.05889
 21
0.157132
 31
0.0
  0
LINE
  5
78C
330
1F
100
AcDbEntity
  8
1
  6
CONTINUOUS
370
50
 62
4
100
AcDbLine
 10
7.062335999999999
 20
0.155553
 30
0.0
 11
7.060673
 21
0.156314
 31
0.0
  0
LINE
  5
78D
330
1F
100
AcDbEntity
  8
1
  6
CONTINUOUS
370
50
 62
4
100
AcDbLine
 10
7.064
 20
0.154793
 30
0.0
 11
7.062335999999999
 21
0.155553
 31
0.0
  0
LINE
  5
78E
330
1F
100
AcDbEntity
  8
1
  6
CONTINUOUS
370
50
 62
4
100
AcDbLine
 10
7.244543999999999
 20
0.183689
 30
0.0
 11
7.239768
 21
0.185827
 31
0.0
  0
LINE
  5
78F
330
1F
100
AcDbEntity
  8
1
  6
CONTINUOUS
370
50
 62
4
100
AcDbLine
 10
7.133770999999999
 20
0.122061
 30
0.0
 11
7.112706999999999
 21
0.131461
 31
0.0
  0
LINE
  5
790
330
1F
100
AcDbEntity
  8
1
  6
CONTINUOUS
370
50
 62
4
100
AcDbLine
 10
7.084600999999999
 20
0.118484
 30
0.0
 11
7.064
 21
0.127619
 31
0.0
  0
LINE
  5
791
330
1F
100
AcDbEntity
  8
1
  6
CONTINUOUS
370
50
 62
4
100
AcDbLine
 10
7.203539999999999
 20
0.087411
 30
0.0
 11
7.200286999999999
 21
0.088827
 31
0.0
  0
LINE
  5
792
330
1F
100
AcDbEntity
  8
1
  6
CONTINUOUS
370
50
 62
4
100
AcDbLine
 10
7.011523
 20
0.179324
 30
0.0
 11
7.002629
 21
0.183176
 31
0.0
  0
LINE
  5
793
330
1F
100
AcDbEntity
  8
1
  6
CONTINUOUS
370
50
 62
4
100
AcDbLine
 10
7.217776
 20
0.03625
 30
0.0
 11
7.192145999999999
 21
0.047195
 31
0.0
  0
LINE
  5
794
330
1F
100
AcDbEntity
  8
1
  6
CONTINUOUS
370
50
 62
4
100
AcDbLine
 10
7.274477
 20
-0.133267
 30
0.0
 11
7.273512999999999
 21
-0.132857
 31
0.0
  0
LINE
  5
795
330
1F
100
AcDbEntity
  8
1
  6
CONTINUOUS
370
50
 62
4
100
AcDbLine
 10
7.192145999999999
 20
0.047195
 30
0.0
 11
7.166517
 21
0.058092
 31
0.0
  0
LINE
  5
796
330
1F
100
AcDbEntity
  8
1
  6
CONTINUOUS
370
50
 62
4
100
AcDbLine
 10
7.280287
 20
0.009728
 30
0.0
 11
7.274445
 21
0.012206
 31
0.0
  0
LINE
  5
797
330
1F
100
AcDbEntity
  8
1
  6
CONTINUOUS
370
50
 62
4
100
AcDbLine
 10
7.251078
 20
0.02211
 30
0.0
 11
7.245235999999999
 21
0.024587
 31
0.0
  0
LINE
  5
798
330
1F
100
AcDbEntity
  8
1
  6
CONTINUOUS
370
50
 62
4
100
AcDbLine
 10
7.293959
 20
-0.000149
 30
0.0
 11
7.293867
 21
-0.00011
 31
0.0
  0
LINE
  5
799
330
1F
100
AcDbEntity
  8
1
  6
CONTINUOUS
370
50
 62
4
100
AcDbLine
 10
7.268603
 20
0.014682
 30
0.0
 11
7.262761999999999
 21
0.017158
 31
0.0
  0
LINE
  5
79A
330
1F
100
AcDbEntity
  8
1
  6
CONTINUOUS
370
50
 62
4
100
AcDbLine
 10
7.274445
 20
0.012206
 30
0.0
 11
7.268603
 21
0.014682
 31
0.0
  0
LINE
  5
79B
330
1F
100
AcDbEntity
  8
1
  6
CONTINUOUS
370
50
 62
4
100
AcDbLine
 10
7.262761999999999
 20
0.017158
 30
0.0
 11
7.251078
 21
0.02211
 31
0.0
  0
LINE
  5
79C
330
1F
100
AcDbEntity
  8
1
  6
CONTINUOUS
370
50
 62
4
100
AcDbLine
 10
7.112706999999999
 20
0.131461
 30
0.0
 11
7.08942
 21
0.141167
 31
0.0
  0
LINE
  5
79D
330
1F
100
AcDbEntity
  8
1
  6
CONTINUOUS
370
50
 62
4
100
AcDbLine
 10
7.08942
 20
-0.141575
 30
0.0
 11
7.064
 21
-0.131052
 31
0.0
  0
LINE
  5
79E
330
1F
100
AcDbEntity
  8
1
  6
CONTINUOUS
370
50
 62
4
100
AcDbLine
 10
7.166517
 20
0.058092
 30
0.0
 11
7.140886999999999
 21
0.068516
 31
0.0
  0
LINE
  5
79F
330
1F
100
AcDbEntity
  8
1
  6
CONTINUOUS
370
50
 62
4
100
AcDbLine
 10
7.249873999999999
 20
0.146684
 30
0.0
 11
7.245235999999999
 21
0.148531
 31
0.0
  0
LINE
  5
7A0
330
1F
100
AcDbEntity
  8
1
  6
CONTINUOUS
370
50
 62
4
100
AcDbLine
 10
7.206861
 20
0.086105
 30
0.0
 11
7.203539999999999
 21
0.087411
 31
0.0
  0
LINE
  5
7A1
330
1F
100
AcDbEntity
  8
1
  6
CONTINUOUS
370
50
 62
4
100
AcDbLine
 10
7.112706999999999
 20
-0.150661
 30
0.0
 11
7.08942
 21
-0.141575
 31
0.0
  0
LINE
  5
7A2
330
1F
100
AcDbEntity
  8
1
  6
CONTINUOUS
370
50
 62
4
100
AcDbLine
 10
7.140886999999999
 20
0.068516
 30
0.0
 11
7.115257
 21
0.078416
 31
0.0
  0
LINE
  5
7A3
330
1F
100
AcDbEntity
  8
1
  6
CONTINUOUS
370
50
 62
4
100
AcDbLine
 10
7.002629
 20
0.183176
 30
0.0
 11
6.994174
 21
0.186434
 31
0.0
  0
LINE
  5
7A4
330
1F
100
AcDbEntity
  8
1
  6
CONTINUOUS
370
50
 62
4
100
AcDbLine
 10
7.08942
 20
0.141167
 30
0.0
 11
7.064
 21
0.150958
 31
0.0
  0
LINE
  5
7A5
330
1F
100
AcDbEntity
  8
1
  6
CONTINUOUS
370
50
 62
4
100
AcDbLine
 10
7.245235999999999
 20
0.148531
 30
0.0
 11
7.24188
 21
0.149815
 31
0.0
  0
LINE
  5
7A6
330
1F
100
AcDbEntity
  8
1
  6
CONTINUOUS
370
50
 62
4
100
AcDbLine
 10
7.255058
 20
0.144716
 30
0.0
 11
7.249873999999999
 21
0.146684
 31
0.0
  0
LINE
  5
7A7
330
1F
100
AcDbEntity
  8
1
  6
CONTINUOUS
370
50
 62
4
100
AcDbLine
 10
6.942968
 20
-0.189071
 30
0.0
 11
6.93617
 21
-0.186519
 31
0.0
  0
LINE
  5
7A8
330
1F
100
AcDbEntity
  8
1
  6
CONTINUOUS
370
50
 62
4
100
AcDbLine
 10
7.239768
 20
0.185827
 30
0.0
 11
7.23489
 21
0.187631
 31
0.0
  0
LINE
  5
7A9
330
1F
100
AcDbEntity
  8
1
  6
CONTINUOUS
370
50
 62
4
100
AcDbLine
 10
7.133770999999999
 20
-0.158398
 30
0.0
 11
7.112706999999999
 21
-0.150661
 31
0.0
  0
LINE
  5
7AA
330
1F
100
AcDbEntity
  8
1
  6
CONTINUOUS
370
50
 62
4
100
AcDbLine
 10
7.260765999999999
 20
0.142625
 30
0.0
 11
7.255058
 21
0.144716
 31
0.0
  0
LINE
  5
7AB
330
1F
100
AcDbEntity
  8
1
  6
CONTINUOUS
370
50
 62
4
100
AcDbLine
 10
7.115257
 20
0.078416
 30
0.0
 11
7.089627999999999
 21
0.087772
 31
0.0
  0
LINE
  5
7AC
330
1F
100
AcDbEntity
  8
1
  6
CONTINUOUS
370
50
 62
4
100
AcDbLine
 10
7.266978
 20
0.140405
 30
0.0
 11
7.260765999999999
 21
0.142625
 31
0.0
  0
LINE
  5
7AD
330
1F
100
AcDbEntity
  8
1
  6
CONTINUOUS
370
50
 62
4
100
AcDbLine
 10
7.27367
 20
0.138051
 30
0.0
 11
7.266978
 21
0.140405
 31
0.0
  0
LINE
  5
7AE
330
1F
100
AcDbEntity
  8
1
  6
CONTINUOUS
370
50
 62
4
100
AcDbLine
 10
7.210216
 20
0.084934
 30
0.0
 11
7.206861
 21
0.086105
 31
0.0
  0
LINE
  5
7AF
330
1F
100
AcDbEntity
  8
1
  6
CONTINUOUS
370
50
 62
4
100
AcDbLine
 10
7.280822
 20
0.135561
 30
0.0
 11
7.27367
 21
0.138051
 31
0.0
  0
LINE
  5
7B0
330
1F
100
AcDbEntity
  8
1
  6
CONTINUOUS
370
50
 62
4
100
AcDbLine
 10
7.084600999999999
 20
-0.161029
 30
0.0
 11
7.064
 21
-0.153871
 31
0.0
  0
LINE
  5
7B1
330
1F
100
AcDbEntity
  8
1
  6
CONTINUOUS
370
50
 62
4
100
AcDbLine
 10
7.288411
 20
0.132928
 30
0.0
 11
7.280822
 21
0.135561
 31
0.0
  0
LINE
  5
7B2
330
1F
100
AcDbEntity
  8
1
  6
CONTINUOUS
370
50
 62
4
100
AcDbLine
 10
7.152523
 20
-0.164875
 30
0.0
 11
7.133770999999999
 21
-0.158398
 31
0.0
  0
LINE
  5
7B3
330
1F
100
AcDbEntity
  8
1
  6
CONTINUOUS
370
50
 62
4
100
AcDbLine
 10
7.089627999999999
 20
0.087772
 30
0.0
 11
7.063999
 21
0.096564
 31
0.0
  0
LINE
  5
7B4
330
1F
100
AcDbEntity
  8
1
  6
CONTINUOUS
370
50
 62
4
100
AcDbLine
 10
7.24188
 20
0.149815
 30
0.0
 11
7.238197
 21
0.151024
 31
0.0
  0
LINE
  5
7B5
330
1F
100
AcDbEntity
  8
1
  6
CONTINUOUS
370
50
 62
4
100
AcDbLine
 10
7.168871999999999
 20
-0.170178
 30
0.0
 11
7.152523
 21
-0.164875
 31
0.0
  0
LINE
  5
7B6
330
1F
100
AcDbEntity
  8
1
  6
CONTINUOUS
370
50
 62
4
100
AcDbLine
 10
7.193987
 20
-0.025192
 30
0.0
 11
7.168361999999999
 21
-0.016903
 31
0.0
  0
LINE
  5
7B7
330
1F
100
AcDbEntity
  8
1
  6
CONTINUOUS
370
50
 62
4
100
AcDbLine
 10
7.168361999999999
 20
-0.016903
 30
0.0
 11
7.142735999999999
 21
-0.008614
 31
0.0
  0
LINE
  5
7B8
330
1F
100
AcDbEntity
  8
1
  6
CONTINUOUS
370
50
 62
4
100
AcDbLine
 10
7.105197
 20
-0.167681
 30
0.0
 11
7.084600999999999
 21
-0.161029
 31
0.0
  0
LINE
  5
7B9
330
1F
100
AcDbEntity
  8
1
  6
CONTINUOUS
370
50
 62
4
100
AcDbLine
 10
7.193064
 20
-0.024857
 30
0.0
 11
7.168176
 21
-0.016819
 31
0.0
  0
LINE
  5
7BA
330
1F
100
AcDbEntity
  8
1
  6
CONTINUOUS
370
50
 62
4
100
AcDbLine
 10
6.994174
 20
0.186434
 30
0.0
 11
6.986115
 21
0.189031
 31
0.0
  0
LINE
  5
7BB
330
1F
100
AcDbEntity
  8
1
  6
CONTINUOUS
370
50
 62
4
100
AcDbLine
 10
7.142735999999999
 20
-0.008614
 30
0.0
 11
7.117109999999999
 21
-0.000385
 31
0.0
  0
LINE
  5
7BC
330
1F
100
AcDbEntity
  8
1
  6
CONTINUOUS
370
50
 62
4
100
AcDbLine
 10
7.168176
 20
-0.016819
 30
0.0
 11
7.142713
 21
-0.008672
 31
0.0
  0
LINE
  5
7BD
330
1F
100
AcDbEntity
  8
1
  6
CONTINUOUS
370
50
 62
4
100
AcDbLine
 10
7.117109999999999
 20
-0.000385
 30
0.0
 11
7.10826
 21
0.002438
 31
0.0
  0
LINE
  5
7BE
330
1F
100
AcDbEntity
  8
1
  6
CONTINUOUS
370
50
 62
4
100
AcDbLine
 10
7.10826
 20
0.002438
 30
0.0
 11
7.099411
 21
0.00525
 31
0.0
  0
LINE
  5
7BF
330
1F
100
AcDbEntity
  8
1
  6
CONTINUOUS
370
50
 62
4
100
AcDbLine
 10
7.099411
 20
0.00525
 30
0.0
 11
7.090561
 21
0.008048
 31
0.0
  0
LINE
  5
7C0
330
1F
100
AcDbEntity
  8
1
  6
CONTINUOUS
370
50
 62
4
100
AcDbLine
 10
7.142713
 20
-0.008672
 30
0.0
 11
7.117112
 21
-0.000599
 31
0.0
  0
LINE
  5
7C1
330
1F
100
AcDbEntity
  8
1
  6
CONTINUOUS
370
50
 62
4
100
AcDbLine
 10
7.090561
 20
0.008048
 30
0.0
 11
7.081712
 21
0.010833
 31
0.0
  0
LINE
  5
7C2
330
1F
100
AcDbEntity
  8
1
  6
CONTINUOUS
370
50
 62
4
100
AcDbLine
 10
7.275462
 20
-0.133576
 30
0.0
 11
7.274477
 21
-0.133267
 31
0.0
  0
LINE
  5
7C3
330
1F
100
AcDbEntity
  8
1
  6
CONTINUOUS
370
50
 62
4
100
AcDbLine
 10
7.081712
 20
0.010833
 30
0.0
 11
7.072862
 21
0.013603
 31
0.0
  0
LINE
  5
7C4
330
1F
100
AcDbEntity
  8
1
  6
CONTINUOUS
370
50
 62
4
100
AcDbLine
 10
7.218738999999999
 20
-0.032864
 30
0.0
 11
7.193064
 21
-0.024857
 31
0.0
  0
LINE
  5
7C5
330
1F
100
AcDbEntity
  8
1
  6
CONTINUOUS
370
50
 62
4
100
AcDbLine
 10
7.219613
 20
-0.033171
 30
0.0
 11
7.193987
 21
-0.025192
 31
0.0
  0
LINE
  5
7C6
330
1F
100
AcDbEntity
  8
1
  6
CONTINUOUS
370
50
 62
4
100
AcDbLine
 10
7.072862
 20
0.013603
 30
0.0
 11
7.064012
 21
0.016357
 31
0.0
  0
LINE
  5
7C7
330
1F
100
AcDbEntity
  8
1
  6
CONTINUOUS
370
50
 62
4
100
AcDbLine
 10
7.182727
 20
-0.174397
 30
0.0
 11
7.168871999999999
 21
-0.170178
 31
0.0
  0
LINE
  5
7C8
330
1F
100
AcDbEntity
  8
1
  6
CONTINUOUS
370
50
 62
4
100
AcDbLine
 10
7.21359
 20
0.083908
 30
0.0
 11
7.210216
 21
0.084934
 31
0.0
  0
LINE
  5
7C9
330
1F
100
AcDbEntity
  8
1
  6
CONTINUOUS
370
50
 62
4
100
AcDbLine
 10
7.125728
 20
-0.173801
 30
0.0
 11
7.105197
 21
-0.167681
 31
0.0
  0
LINE
  5
7CA
330
1F
100
AcDbEntity
  8
1
  6
CONTINUOUS
370
50
 62
4
100
AcDbLine
 10
7.24524
 20
-0.040791
 30
0.0
 11
7.219613
 21
-0.033171
 31
0.0
  0
LINE
  5
7CB
330
1F
100
AcDbEntity
  8
1
  6
CONTINUOUS
370
50
 62
4
100
AcDbLine
 10
7.244772999999999
 20
-0.040598
 30
0.0
 11
7.218738999999999
 21
-0.032864
 31
0.0
  0
LINE
  5
7CC
330
1F
100
AcDbEntity
  8
1
  6
CONTINUOUS
370
50
 62
4
100
AcDbLine
 10
7.23489
 20
0.187631
 30
0.0
 11
7.229933
 21
0.189097
 31
0.0
  0
LINE
  5
7CD
330
1F
100
AcDbEntity
  8
1
  6
CONTINUOUS
370
50
 62
4
100
AcDbLine
 10
6.294
 20
0.19245
 30
0.0
 11
-0.01
 21
1.99995
 31
0.0
  0
LINE
  5
7CE
330
1F
100
AcDbEntity
  8
1
  6
CONTINUOUS
370
50
 62
4
100
AcDbLine
 10
7.194
 20
-0.177618
 30
0.0
 11
7.182727
 21
-0.174397
 31
0.0
  0
LINE
  5
7CF
330
1F
100
AcDbEntity
  8
1
  6
CONTINUOUS
370
50
 62
4
100
AcDbLine
 10
7.270871
 20
-0.048085
 30
0.0
 11
7.24524
 21
-0.040791
 31
0.0
  0
LINE
  5
7D0
330
1F
100
AcDbEntity
  8
1
  6
CONTINUOUS
370
50
 62
4
100
AcDbLine
 10
7.270928
 20
-0.048021
 30
0.0
 11
7.244772999999999
 21
-0.040598
 31
0.0
  0
LINE
  5
7D1
330
1F
100
AcDbEntity
  8
1
  6
CONTINUOUS
370
50
 62
4
100
AcDbLine
 10
7.238197
 20
0.151024
 30
0.0
 11
7.234162
 21
0.152142
 31
0.0
  0
LINE
  5
7D2
330
1F
100
AcDbEntity
  8
1
  6
CONTINUOUS
370
50
 62
4
100
AcDbLine
 10
7.145414
 20
-0.179186
 30
0.0
 11
7.125728
 21
-0.173801
 31
0.0
  0
LINE
  5
7D3
330
1F
100
AcDbEntity
  8
1
  6
CONTINUOUS
370
50
 62
4
100
AcDbLine
 10
6.949727999999999
 20
-0.190917
 30
0.0
 11
6.942968
 21
-0.189071
 31
0.0
  0
LINE
  5
7D4
330
1F
100
AcDbEntity
  8
1
  6
CONTINUOUS
370
50
 62
4
100
AcDbLine
 10
7.168759
 20
0.12635
 30
0.0
 11
7.161942
 21
0.128203
 31
0.0
  0
LINE
  5
7D5
330
1F
100
AcDbEntity
  8
1
  6
CONTINUOUS
370
50
 62
4
100
AcDbLine
 10
7.161942
 20
0.128203
 30
0.0
 11
7.139329999999999
 21
0.134346
 31
0.0
  0
LINE
  5
7D6
330
1F
100
AcDbEntity
  8
1
  6
CONTINUOUS
370
50
 62
4
100
AcDbLine
 10
7.139329999999999
 20
0.134346
 30
0.0
 11
7.116378999999999
 21
0.140574
 31
0.0
  0
LINE
  5
7D7
330
1F
100
AcDbEntity
  8
1
  6
CONTINUOUS
370
50
 62
4
100
AcDbLine
 10
7.116378999999999
 20
0.140574
 30
0.0
 11
7.104228
 21
0.143868
 31
0.0
  0
LINE
  5
7D8
330
1F
100
AcDbEntity
  8
1
  6
CONTINUOUS
370
50
 62
4
100
AcDbLine
 10
7.104228
 20
0.143868
 30
0.0
 11
7.084163999999999
 21
0.149305
 31
0.0
  0
LINE
  5
7D9
330
1F
100
AcDbEntity
  8
1
  6
CONTINUOUS
370
50
 62
4
100
AcDbLine
 10
7.084163999999999
 20
0.149305
 30
0.0
 11
7.063997
 21
0.154769
 31
0.0
  0
LINE
  5
7DA
330
1F
100
AcDbEntity
  8
1
  6
CONTINUOUS
370
50
 62
4
100
AcDbLine
 10
7.193317
 20
0.119712
 30
0.0
 11
7.168759
 21
0.12635
 31
0.0
  0
LINE
  5
7DB
330
1F
100
AcDbEntity
  8
1
  6
CONTINUOUS
370
50
 62
4
100
AcDbLine
 10
7.216982
 20
0.08303
 30
0.0
 11
7.21359
 21
0.083908
 31
0.0
  0
LINE
  5
7DC
330
1F
100
AcDbEntity
  8
1
  6
CONTINUOUS
370
50
 62
4
100
AcDbLine
 10
7.218235
 20
0.113319
 30
0.0
 11
7.193317
 21
0.119712
 31
0.0
  0
LINE
  5
7DD
330
1F
100
AcDbEntity
  8
1
  6
CONTINUOUS
370
50
 62
4
100
AcDbLine
 10
7.226125
 20
-0.019013
 30
0.0
 11
7.218604999999999
 21
-0.017101
 31
0.0
  0
LINE
  5
7DE
330
1F
100
AcDbEntity
  8
1
  6
CONTINUOUS
370
50
 62
4
100
AcDbLine
 10
7.233601999999999
 20
-0.020903
 30
0.0
 11
7.226125
 21
-0.019013
 31
0.0
  0
LINE
  5
7DF
330
1F
100
AcDbEntity
  8
1
  6
CONTINUOUS
370
50
 62
4
100
AcDbLine
 10
7.241021
 20
-0.022767
 30
0.0
 11
7.233601999999999
 21
-0.020903
 31
0.0
  0
LINE
  5
7E0
330
1F
100
AcDbEntity
  8
1
  6
CONTINUOUS
370
50
 62
4
100
AcDbLine
 10
7.248386999999999
 20
-0.024607
 30
0.0
 11
7.241021
 21
-0.022767
 31
0.0
  0
LINE
  5
7E1
330
1F
100
AcDbEntity
  8
1
  6
CONTINUOUS
370
50
 62
4
100
AcDbLine
 10
7.163238
 20
-0.183626
 30
0.0
 11
7.145414
 21
-0.179186
 31
0.0
  0
LINE
  5
7E2
330
1F
100
AcDbEntity
  8
1
  6
CONTINUOUS
370
50
 62
4
100
AcDbLine
 10
7.255745
 20
-0.026433
 30
0.0
 11
7.248386999999999
 21
-0.024607
 31
0.0
  0
LINE
  5
7E3
330
1F
100
AcDbEntity
  8
1
  6
CONTINUOUS
370
50
 62
4
100
AcDbLine
 10
7.221131
 20
0.112602
 30
0.0
 11
7.218235
 21
0.113319
 31
0.0
  0
LINE
  5
7E4
330
1F
100
AcDbEntity
  8
1
  6
CONTINUOUS
370
50
 62
4
100
AcDbLine
 10
7.263101
 20
-0.028248
 30
0.0
 11
7.255745
 21
-0.026433
 31
0.0
  0
LINE
  5
7E5
330
1F
100
AcDbEntity
  8
1
  6
CONTINUOUS
370
50
 62
4
100
AcDbLine
 10
7.197107
 20
-0.178381
 30
0.0
 11
7.194
 21
-0.177618
 31
0.0
  0
LINE
  5
7E6
330
1F
100
AcDbEntity
  8
1
  6
CONTINUOUS
370
50
 62
4
100
AcDbLine
 10
7.270455
 20
-0.030051
 30
0.0
 11
7.263101
 21
-0.028248
 31
0.0
  0
LINE
  5
7E7
330
1F
100
AcDbEntity
  8
1
  6
CONTINUOUS
370
50
 62
4
100
AcDbLine
 10
6.986115
 20
0.189031
 30
0.0
 11
6.978362
 21
0.190927
 31
0.0
  0
LINE
  5
7E8
330
1F
100
AcDbEntity
  8
1
  6
CONTINUOUS
370
50
 62
4
100
AcDbLine
 10
7.054996
 20
0.158923
 30
0.0
 11
7.054825999999999
 21
0.158964
 31
0.0
  0
LINE
  5
7E9
330
1F
100
AcDbEntity
  8
1
  6
CONTINUOUS
370
50
 62
4
100
AcDbLine
 10
7.054991999999999
 20
0.158925
 30
0.0
 11
7.054822
 21
0.158966
 31
0.0
  0
LINE
  5
7EA
330
1F
100
AcDbEntity
  8
1
  6
CONTINUOUS
370
50
 62
4
100
AcDbLine
 10
7.245403
 20
0.106803
 30
0.0
 11
7.221131
 21
0.112602
 31
0.0
  0
LINE
  5
7EB
330
1F
100
AcDbEntity
  8
1
  6
CONTINUOUS
370
50
 62
4
100
AcDbLine
 10
7.234162
 20
0.152142
 30
0.0
 11
7.229747
 21
0.153148
 31
0.0
  0
LINE
  5
7EC
330
1F
100
AcDbEntity
  8
1
  6
CONTINUOUS
370
50
 62
4
100
AcDbLine
 10
7.229933
 20
0.189097
 30
0.0
 11
7.224911
 21
0.190227
 31
0.0
  0
LINE
  5
7ED
330
1F
100
AcDbEntity
  8
1
  6
CONTINUOUS
370
50
 62
4
100
AcDbLine
 10
7.269933999999999
 20
0.101294
 30
0.0
 11
7.245403
 21
0.106803
 31
0.0
  0
LINE
  5
7EE
330
1F
100
AcDbEntity
  8
1
  6
CONTINUOUS
370
50
 62
4
100
AcDbLine
 10
7.179372
 20
-0.187239
 30
0.0
 11
7.163238
 21
-0.183626
 31
0.0
  0
LINE
  5
7EF
330
1F
100
AcDbEntity
  8
1
  6
CONTINUOUS
370
50
 62
4
100
AcDbLine
 10
7.220389
 20
0.082305
 30
0.0
 11
7.216982
 21
0.08303
 31
0.0
  0
LINE
  5
7F0
330
1F
100
AcDbEntity
  8
1
  6
CONTINUOUS
370
50
 62
4
100
AcDbLine
 10
7.276460999999999
 20
-0.13378
 30
0.0
 11
7.275462
 21
-0.133576
 31
0.0
  0
LINE
  5
7F1
330
1F
100
AcDbEntity
  8
1
  6
CONTINUOUS
370
50
 62
4
100
AcDbLine
 10
7.194
 20
-0.190147
 30
0.0
 11
7.179372
 21
-0.187239
 31
0.0
  0
LINE
  5
7F2
330
1F
100
AcDbEntity
  8
1
  6
CONTINUOUS
370
50
 62
4
100
AcDbLine
 10
7.200286999999999
 20
-0.178971
 30
0.0
 11
7.197107
 21
-0.178381
 31
0.0
  0
LINE
  5
7F3
330
1F
100
AcDbEntity
  8
1
  6
CONTINUOUS
370
50
 62
4
100
AcDbLine
 10
7.229747
 20
0.153148
 30
0.0
 11
7.224926
 21
0.154024
 31
0.0
  0
LINE
  5
7F4
330
1F
100
AcDbEntity
  8
1
  6
CONTINUOUS
370
50
 62
4
100
AcDbLine
 10
6.956521
 20
-0.192047
 30
0.0
 11
6.949727999999999
 21
-0.190917
 31
0.0
  0
LINE
  5
7F5
330
1F
100
AcDbEntity
  8
1
  6
CONTINUOUS
370
50
 62
4
100
AcDbLine
 10
7.223808
 20
0.081738
 30
0.0
 11
7.220389
 21
0.082305
 31
0.0
  0
LINE
  5
7F6
330
1F
100
AcDbEntity
  8
1
  6
CONTINUOUS
370
50
 62
4
100
AcDbLine
 10
7.224911
 20
0.190227
 30
0.0
 11
7.219834
 21
0.191025
 31
0.0
  0
LINE
  5
7F7
330
1F
100
AcDbEntity
  8
1
  6
CONTINUOUS
370
50
 62
4
100
AcDbLine
 10
7.19919
 20
-0.190956
 30
0.0
 11
7.194
 21
-0.190147
 31
0.0
  0
LINE
  5
7F8
330
1F
100
AcDbEntity
  8
1
  6
CONTINUOUS
370
50
 62
4
100
AcDbLine
 10
6.978362
 20
0.190927
 30
0.0
 11
6.970828
 21
0.19208
 31
0.0
  0
LINE
  5
7F9
330
1F
100
AcDbEntity
  8
1
  6
CONTINUOUS
370
50
 62
4
100
AcDbLine
 10
7.224926
 20
0.154024
 30
0.0
 11
7.219672999999999
 21
0.154752
 31
0.0
  0
LINE
  5
7FA
330
1F
100
AcDbEntity
  8
1
  6
CONTINUOUS
370
50
 62
4
100
AcDbLine
 10
7.203539999999999
 20
-0.17938
 30
0.0
 11
7.200286999999999
 21
-0.178971
 31
0.0
  0
LINE
  5
7FB
330
1F
100
AcDbEntity
  8
1
  6
CONTINUOUS
370
50
 62
4
100
AcDbLine
 10
7.227182
 20
0.081335
 30
0.0
 11
7.223808
 21
0.081738
 31
0.0
  0
LINE
  5
7FC
330
1F
100
AcDbEntity
  8
1
  6
CONTINUOUS
370
50
 62
4
100
AcDbLine
 10
7.219672999999999
 20
0.154752
 30
0.0
 11
7.213959999999999
 21
0.155314
 31
0.0
  0
LINE
  5
7FD
330
1F
100
AcDbEntity
  8
1
  6
CONTINUOUS
370
50
 62
4
100
AcDbLine
 10
7.277464999999999
 20
-0.133877
 30
0.0
 11
7.276460999999999
 21
-0.13378
 31
0.0
  0
LINE
  5
7FE
330
1F
100
AcDbEntity
  8
1
  6
CONTINUOUS
370
50
 62
4
100
AcDbLine
 10
7.204377999999999
 20
-0.191453
 30
0.0
 11
7.19919
 21
-0.190956
 31
0.0
  0
LINE
  5
7FF
330
1F
100
AcDbEntity
  8
1
  6
CONTINUOUS
370
50
 62
4
100
AcDbLine
 10
7.219834
 20
0.191025
 30
0.0
 11
7.214709999999999
 21
0.191492
 31
0.0
  0
LINE
  5
800
330
1F
100
AcDbEntity
  8
1
  6
CONTINUOUS
370
50
 62
4
100
AcDbLine
 10
7.230488999999999
 20
0.081091
 30
0.0
 11
7.227182
 21
0.081335
 31
0.0
  0
LINE
  5
801
330
1F
100
AcDbEntity
  8
1
  6
CONTINUOUS
370
50
 62
4
100
AcDbLine
 10
7.206861
 20
-0.179595
 30
0.0
 11
7.203539999999999
 21
-0.17938
 31
0.0
  0
LINE
  5
802
330
1F
100
AcDbEntity
  8
1
  6
CONTINUOUS
370
50
 62
4
100
AcDbLine
 10
6.963422
 20
-0.192449
 30
0.0
 11
6.956521
 21
-0.192047
 31
0.0
  0
LINE
  5
803
330
1F
100
AcDbEntity
  8
1
  6
CONTINUOUS
370
50
 62
4
100
AcDbLine
 10
6.970828
 20
0.19208
 30
0.0
 11
6.963422
 21
0.192449
 31
0.0
  0
LINE
  5
804
330
1F
100
AcDbEntity
  8
1
  6
CONTINUOUS
370
50
 62
4
100
AcDbLine
 10
7.209554
 20
-0.191634
 30
0.0
 11
7.204377999999999
 21
-0.191453
 31
0.0
  0
LINE
  5
805
330
1F
100
AcDbEntity
  8
1
  6
CONTINUOUS
370
50
 62
4
100
AcDbLine
 10
7.233724
 20
0.080994
 30
0.0
 11
7.230488999999999
 21
0.081091
 31
0.0
  0
LINE
  5
806
330
1F
100
AcDbEntity
  8
1
  6
CONTINUOUS
370
50
 62
4
100
AcDbLine
 10
7.214709999999999
 20
0.191492
 30
0.0
 11
7.209554
 21
0.191634
 31
0.0
  0
LINE
  5
807
330
1F
100
AcDbEntity
  8
1
  6
CONTINUOUS
370
50
 62
4
100
AcDbLine
 10
7.210216
 20
-0.179608
 30
0.0
 11
7.206861
 21
-0.179595
 31
0.0
  0
LINE
  5
808
330
1F
100
AcDbEntity
  8
1
  6
CONTINUOUS
370
50
 62
4
100
AcDbLine
 10
6.294
 20
-0.19245
 30
0.0
 11
6.963748
 21
-0.19245
 31
0.0
  0
LINE
  5
809
330
1F
100
AcDbEntity
  8
1
  6
CONTINUOUS
370
50
 62
4
100
AcDbLine
 10
6.294
 20
0.19245
 30
0.0
 11
6.963748
 21
0.19245
 31
0.0
  0
LINE
  5
80A
330
1F
100
AcDbEntity
  8
1
  6
CONTINUOUS
370
50
 62
4
100
AcDbLine
 10
7.059714
 20
-0.15387
 30
0.0
 11
7.062571999999999
 21
-0.153838
 31
0.0
  0
LINE
  5
80B
330
1F
100
AcDbEntity
  8
1
  6
CONTINUOUS
370
50
 62
4
100
AcDbLine
 10
7.055428999999999
 20
-0.153919
 30
0.0
 11
7.056857
 21
-0.153903
 31
0.0
  0
LINE
  5
80C
330
1F
100
AcDbEntity
  8
1
  6
CONTINUOUS
370
50
 62
4
100
AcDbLine
 10
7.058286
 20
-0.153886
 30
0.0
 11
7.059714
 21
-0.15387
 31
0.0
  0
LINE
  5
80D
330
1F
100
AcDbEntity
  8
1
  6
CONTINUOUS
370
50
 62
4
100
AcDbLine
 10
7.062571999999999
 20
-0.153838
 30
0.0
 11
7.064
 21
-0.153822
 31
0.0
  0
LINE
  5
80E
330
1F
100
AcDbEntity
  8
1
  6
CONTINUOUS
370
50
 62
4
100
AcDbLine
 10
7.053999999999999
 20
-0.153936
 30
0.0
 11
7.055428999999999
 21
-0.153919
 31
0.0
  0
LINE
  5
80F
330
1F
100
AcDbEntity
  8
1
  6
CONTINUOUS
370
50
 62
4
100
AcDbLine
 10
7.056857
 20
-0.153903
 30
0.0
 11
7.058286
 21
-0.153886
 31
0.0
  0
LINE
  5
810
330
1F
100
AcDbEntity
  8
1
  6
CONTINUOUS
370
50
 62
4
100
AcDbLine
 10
7.045845
 20
-0.148297
 30
0.0
 11
7.053999999999999
 21
-0.148199
 31
0.0
  0
LINE
  5
811
330
1F
100
AcDbEntity
  8
1
  6
CONTINUOUS
370
50
 62
4
100
AcDbLine
 10
7.03769
 20
-0.148399
 30
0.0
 11
7.045845
 21
-0.148297
 31
0.0
  0
LINE
  5
812
330
1F
100
AcDbEntity
  8
1
  6
CONTINUOUS
370
50
 62
4
100
AcDbLine
 10
7.233724
 20
0.080994
 30
0.0
 11
7.236885
 21
0.081034
 31
0.0
  0
LINE
  5
813
330
1F
100
AcDbEntity
  8
1
  6
CONTINUOUS
370
50
 62
4
100
AcDbLine
 10
7.029535
 20
-0.148506
 30
0.0
 11
7.03769
 21
-0.148399
 31
0.0
  0
LINE
  5
814
330
1F
100
AcDbEntity
  8
1
  6
CONTINUOUS
370
50
 62
4
100
AcDbLine
 10
7.021381
 20
-0.148616
 30
0.0
 11
7.029535
 21
-0.148506
 31
0.0
  0
LINE
  5
815
330
1F
100
AcDbEntity
  8
1
  6
CONTINUOUS
370
50
 62
4
100
AcDbLine
 10
7.013227
 20
-0.14873
 30
0.0
 11
7.021381
 21
-0.148616
 31
0.0
  0
LINE
  5
816
330
1F
100
AcDbEntity
  8
1
  6
CONTINUOUS
370
50
 62
4
100
AcDbLine
 10
7.062571999999999
 20
0.127658
 30
0.0
 11
7.064
 21
0.127678
 31
0.0
  0
LINE
  5
817
330
1F
100
AcDbEntity
  8
1
  6
CONTINUOUS
370
50
 62
4
100
AcDbLine
 10
7.005071999999999
 20
-0.148848
 30
0.0
 11
7.013227
 21
-0.14873
 31
0.0
  0
LINE
  5
818
330
1F
100
AcDbEntity
  8
1
  6
CONTINUOUS
370
50
 62
4
100
AcDbLine
 10
7.045845
 20
0.122658
 30
0.0
 11
7.053999999999999
 21
0.122777
 31
0.0
  0
LINE
  5
819
330
1F
100
AcDbEntity
  8
1
  6
CONTINUOUS
370
50
 62
4
100
AcDbLine
 10
7.056857
 20
0.127573
 30
0.0
 11
7.058286
 21
0.127594
 31
0.0
  0
LINE
  5
81A
330
1F
100
AcDbEntity
  8
1
  6
CONTINUOUS
370
50
 62
4
100
AcDbLine
 10
7.061143
 20
0.127637
 30
0.0
 11
7.062571999999999
 21
0.127658
 31
0.0
  0
LINE
  5
81B
330
1F
100
AcDbEntity
  8
1
  6
CONTINUOUS
370
50
 62
4
100
AcDbLine
 10
7.058286
 20
0.127594
 30
0.0
 11
7.059714
 21
0.127615
 31
0.0
  0
LINE
  5
81C
330
1F
100
AcDbEntity
  8
1
  6
CONTINUOUS
370
50
 62
4
100
AcDbLine
 10
6.996918
 20
-0.148969
 30
0.0
 11
7.005071999999999
 21
-0.148848
 31
0.0
  0
LINE
  5
81D
330
1F
100
AcDbEntity
  8
1
  6
CONTINUOUS
370
50
 62
4
100
AcDbLine
 10
7.03769
 20
0.122534
 30
0.0
 11
7.045845
 21
0.122658
 31
0.0
  0
LINE
  5
81E
330
1F
100
AcDbEntity
  8
1
  6
CONTINUOUS
370
50
 62
4
100
AcDbLine
 10
7.053999999999999
 20
0.127529
 30
0.0
 11
7.055428999999999
 21
0.127551
 31
0.0
  0
LINE
  5
81F
330
1F
100
AcDbEntity
  8
1
  6
CONTINUOUS
370
50
 62
4
100
AcDbLine
 10
7.059714
 20
0.127615
 30
0.0
 11
7.061143
 21
0.127637
 31
0.0
  0
LINE
  5
820
330
1F
100
AcDbEntity
  8
1
  6
CONTINUOUS
370
50
 62
4
100
AcDbLine
 10
7.055428999999999
 20
0.127551
 30
0.0
 11
7.056857
 21
0.127573
 31
0.0
  0
LINE
  5
821
330
1F
100
AcDbEntity
  8
1
  6
CONTINUOUS
370
50
 62
4
100
AcDbLine
 10
7.029535
 20
0.122405
 30
0.0
 11
7.03769
 21
0.122534
 31
0.0
  0
LINE
  5
822
330
1F
100
AcDbEntity
  8
1
  6
CONTINUOUS
370
50
 62
4
100
AcDbLine
 10
7.277464999999999
 20
-0.133877
 30
0.0
 11
7.278468999999999
 21
-0.133861
 31
0.0
  0
LINE
  5
823
330
1F
100
AcDbEntity
  8
1
  6
CONTINUOUS
370
50
 62
4
100
AcDbLine
 10
7.021381
 20
0.122272
 30
0.0
 11
7.029535
 21
0.122405
 31
0.0
  0
LINE
  5
824
330
1F
100
AcDbEntity
  8
1
  6
CONTINUOUS
370
50
 62
4
100
AcDbLine
 10
7.013227
 20
0.122133
 30
0.0
 11
7.021381
 21
0.122272
 31
0.0
  0
LINE
  5
825
330
1F
100
AcDbEntity
  8
1
  6
CONTINUOUS
370
50
 62
4
100
AcDbLine
 10
7.005071999999999
 20
0.121989
 30
0.0
 11
7.013227
 21
0.122133
 31
0.0
  0
LINE
  5
826
330
1F
100
AcDbEntity
  8
1
  6
CONTINUOUS
370
50
 62
4
100
AcDbLine
 10
6.996918
 20
0.121841
 30
0.0
 11
7.005071999999999
 21
0.121989
 31
0.0
  0
LINE
  5
827
330
1F
100
AcDbEntity
  8
1
  6
CONTINUOUS
370
50
 62
4
100
AcDbLine
 10
6.993192
 20
-0.149057
 30
0.0
 11
6.996918
 21
-0.148969
 31
0.0
  0
LINE
  5
828
330
1F
100
AcDbEntity
  8
1
  6
CONTINUOUS
370
50
 62
4
100
AcDbLine
 10
7.209554
 20
-0.191634
 30
0.0
 11
7.214709999999999
 21
-0.191492
 31
0.0
  0
LINE
  5
829
330
1F
100
AcDbEntity
  8
1
  6
CONTINUOUS
370
50
 62
4
100
AcDbLine
 10
6.993289
 20
0.121737
 30
0.0
 11
6.996918
 21
0.121841
 31
0.0
  0
LINE
  5
82A
330
1F
100
AcDbEntity
  8
1
  6
CONTINUOUS
370
50
 62
4
100
AcDbLine
 10
7.274445
 20
0.150082
 30
0.0
 11
7.280287
 21
0.150256
 31
0.0
  0
LINE
  5
82B
330
1F
100
AcDbEntity
  8
1
  6
CONTINUOUS
370
50
 62
4
100
AcDbLine
 10
7.204377999999999
 20
0.191453
 30
0.0
 11
7.209554
 21
0.191634
 31
0.0
  0
LINE
  5
82C
330
1F
100
AcDbEntity
  8
1
  6
CONTINUOUS
370
50
 62
4
100
AcDbLine
 10
7.268603
 20
0.149865
 30
0.0
 11
7.274445
 21
0.150082
 31
0.0
  0
LINE
  5
82D
330
1F
100
AcDbEntity
  8
1
  6
CONTINUOUS
370
50
 62
4
100
AcDbLine
 10
6.989460999999999
 20
-0.149208
 30
0.0
 11
6.993192
 21
-0.149057
 31
0.0
  0
LINE
  5
82E
330
1F
100
AcDbEntity
  8
1
  6
CONTINUOUS
370
50
 62
4
100
AcDbLine
 10
7.262761999999999
 20
0.149606
 30
0.0
 11
7.268603
 21
0.149865
 31
0.0
  0
LINE
  5
82F
330
1F
100
AcDbEntity
  8
1
  6
CONTINUOUS
370
50
 62
4
100
AcDbLine
 10
6.989655
 20
0.121562
 30
0.0
 11
6.993289
 21
0.121737
 31
0.0
  0
LINE
  5
830
330
1F
100
AcDbEntity
  8
1
  6
CONTINUOUS
370
50
 62
4
100
AcDbLine
 10
6.963422
 20
-0.192449
 30
0.0
 11
6.970828
 21
-0.19208
 31
0.0
  0
LINE
  5
831
330
1F
100
AcDbEntity
  8
1
  6
CONTINUOUS
370
50
 62
4
100
AcDbLine
 10
7.25692
 20
0.149304
 30
0.0
 11
7.262761999999999
 21
0.149606
 31
0.0
  0
LINE
  5
832
330
1F
100
AcDbEntity
  8
1
  6
CONTINUOUS
370
50
 62
4
100
AcDbLine
 10
7.236885
 20
0.081034
 30
0.0
 11
7.239971
 21
0.081201
 31
0.0
  0
LINE
  5
833
330
1F
100
AcDbEntity
  8
1
  6
CONTINUOUS
370
50
 62
4
100
AcDbLine
 10
6.985734
 20
-0.149421
 30
0.0
 11
6.989460999999999
 21
-0.149208
 31
0.0
  0
LINE
  5
834
330
1F
100
AcDbEntity
  8
1
  6
CONTINUOUS
370
50
 62
4
100
AcDbLine
 10
7.210216
 20
-0.179608
 30
0.0
 11
7.21359
 21
-0.179413
 31
0.0
  0
LINE
  5
835
330
1F
100
AcDbEntity
  8
1
  6
CONTINUOUS
370
50
 62
4
100
AcDbLine
 10
7.251078
 20
0.148959
 30
0.0
 11
7.25692
 21
0.149304
 31
0.0
  0
LINE
  5
836
330
1F
100
AcDbEntity
  8
1
  6
CONTINUOUS
370
50
 62
4
100
AcDbLine
 10
7.245235999999999
 20
0.14857
 30
0.0
 11
7.251078
 21
0.148959
 31
0.0
  0
LINE
  5
837
330
1F
100
AcDbEntity
  8
1
  6
CONTINUOUS
370
50
 62
4
100
AcDbLine
 10
6.986022999999999
 20
0.121312
 30
0.0
 11
6.989655
 21
0.121562
 31
0.0
  0
LINE
  5
838
330
1F
100
AcDbEntity
  8
1
  6
CONTINUOUS
370
50
 62
4
100
AcDbLine
 10
6.982013999999999
 20
-0.149697
 30
0.0
 11
6.985734
 21
-0.149421
 31
0.0
  0
LINE
  5
839
330
1F
100
AcDbEntity
  8
1
  6
CONTINUOUS
370
50
 62
4
100
AcDbLine
 10
6.982399
 20
0.120988
 30
0.0
 11
6.986022999999999
 21
0.121312
 31
0.0
  0
LINE
  5
83A
330
1F
100
AcDbEntity
  8
1
  6
CONTINUOUS
370
50
 62
4
100
AcDbLine
 10
7.214709999999999
 20
-0.191492
 30
0.0
 11
7.219834
 21
-0.191025
 31
0.0
  0
LINE
  5
83B
330
1F
100
AcDbEntity
  8
1
  6
CONTINUOUS
370
50
 62
4
100
AcDbLine
 10
6.97831
 20
-0.150036
 30
0.0
 11
6.982013999999999
 21
-0.149697
 31
0.0
  0
LINE
  5
83C
330
1F
100
AcDbEntity
  8
1
  6
CONTINUOUS
370
50
 62
4
100
AcDbLine
 10
7.239971
 20
0.081201
 30
0.0
 11
7.242982
 21
0.081484
 31
0.0
  0
LINE
  5
83D
330
1F
100
AcDbEntity
  8
1
  6
CONTINUOUS
370
50
 62
4
100
AcDbLine
 10
7.19919
 20
0.190956
 30
0.0
 11
7.204377999999999
 21
0.191453
 31
0.0
  0
LINE
  5
83E
330
1F
100
AcDbEntity
  8
1
  6
CONTINUOUS
370
50
 62
4
100
AcDbLine
 10
6.974627
 20
-0.150437
 30
0.0
 11
6.97831
 21
-0.150036
 31
0.0
  0
LINE
  5
83F
330
1F
100
AcDbEntity
  8
1
  6
CONTINUOUS
370
50
 62
4
100
AcDbLine
 10
6.97879
 20
0.120587
 30
0.0
 11
6.982399
 21
0.120988
 31
0.0
  0
LINE
  5
840
330
1F
100
AcDbEntity
  8
1
  6
CONTINUOUS
370
50
 62
4
100
AcDbLine
 10
7.204917999999999
 20
0.144655
 30
0.0
 11
7.217776
 21
0.146141
 31
0.0
  0
LINE
  5
841
330
1F
100
AcDbEntity
  8
1
  6
CONTINUOUS
370
50
 62
4
100
AcDbLine
 10
7.21359
 20
-0.179413
 30
0.0
 11
7.216982
 21
-0.179006
 31
0.0
  0
LINE
  5
842
330
1F
100
AcDbEntity
  8
1
  6
CONTINUOUS
370
50
 62
4
100
AcDbLine
 10
6.970973
 20
-0.150901
 30
0.0
 11
6.974627
 21
-0.150437
 31
0.0
  0
LINE
  5
843
330
1F
100
AcDbEntity
  8
1
  6
CONTINUOUS
370
50
 62
4
100
AcDbLine
 10
7.278468999999999
 20
-0.133861
 30
0.0
 11
7.279465
 21
-0.133731
 31
0.0
  0
LINE
  5
844
330
1F
100
AcDbEntity
  8
1
  6
CONTINUOUS
370
50
 62
4
100
AcDbLine
 10
7.242982
 20
0.081484
 30
0.0
 11
7.245928999999999
 21
0.081873
 31
0.0
  0
LINE
  5
845
330
1F
100
AcDbEntity
  8
1
  6
CONTINUOUS
370
50
 62
4
100
AcDbLine
 10
6.975199
 20
0.120109
 30
0.0
 11
6.97879
 21
0.120587
 31
0.0
  0
LINE
  5
846
330
1F
100
AcDbEntity
  8
1
  6
CONTINUOUS
370
50
 62
4
100
AcDbLine
 10
7.19206
 20
0.142939
 30
0.0
 11
7.204917999999999
 21
0.144655
 31
0.0
  0
LINE
  5
847
330
1F
100
AcDbEntity
  8
1
  6
CONTINUOUS
370
50
 62
4
100
AcDbLine
 10
6.967352
 20
-0.151428
 30
0.0
 11
6.970973
 21
-0.150901
 31
0.0
  0
LINE
  5
848
330
1F
100
AcDbEntity
  8
1
  6
CONTINUOUS
370
50
 62
4
100
AcDbLine
 10
7.179202
 20
0.140993
 30
0.0
 11
7.19206
 21
0.142939
 31
0.0
  0
LINE
  5
849
330
1F
100
AcDbEntity
  8
1
  6
CONTINUOUS
370
50
 62
4
100
AcDbLine
 10
6.970828
 20
-0.19208
 30
0.0
 11
6.978362
 21
-0.190927
 31
0.0
  0
LINE
  5
84A
330
1F
100
AcDbEntity
  8
1
  6
CONTINUOUS
370
50
 62
4
100
AcDbLine
 10
7.194
 20
0.190147
 30
0.0
 11
7.19919
 21
0.190956
 31
0.0
  0
LINE
  5
84B
330
1F
100
AcDbEntity
  8
1
  6
CONTINUOUS
370
50
 62
4
100
AcDbLine
 10
6.971634
 20
0.119553
 30
0.0
 11
6.975199
 21
0.120109
 31
0.0
  0
LINE
  5
84C
330
1F
100
AcDbEntity
  8
1
  6
CONTINUOUS
370
50
 62
4
100
AcDbLine
 10
7.219834
 20
-0.191025
 30
0.0
 11
7.224911
 21
-0.190227
 31
0.0
  0
LINE
  5
84D
330
1F
100
AcDbEntity
  8
1
  6
CONTINUOUS
370
50
 62
4
100
AcDbLine
 10
6.963781
 20
-0.152016
 30
0.0
 11
6.967352
 21
-0.151428
 31
0.0
  0
LINE
  5
84E
330
1F
100
AcDbEntity
  8
1
  6
CONTINUOUS
370
50
 62
4
100
AcDbLine
 10
7.166344
 20
0.138846
 30
0.0
 11
7.179202
 21
0.140993
 31
0.0
  0
LINE
  5
84F
330
1F
100
AcDbEntity
  8
1
  6
CONTINUOUS
370
50
 62
4
100
AcDbLine
 10
7.245928999999999
 20
0.081873
 30
0.0
 11
7.248809
 21
0.082359
 31
0.0
  0
LINE
  5
850
330
1F
100
AcDbEntity
  8
1
  6
CONTINUOUS
370
50
 62
4
100
AcDbLine
 10
6.968101
 20
0.118917
 30
0.0
 11
6.971634
 21
0.119553
 31
0.0
  0
LINE
  5
851
330
1F
100
AcDbEntity
  8
1
  6
CONTINUOUS
370
50
 62
4
100
AcDbLine
 10
7.153486
 20
0.136513
 30
0.0
 11
7.166344
 21
0.138846
 31
0.0
  0
LINE
  5
852
330
1F
100
AcDbEntity
  8
1
  6
CONTINUOUS
370
50
 62
4
100
AcDbLine
 10
7.216982
 20
-0.179006
 30
0.0
 11
7.220389
 21
-0.178384
 31
0.0
  0
LINE
  5
853
330
1F
100
AcDbEntity
  8
1
  6
CONTINUOUS
370
50
 62
4
100
AcDbLine
 10
6.960296
 20
-0.152658
 30
0.0
 11
6.963781
 21
-0.152016
 31
0.0
  0
LINE
  5
854
330
1F
100
AcDbEntity
  8
1
  6
CONTINUOUS
370
50
 62
4
100
AcDbLine
 10
7.140629
 20
0.133998
 30
0.0
 11
7.153486
 21
0.136513
 31
0.0
  0
LINE
  5
855
330
1F
100
AcDbEntity
  8
1
  6
CONTINUOUS
370
50
 62
4
100
AcDbLine
 10
7.176974
 20
0.186728
 30
0.0
 11
7.194
 21
0.190147
 31
0.0
  0
LINE
  5
856
330
1F
100
AcDbEntity
  8
1
  6
CONTINUOUS
370
50
 62
4
100
AcDbLine
 10
7.248809
 20
0.082359
 30
0.0
 11
7.251621999999999
 21
0.08293
 31
0.0
  0
LINE
  5
857
330
1F
100
AcDbEntity
  8
1
  6
CONTINUOUS
370
50
 62
4
100
AcDbLine
 10
6.956905
 20
-0.153351
 30
0.0
 11
6.960296
 21
-0.152658
 31
0.0
  0
LINE
  5
858
330
1F
100
AcDbEntity
  8
1
  6
CONTINUOUS
370
50
 62
4
100
AcDbLine
 10
6.964608999999999
 20
0.118201
 30
0.0
 11
6.968101
 21
0.118917
 31
0.0
  0
LINE
  5
859
330
1F
100
AcDbEntity
  8
1
  6
CONTINUOUS
370
50
 62
4
100
AcDbLine
 10
7.054653999999999
 20
0.15893
 30
0.0
 11
7.054822
 21
0.158966
 31
0.0
  0
LINE
  5
85A
330
1F
100
AcDbEntity
  8
1
  6
CONTINUOUS
370
50
 62
4
100
AcDbLine
 10
7.054657
 20
0.158927
 30
0.0
 11
7.054825999999999
 21
0.158964
 31
0.0
  0
LINE
  5
85B
330
1F
100
AcDbEntity
  8
1
  6
CONTINUOUS
370
50
 62
4
100
AcDbLine
 10
7.224911
 20
-0.190227
 30
0.0
 11
7.229933
 21
-0.189097
 31
0.0
  0
LINE
  5
85C
330
1F
100
AcDbEntity
  8
1
  6
CONTINUOUS
370
50
 62
4
100
AcDbLine
 10
6.953615999999999
 20
-0.154093
 30
0.0
 11
6.956905
 21
-0.153351
 31
0.0
  0
LINE
  5
85D
330
1F
100
AcDbEntity
  8
1
  6
CONTINUOUS
370
50
 62
4
100
AcDbLine
 10
7.229043
 20
-0.014732
 30
0.0
 11
7.234
 21
-0.013608
 31
0.0
  0
LINE
  5
85E
330
1F
100
AcDbEntity
  8
1
  6
CONTINUOUS
370
50
 62
4
100
AcDbLine
 10
7.218605999999999
 20
-0.0171
 30
0.0
 11
7.228955
 21
-0.014753
 31
0.0
  0
LINE
  5
85F
330
1F
100
AcDbEntity
  8
1
  6
CONTINUOUS
370
50
 62
4
100
AcDbLine
 10
7.157901
 20
0.182343
 30
0.0
 11
7.176974
 21
0.186728
 31
0.0
  0
LINE
  5
860
330
1F
100
AcDbEntity
  8
1
  6
CONTINUOUS
370
50
 62
4
100
AcDbLine
 10
6.961192
 20
0.11741
 30
0.0
 11
6.964608999999999
 21
0.118201
 31
0.0
  0
LINE
  5
861
330
1F
100
AcDbEntity
  8
1
  6
CONTINUOUS
370
50
 62
4
100
AcDbLine
 10
7.251621999999999
 20
0.08293
 30
0.0
 11
7.254364
 21
0.083578
 31
0.0
  0
LINE
  5
862
330
1F
100
AcDbEntity
  8
1
  6
CONTINUOUS
370
50
 62
4
100
AcDbLine
 10
6.978362
 20
-0.190927
 30
0.0
 11
6.986115
 21
-0.189031
 31
0.0
  0
LINE
  5
863
330
1F
100
AcDbEntity
  8
1
  6
CONTINUOUS
370
50
 62
4
100
AcDbLine
 10
7.220389
 20
-0.178384
 30
0.0
 11
7.223808
 21
-0.177542
 31
0.0
  0
LINE
  5
864
330
1F
100
AcDbEntity
  8
1
  6
CONTINUOUS
370
50
 62
4
100
AcDbLine
 10
6.950434
 20
-0.15488
 30
0.0
 11
6.953615999999999
 21
-0.154093
 31
0.0
  0
LINE
  5
865
330
1F
100
AcDbEntity
  8
1
  6
CONTINUOUS
370
50
 62
4
100
AcDbLine
 10
7.279465
 20
-0.133731
 30
0.0
 11
7.280446
 21
-0.133482
 31
0.0
  0
LINE
  5
866
330
1F
100
AcDbEntity
  8
1
  6
CONTINUOUS
370
50
 62
4
100
AcDbLine
 10
7.136495999999999
 20
0.176805
 30
0.0
 11
7.157901
 21
0.182343
 31
0.0
  0
LINE
  5
867
330
1F
100
AcDbEntity
  8
1
  6
CONTINUOUS
370
50
 62
4
100
AcDbLine
 10
6.957863
 20
0.116545
 30
0.0
 11
6.961192
 21
0.11741
 31
0.0
  0
LINE
  5
868
330
1F
100
AcDbEntity
  8
1
  6
CONTINUOUS
370
50
 62
4
100
AcDbLine
 10
7.254364
 20
0.083578
 30
0.0
 11
7.257033
 21
0.084292
 31
0.0
  0
LINE
  5
869
330
1F
100
AcDbEntity
  8
1
  6
CONTINUOUS
370
50
 62
4
100
AcDbLine
 10
7.064477
 20
-0.154638
 30
0.0
 11
7.064959
 21
-0.154508
 31
0.0
  0
LINE
  5
86A
330
1F
100
AcDbEntity
  8
1
  6
CONTINUOUS
370
50
 62
4
100
AcDbLine
 10
7.065199
 20
-0.154443
 30
0.0
 11
7.06544
 21
-0.154378
 31
0.0
  0
LINE
  5
86B
330
1F
100
AcDbEntity
  8
1
  6
CONTINUOUS
370
50
 62
4
100
AcDbLine
 10
6.947367
 20
-0.155709
 30
0.0
 11
6.950434
 21
-0.15488
 31
0.0
  0
LINE
  5
86C
330
1F
100
AcDbEntity
  8
1
  6
CONTINUOUS
370
50
 62
4
100
AcDbLine
 10
7.064236999999999
 20
-0.154703
 30
0.0
 11
7.064477
 21
-0.154638
 31
0.0
  0
LINE
  5
86D
330
1F
100
AcDbEntity
  8
1
  6
CONTINUOUS
370
50
 62
4
100
AcDbLine
 10
7.064959
 20
-0.154508
 30
0.0
 11
7.065199
 21
-0.154443
 31
0.0
  0
LINE
  5
86E
330
1F
100
AcDbEntity
  8
1
  6
CONTINUOUS
370
50
 62
4
100
AcDbLine
 10
7.063997
 20
-0.154769
 30
0.0
 11
7.064236999999999
 21
-0.154703
 31
0.0
  0
LINE
  5
86F
330
1F
100
AcDbEntity
  8
1
  6
CONTINUOUS
370
50
 62
4
100
AcDbLine
 10
-0.01
 20
-1.99995
 30
0.0
 11
6.294
 21
-0.19245
 31
0.0
  0
LINE
  5
870
330
1F
100
AcDbEntity
  8
1
  6
CONTINUOUS
370
50
 62
4
100
AcDbLine
 10
7.113007
 20
0.17007
 30
0.0
 11
7.136495999999999
 21
0.176805
 31
0.0
  0
LINE
  5
871
330
1F
100
AcDbEntity
  8
1
  6
CONTINUOUS
370
50
 62
4
100
AcDbLine
 10
6.954629
 20
0.115609
 30
0.0
 11
6.957863
 21
0.116545
 31
0.0
  0
LINE
  5
872
330
1F
100
AcDbEntity
  8
1
  6
CONTINUOUS
370
50
 62
4
100
AcDbLine
 10
6.944419
 20
-0.156578
 30
0.0
 11
6.947367
 21
-0.155709
 31
0.0
  0
LINE
  5
873
330
1F
100
AcDbEntity
  8
1
  6
CONTINUOUS
370
50
 62
4
100
AcDbLine
 10
7.229933
 20
-0.189097
 30
0.0
 11
7.23489
 21
-0.187631
 31
0.0
  0
LINE
  5
874
330
1F
100
AcDbEntity
  8
1
  6
CONTINUOUS
370
50
 62
4
100
AcDbLine
 10
7.257033
 20
0.084292
 30
0.0
 11
7.259628999999999
 21
0.085062
 31
0.0
  0
LINE
  5
875
330
1F
100
AcDbEntity
  8
1
  6
CONTINUOUS
370
50
 62
4
100
AcDbLine
 10
7.223808
 20
-0.177542
 30
0.0
 11
7.227182
 21
-0.176495
 31
0.0
  0
LINE
  5
876
330
1F
100
AcDbEntity
  8
1
  6
CONTINUOUS
370
50
 62
4
100
AcDbLine
 10
7.089233999999999
 20
0.162569
 30
0.0
 11
7.113007
 21
0.17007
 31
0.0
  0
LINE
  5
877
330
1F
100
AcDbEntity
  8
1
  6
CONTINUOUS
370
50
 62
4
100
AcDbLine
 10
6.941598
 20
-0.157485
 30
0.0
 11
6.944419
 21
-0.156578
 31
0.0
  0
LINE
  5
878
330
1F
100
AcDbEntity
  8
1
  6
CONTINUOUS
370
50
 62
4
100
AcDbLine
 10
6.951496
 20
0.114601
 30
0.0
 11
6.954629
 21
0.115609
 31
0.0
  0
LINE
  5
879
330
1F
100
AcDbEntity
  8
1
  6
CONTINUOUS
370
50
 62
4
100
AcDbLine
 10
6.986115
 20
-0.189031
 30
0.0
 11
6.994174
 21
-0.186434
 31
0.0
  0
LINE
  5
87A
330
1F
100
AcDbEntity
  8
1
  6
CONTINUOUS
370
50
 62
4
100
AcDbLine
 10
7.259628999999999
 20
0.085062
 30
0.0
 11
7.262148
 21
0.085878
 31
0.0
  0
LINE
  5
87B
330
1F
100
AcDbEntity
  8
1
  6
CONTINUOUS
370
50
 62
4
100
AcDbLine
 10
7.065436
 20
0.154387
 30
0.0
 11
7.089233999999999
 21
0.162569
 31
0.0
  0
LINE
  5
87C
330
1F
100
AcDbEntity
  8
1
  6
CONTINUOUS
370
50
 62
4
100
AcDbLine
 10
7.262148
 20
0.085878
 30
0.0
 11
7.264587
 21
0.086729
 31
0.0
  0
LINE
  5
87D
330
1F
100
AcDbEntity
  8
1
  6
CONTINUOUS
370
50
 62
4
100
AcDbLine
 10
6.93891
 20
-0.158425
 30
0.0
 11
6.941598
 21
-0.157485
 31
0.0
  0
LINE
  5
87E
330
1F
100
AcDbEntity
  8
1
  6
CONTINUOUS
370
50
 62
4
100
AcDbLine
 10
6.948468
 20
0.113522
 30
0.0
 11
6.951496
 21
0.114601
 31
0.0
  0
LINE
  5
87F
330
1F
100
AcDbEntity
  8
1
  6
CONTINUOUS
370
50
 62
4
100
AcDbLine
 10
7.23489
 20
-0.187631
 30
0.0
 11
7.239768
 21
-0.185827
 31
0.0
  0
LINE
  5
880
330
1F
100
AcDbEntity
  8
1
  6
CONTINUOUS
370
50
 62
4
100
AcDbLine
 10
7.264587
 20
0.086729
 30
0.0
 11
7.266946
 21
0.087605
 31
0.0
  0
LINE
  5
881
330
1F
100
AcDbEntity
  8
1
  6
CONTINUOUS
370
50
 62
4
100
AcDbLine
 10
7.227182
 20
-0.176495
 30
0.0
 11
7.230488999999999
 21
-0.175255
 31
0.0
  0
LINE
  5
882
330
1F
100
AcDbEntity
  8
1
  6
CONTINUOUS
370
50
 62
4
100
AcDbLine
 10
6.936323
 20
-0.159412
 30
0.0
 11
6.93891
 21
-0.158425
 31
0.0
  0
LINE
  5
883
330
1F
100
AcDbEntity
  8
1
  6
CONTINUOUS
370
50
 62
4
100
AcDbLine
 10
6.994174
 20
-0.186434
 30
0.0
 11
7.002629
 21
-0.183176
 31
0.0
  0
LINE
  5
884
330
1F
100
AcDbEntity
  8
1
  6
CONTINUOUS
370
50
 62
4
100
AcDbLine
 10
7.280446
 20
-0.133482
 30
0.0
 11
7.281404999999999
 21
-0.13311
 31
0.0
  0
LINE
  5
885
330
1F
100
AcDbEntity
  8
1
  6
CONTINUOUS
370
50
 62
4
100
AcDbLine
 10
7.266946
 20
0.087605
 30
0.0
 11
7.269221
 21
0.088496
 31
0.0
  0
LINE
  5
886
330
1F
100
AcDbEntity
  8
1
  6
CONTINUOUS
370
50
 62
4
100
AcDbLine
 10
6.945551999999999
 20
0.112373
 30
0.0
 11
6.948468
 21
0.113522
 31
0.0
  0
LINE
  5
887
330
1F
100
AcDbEntity
  8
1
  6
CONTINUOUS
370
50
 62
4
100
AcDbLine
 10
7.269221
 20
0.088496
 30
0.0
 11
7.271409999999999
 21
0.089391
 31
0.0
  0
LINE
  5
888
330
1F
100
AcDbEntity
  8
1
  6
CONTINUOUS
370
50
 62
4
100
AcDbLine
 10
6.933815
 20
-0.160459
 30
0.0
 11
6.936323
 21
-0.159412
 31
0.0
  0
LINE
  5
889
330
1F
100
AcDbEntity
  8
1
  6
CONTINUOUS
370
50
 62
4
100
AcDbLine
 10
7.271409999999999
 20
0.089391
 30
0.0
 11
7.273511999999999
 21
0.090281
 31
0.0
  0
LINE
  5
88A
330
1F
100
AcDbEntity
  8
1
  6
CONTINUOUS
370
50
 62
4
100
AcDbLine
 10
7.002629
 20
-0.183176
 30
0.0
 11
7.011523
 21
-0.179324
 31
0.0
  0
LINE
  5
88B
330
1F
100
AcDbEntity
  8
1
  6
CONTINUOUS
370
50
 62
4
100
AcDbLine
 10
6.942754
 20
0.111155
 30
0.0
 11
6.945551999999999
 21
0.112373
 31
0.0
  0
LINE
  5
88C
330
1F
100
AcDbEntity
  8
1
  6
CONTINUOUS
370
50
 62
4
100
AcDbLine
 10
7.230488999999999
 20
-0.175255
 30
0.0
 11
7.233724
 21
-0.173829
 31
0.0
  0
LINE
  5
88D
330
1F
100
AcDbEntity
  8
1
  6
CONTINUOUS
370
50
 62
4
100
AcDbLine
 10
7.239768
 20
-0.185827
 30
0.0
 11
7.244543999999999
 21
-0.183689
 31
0.0
  0
LINE
  5
88E
330
1F
100
AcDbEntity
  8
1
  6
CONTINUOUS
370
50
 62
4
100
AcDbLine
 10
7.062335999999999
 20
-0.155553
 30
0.0
 11
7.064
 21
-0.154793
 31
0.0
  0
LINE
  5
88F
330
1F
100
AcDbEntity
  8
1
  6
CONTINUOUS
370
50
 62
4
100
AcDbLine
 10
7.060673
 20
-0.156314
 30
0.0
 11
7.062335999999999
 21
-0.155553
 31
0.0
  0
LINE
  5
890
330
1F
100
AcDbEntity
  8
1
  6
CONTINUOUS
370
50
 62
4
100
AcDbLine
 10
7.05889
 20
-0.157132
 30
0.0
 11
7.060673
 21
-0.156314
 31
0.0
  0
LINE
  5
891
330
1F
100
AcDbEntity
  8
1
  6
CONTINUOUS
370
50
 62
4
100
AcDbLine
 10
6.931413
 20
-0.161562
 30
0.0
 11
6.933815
 21
-0.160459
 31
0.0
  0
LINE
  5
892
330
1F
100
AcDbEntity
  8
1
  6
CONTINUOUS
370
50
 62
4
100
AcDbLine
 10
7.057348999999999
 20
-0.15784
 30
0.0
 11
7.05889
 21
-0.157132
 31
0.0
  0
LINE
  5
893
330
1F
100
AcDbEntity
  8
1
  6
CONTINUOUS
370
50
 62
4
100
AcDbLine
 10
7.056171
 20
-0.158382
 30
0.0
 11
7.057348999999999
 21
-0.15784
 31
0.0
  0
LINE
  5
894
330
1F
100
AcDbEntity
  8
1
  6
CONTINUOUS
370
50
 62
4
100
AcDbLine
 10
7.054993
 20
-0.158925
 30
0.0
 11
7.056171
 21
-0.158382
 31
0.0
  0
LINE
  5
895
330
1F
100
AcDbEntity
  8
1
  6
CONTINUOUS
370
50
 62
4
100
AcDbLine
 10
7.049272999999999
 20
-0.161571
 30
0.0
 11
7.054996
 21
-0.158923
 31
0.0
  0
LINE
  5
896
330
1F
100
AcDbEntity
  8
1
  6
CONTINUOUS
370
50
 62
4
100
AcDbLine
 10
7.043557
 20
-0.164231
 30
0.0
 11
7.049272999999999
 21
-0.161571
 31
0.0
  0
LINE
  5
897
330
1F
100
AcDbEntity
  8
1
  6
CONTINUOUS
370
50
 62
4
100
AcDbLine
 10
7.011523
 20
-0.179324
 30
0.0
 11
7.020765
 21
-0.175021
 31
0.0
  0
LINE
  5
898
330
1F
100
AcDbEntity
  8
1
  6
CONTINUOUS
370
50
 62
4
100
AcDbLine
 10
7.037847999999999
 20
-0.166905
 30
0.0
 11
7.043557
 21
-0.164231
 31
0.0
  0
LINE
  5
899
330
1F
100
AcDbEntity
  8
1
  6
CONTINUOUS
370
50
 62
4
100
AcDbLine
 10
7.032146
 20
-0.169592
 30
0.0
 11
7.037847999999999
 21
-0.166905
 31
0.0
  0
LINE
  5
89A
330
1F
100
AcDbEntity
  8
1
  6
CONTINUOUS
370
50
 62
4
100
AcDbLine
 10
7.026452
 20
-0.172293
 30
0.0
 11
7.032146
 21
-0.169592
 31
0.0
  0
LINE
  5
89B
330
1F
100
AcDbEntity
  8
1
  6
CONTINUOUS
370
50
 62
4
100
AcDbLine
 10
7.020765
 20
-0.175007
 30
0.0
 11
7.026452
 21
-0.172293
 31
0.0
  0
LINE
  5
89C
330
1F
100
AcDbEntity
  8
1
  6
CONTINUOUS
370
50
 62
4
100
AcDbLine
 10
6.94008
 20
0.109869
 30
0.0
 11
6.942754
 21
0.111155
 31
0.0
  0
LINE
  5
89D
330
1F
100
AcDbEntity
  8
1
  6
CONTINUOUS
370
50
 62
4
100
AcDbLine
 10
7.293207
 20
-0.000212
 30
0.0
 11
7.293642999999999
 21
0.000002
 31
0.0
  0
LINE
  5
89E
330
1F
100
AcDbEntity
  8
1
  6
CONTINUOUS
370
50
 62
4
100
AcDbLine
 10
7.29257
 20
-0.000529
 30
0.0
 11
7.293207
 21
-0.000212
 31
0.0
  0
LINE
  5
89F
330
1F
100
AcDbEntity
  8
1
  6
CONTINUOUS
370
50
 62
4
100
AcDbLine
 10
7.291751
 20
-0.000938
 30
0.0
 11
7.29257
 21
-0.000529
 31
0.0
  0
LINE
  5
8A0
330
1F
100
AcDbEntity
  8
1
  6
CONTINUOUS
370
50
 62
4
100
AcDbLine
 10
7.290772
 20
-0.001429
 30
0.0
 11
7.291751
 21
-0.000938
 31
0.0
  0
LINE
  5
8A1
330
1F
100
AcDbEntity
  8
1
  6
CONTINUOUS
370
50
 62
4
100
AcDbLine
 10
7.288412
 20
-0.002615
 30
0.0
 11
7.289651999999999
 21
-0.001992
 31
0.0
  0
LINE
  5
8A2
330
1F
100
AcDbEntity
  8
1
  6
CONTINUOUS
370
50
 62
4
100
AcDbLine
 10
7.289651999999999
 20
-0.001992
 30
0.0
 11
7.290772
 21
-0.001429
 31
0.0
  0
LINE
  5
8A3
330
1F
100
AcDbEntity
  8
1
  6
CONTINUOUS
370
50
 62
4
100
AcDbLine
 10
7.233724
 20
-0.173829
 30
0.0
 11
7.236885
 21
-0.172226
 31
0.0
  0
LINE
  5
8A4
330
1F
100
AcDbEntity
  8
1
  6
CONTINUOUS
370
50
 62
4
100
AcDbLine
 10
7.252663
 20
-0.020769
 30
0.0
 11
7.257625
 21
-0.01825
 31
0.0
  0
LINE
  5
8A5
330
1F
100
AcDbEntity
  8
1
  6
CONTINUOUS
370
50
 62
4
100
AcDbLine
 10
7.274975
 20
-0.009439
 30
0.0
 11
7.281517999999999
 21
-0.006117
 31
0.0
  0
LINE
  5
8A6
330
1F
100
AcDbEntity
  8
1
  6
CONTINUOUS
370
50
 62
4
100
AcDbLine
 10
7.26301
 20
-0.015515
 30
0.0
 11
7.2688
 21
-0.012575
 31
0.0
  0
LINE
  5
8A7
330
1F
100
AcDbEntity
  8
1
  6
CONTINUOUS
370
50
 62
4
100
AcDbLine
 10
7.2688
 20
-0.012575
 30
0.0
 11
7.274975
 21
-0.009439
 31
0.0
  0
LINE
  5
8A8
330
1F
100
AcDbEntity
  8
1
  6
CONTINUOUS
370
50
 62
4
100
AcDbLine
 10
7.257625
 20
-0.01825
 30
0.0
 11
7.26301
 21
-0.015515
 31
0.0
  0
LINE
  5
8A9
330
1F
100
AcDbEntity
  8
1
  6
CONTINUOUS
370
50
 62
4
100
AcDbLine
 10
7.281517999999999
 20
-0.006117
 30
0.0
 11
7.288409
 21
-0.002617
 31
0.0
  0
LINE
  5
8AA
330
1F
100
AcDbEntity
  8
1
  6
CONTINUOUS
370
50
 62
4
100
AcDbLine
 10
6.929138999999999
 20
-0.16272
 30
0.0
 11
6.931413
 21
-0.161562
 31
0.0
  0
LINE
  5
8AB
330
1F
100
AcDbEntity
  8
1
  6
CONTINUOUS
370
50
 62
4
100
AcDbLine
 10
7.244543999999999
 20
-0.183689
 30
0.0
 11
7.249201999999999
 21
-0.181219
 31
0.0
  0
LINE
  5
8AC
330
1F
100
AcDbEntity
  8
1
  6
CONTINUOUS
370
50
 62
4
100
AcDbLine
 10
6.937524
 20
0.108509
 30
0.0
 11
6.94008
 21
0.109869
 31
0.0
  0
LINE
  5
8AD
330
1F
100
AcDbEntity
  8
1
  6
CONTINUOUS
370
50
 62
4
100
AcDbLine
 10
7.281404999999999
 20
-0.13311
 30
0.0
 11
7.282335
 21
-0.132612
 31
0.0
  0
LINE
  5
8AE
330
1F
100
AcDbEntity
  8
1
  6
CONTINUOUS
370
50
 62
4
100
AcDbLine
 10
6.926836
 20
-0.164041
 30
0.0
 11
6.929138999999999
 21
-0.16272
 31
0.0
  0
LINE
  5
8AF
330
1F
100
AcDbEntity
  8
1
  6
CONTINUOUS
370
50
 62
4
100
AcDbLine
 10
7.236885
 20
-0.172226
 30
0.0
 11
7.239971
 21
-0.170454
 31
0.0
  0
LINE
  5
8B0
330
1F
100
AcDbEntity
  8
1
  6
CONTINUOUS
370
50
 62
4
100
AcDbLine
 10
6.93504
 20
0.107042
 30
0.0
 11
6.937524
 21
0.108509
 31
0.0
  0
LINE
  5
8B1
330
1F
100
AcDbEntity
  8
1
  6
CONTINUOUS
370
50
 62
4
100
AcDbLine
 10
7.249201999999999
 20
-0.181219
 30
0.0
 11
7.25373
 21
-0.178419
 31
0.0
  0
LINE
  5
8B2
330
1F
100
AcDbEntity
  8
1
  6
CONTINUOUS
370
50
 62
4
100
AcDbLine
 10
7.239971
 20
-0.170454
 30
0.0
 11
7.242982
 21
-0.168516
 31
0.0
  0
LINE
  5
8B3
330
1F
100
AcDbEntity
  8
1
  6
CONTINUOUS
370
50
 62
4
100
AcDbLine
 10
6.924748
 20
-0.165419
 30
0.0
 11
6.926836
 21
-0.164041
 31
0.0
  0
LINE
  5
8B4
330
1F
100
AcDbEntity
  8
1
  6
CONTINUOUS
370
50
 62
4
100
AcDbLine
 10
6.932645
 20
0.105461
 30
0.0
 11
6.93504
 21
0.107042
 31
0.0
  0
LINE
  5
8B5
330
1F
100
AcDbEntity
  8
1
  6
CONTINUOUS
370
50
 62
4
100
AcDbLine
 10
7.054488
 20
0.158818
 30
0.0
 11
7.054653999999999
 21
0.15893
 31
0.0
  0
LINE
  5
8B6
330
1F
100
AcDbEntity
  8
1
  6
CONTINUOUS
370
50
 62
4
100
AcDbLine
 10
7.054489999999999
 20
0.158813
 30
0.0
 11
7.054657
 21
0.158927
 31
0.0
  0
LINE
  5
8B7
330
1F
100
AcDbEntity
  8
1
  6
CONTINUOUS
370
50
 62
4
100
AcDbLine
 10
7.282335
 20
-0.132612
 30
0.0
 11
7.283249
 21
-0.131969
 31
0.0
  0
LINE
  5
8B8
330
1F
100
AcDbEntity
  8
1
  6
CONTINUOUS
370
50
 62
4
100
AcDbLine
 10
7.25373
 20
-0.178419
 30
0.0
 11
7.258116999999999
 21
-0.17529
 31
0.0
  0
LINE
  5
8B9
330
1F
100
AcDbEntity
  8
1
  6
CONTINUOUS
370
50
 62
4
100
AcDbLine
 10
7.242982
 20
-0.168516
 30
0.0
 11
7.245928999999999
 21
-0.16641
 31
0.0
  0
LINE
  5
8BA
330
1F
100
AcDbEntity
  8
1
  6
CONTINUOUS
370
50
 62
4
100
AcDbLine
 10
6.930361
 20
0.103762
 30
0.0
 11
6.932645
 21
0.105461
 31
0.0
  0
LINE
  5
8BB
330
1F
100
AcDbEntity
  8
1
  6
CONTINUOUS
370
50
 62
4
100
AcDbLine
 10
6.922914
 20
-0.166846
 30
0.0
 11
6.924748
 21
-0.165419
 31
0.0
  0
LINE
  5
8BC
330
1F
100
AcDbEntity
  8
1
  6
CONTINUOUS
370
50
 62
4
100
AcDbLine
 10
7.245928999999999
 20
-0.16641
 30
0.0
 11
7.248809
 21
-0.16414
 31
0.0
  0
LINE
  5
8BD
330
1F
100
AcDbEntity
  8
1
  6
CONTINUOUS
370
50
 62
4
100
AcDbLine
 10
7.258116999999999
 20
-0.17529
 30
0.0
 11
7.262347
 21
-0.171834
 31
0.0
  0
LINE
  5
8BE
330
1F
100
AcDbEntity
  8
1
  6
CONTINUOUS
370
50
 62
4
100
AcDbLine
 10
7.054991999999999
 20
-0.158925
 30
0.0
 11
7.055295
 21
-0.15867
 31
0.0
  0
LINE
  5
8BF
330
1F
100
AcDbEntity
  8
1
  6
CONTINUOUS
370
50
 62
4
100
AcDbLine
 10
7.054996
 20
-0.158923
 30
0.0
 11
7.055299
 21
-0.158668
 31
0.0
  0
LINE
  5
8C0
330
1F
100
AcDbEntity
  8
1
  6
CONTINUOUS
370
50
 62
4
100
AcDbLine
 10
6.92821
 20
0.101943
 30
0.0
 11
6.930361
 21
0.103762
 31
0.0
  0
LINE
  5
8C1
330
1F
100
AcDbEntity
  8
1
  6
CONTINUOUS
370
50
 62
4
100
AcDbLine
 10
7.270455
 20
-0.030051
 30
0.0
 11
7.274877999999999
 21
-0.026277
 31
0.0
  0
LINE
  5
8C2
330
1F
100
AcDbEntity
  8
1
  6
CONTINUOUS
370
50
 62
4
100
AcDbLine
 10
7.248809
 20
-0.16414
 30
0.0
 11
7.251621999999999
 21
-0.161706
 31
0.0
  0
LINE
  5
8C3
330
1F
100
AcDbEntity
  8
1
  6
CONTINUOUS
370
50
 62
4
100
AcDbLine
 10
7.283249
 20
-0.131969
 30
0.0
 11
7.284186
 21
-0.13115
 31
0.0
  0
LINE
  5
8C4
330
1F
100
AcDbEntity
  8
1
  6
CONTINUOUS
370
50
 62
4
100
AcDbLine
 10
7.262347
 20
-0.171834
 30
0.0
 11
7.266387
 21
-0.168074
 31
0.0
  0
LINE
  5
8C5
330
1F
100
AcDbEntity
  8
1
  6
CONTINUOUS
370
50
 62
4
100
AcDbLine
 10
7.251621999999999
 20
-0.161706
 30
0.0
 11
7.254364
 21
-0.159112
 31
0.0
  0
LINE
  5
8C6
330
1F
100
AcDbEntity
  8
1
  6
CONTINUOUS
370
50
 62
4
100
AcDbLine
 10
6.921368999999999
 20
-0.168315
 30
0.0
 11
6.922914
 21
-0.166846
 31
0.0
  0
LINE
  5
8C7
330
1F
100
AcDbEntity
  8
1
  6
CONTINUOUS
370
50
 62
4
100
AcDbLine
 10
6.926215
 20
0.1
 30
0.0
 11
6.92821
 21
0.101943
 31
0.0
  0
LINE
  5
8C8
330
1F
100
AcDbEntity
  8
1
  6
CONTINUOUS
370
50
 62
4
100
AcDbLine
 10
7.254364
 20
-0.159112
 30
0.0
 11
7.257033
 21
-0.15636
 31
0.0
  0
LINE
  5
8C9
330
1F
100
AcDbEntity
  8
1
  6
CONTINUOUS
370
50
 62
4
100
AcDbLine
 10
7.284186
 20
-0.13115
 30
0.0
 11
7.285132
 21
-0.130162
 31
0.0
  0
LINE
  5
8CA
330
1F
100
AcDbEntity
  8
1
  6
CONTINUOUS
370
50
 62
4
100
AcDbLine
 10
7.266387
 20
-0.168074
 30
0.0
 11
7.270213
 21
-0.164025
 31
0.0
  0
LINE
  5
8CB
330
1F
100
AcDbEntity
  8
1
  6
CONTINUOUS
370
50
 62
4
100
AcDbLine
 10
7.27087
 20
-0.048096
 30
0.0
 11
7.270887999999999
 21
-0.048076
 31
0.0
  0
LINE
  5
8CC
330
1F
100
AcDbEntity
  8
1
  6
CONTINUOUS
370
50
 62
4
100
AcDbLine
 10
7.270897
 20
-0.048065
 30
0.0
 11
7.270915
 21
-0.048045
 31
0.0
  0
LINE
  5
8CD
330
1F
100
AcDbEntity
  8
1
  6
CONTINUOUS
370
50
 62
4
100
AcDbLine
 10
7.257033
 20
-0.15636
 30
0.0
 11
7.259628999999999
 21
-0.153452
 31
0.0
  0
LINE
  5
8CE
330
1F
100
AcDbEntity
  8
1
  6
CONTINUOUS
370
50
 62
4
100
AcDbLine
 10
6.924401
 20
0.09793
 30
0.0
 11
6.926215
 21
0.1
 31
0.0
  0
LINE
  5
8CF
330
1F
100
AcDbEntity
  8
1
  6
CONTINUOUS
370
50
 62
4
100
AcDbLine
 10
7.054323
 20
0.158629
 30
0.0
 11
7.054488
 21
0.158818
 31
0.0
  0
LINE
  5
8D0
330
1F
100
AcDbEntity
  8
1
  6
CONTINUOUS
370
50
 62
4
100
AcDbLine
 10
7.054323999999999
 20
0.158622
 30
0.0
 11
7.054489999999999
 21
0.158813
 31
0.0
  0
LINE
  5
8D1
330
1F
100
AcDbEntity
  8
1
  6
CONTINUOUS
370
50
 62
4
100
AcDbLine
 10
7.270213
 20
-0.164025
 30
0.0
 11
7.273814
 21
-0.159696
 31
0.0
  0
LINE
  5
8D2
330
1F
100
AcDbEntity
  8
1
  6
CONTINUOUS
370
50
 62
4
100
AcDbLine
 10
7.259628999999999
 20
-0.153452
 30
0.0
 11
7.262148
 21
-0.150391
 31
0.0
  0
LINE
  5
8D3
330
1F
100
AcDbEntity
  8
1
  6
CONTINUOUS
370
50
 62
4
100
AcDbLine
 10
7.285132
 20
-0.130162
 30
0.0
 11
7.286072
 21
-0.129016
 31
0.0
  0
LINE
  5
8D4
330
1F
100
AcDbEntity
  8
1
  6
CONTINUOUS
370
50
 62
4
100
AcDbLine
 10
7.270887999999999
 20
-0.048076
 30
0.0
 11
7.270897
 21
-0.048065
 31
0.0
  0
LINE
  5
8D5
330
1F
100
AcDbEntity
  8
1
  6
CONTINUOUS
370
50
 62
4
100
AcDbLine
 10
7.270915
 20
-0.048045
 30
0.0
 11
7.270924
 21
-0.048034
 31
0.0
  0
LINE
  5
8D6
330
1F
100
AcDbEntity
  8
1
  6
CONTINUOUS
370
50
 62
4
100
AcDbLine
 10
6.920148999999999
 20
-0.169817
 30
0.0
 11
6.921368999999999
 21
-0.168315
 31
0.0
  0
LINE
  5
8D7
330
1F
100
AcDbEntity
  8
1
  6
CONTINUOUS
370
50
 62
4
100
AcDbLine
 10
7.262148
 20
-0.150391
 30
0.0
 11
7.264587
 21
-0.14718
 31
0.0
  0
LINE
  5
8D8
330
1F
100
AcDbEntity
  8
1
  6
CONTINUOUS
370
50
 62
4
100
AcDbLine
 10
6.922793
 20
0.095733
 30
0.0
 11
6.924401
 21
0.09793
 31
0.0
  0
LINE
  5
8D9
330
1F
100
AcDbEntity
  8
1
  6
CONTINUOUS
370
50
 62
4
100
AcDbLine
 10
7.273814
 20
-0.159696
 30
0.0
 11
7.277176
 21
-0.155095
 31
0.0
  0
LINE
  5
8DA
330
1F
100
AcDbEntity
  8
1
  6
CONTINUOUS
370
50
 62
4
100
AcDbLine
 10
7.286072
 20
-0.129016
 30
0.0
 11
7.286991
 21
-0.127723
 31
0.0
  0
LINE
  5
8DB
330
1F
100
AcDbEntity
  8
1
  6
CONTINUOUS
370
50
 62
4
100
AcDbLine
 10
7.264587
 20
-0.14718
 30
0.0
 11
7.266946
 21
-0.143821
 31
0.0
  0
LINE
  5
8DC
330
1F
100
AcDbEntity
  8
1
  6
CONTINUOUS
370
50
 62
4
100
AcDbLine
 10
7.266946
 20
-0.143821
 30
0.0
 11
7.269221
 21
-0.140316
 31
0.0
  0
LINE
  5
8DD
330
1F
100
AcDbEntity
  8
1
  6
CONTINUOUS
370
50
 62
4
100
AcDbLine
 10
7.277176
 20
-0.155095
 30
0.0
 11
7.280287
 21
-0.150231
 31
0.0
  0
LINE
  5
8DE
330
1F
100
AcDbEntity
  8
1
  6
CONTINUOUS
370
50
 62
4
100
AcDbLine
 10
7.055295
 20
-0.15867
 30
0.0
 11
7.055601999999999
 21
-0.158182
 31
0.0
  0
LINE
  5
8DF
330
1F
100
AcDbEntity
  8
1
  6
CONTINUOUS
370
50
 62
4
100
AcDbLine
 10
7.055299
 20
-0.158668
 30
0.0
 11
7.055606999999999
 21
-0.158177
 31
0.0
  0
LINE
  5
8E0
330
1F
100
AcDbEntity
  8
1
  6
CONTINUOUS
370
50
 62
4
100
AcDbLine
 10
7.286991
 20
-0.127723
 30
0.0
 11
7.287872999999999
 21
-0.126291
 31
0.0
  0
LINE
  5
8E1
330
1F
100
AcDbEntity
  8
1
  6
CONTINUOUS
370
50
 62
4
100
AcDbLine
 10
7.054161
 20
0.158363
 30
0.0
 11
7.054323
 21
0.158629
 31
0.0
  0
LINE
  5
8E2
330
1F
100
AcDbEntity
  8
1
  6
CONTINUOUS
370
50
 62
4
100
AcDbLine
 10
7.054161
 20
0.158353
 30
0.0
 11
7.054323999999999
 21
0.158622
 31
0.0
  0
LINE
  5
8E3
330
1F
100
AcDbEntity
  8
1
  6
CONTINUOUS
370
50
 62
4
100
AcDbLine
 10
7.269221
 20
-0.140316
 30
0.0
 11
7.271409999999999
 21
-0.136667
 31
0.0
  0
LINE
  5
8E4
330
1F
100
AcDbEntity
  8
1
  6
CONTINUOUS
370
50
 62
4
100
AcDbLine
 10
6.921418
 20
0.093408
 30
0.0
 11
6.922793
 21
0.095733
 31
0.0
  0
LINE
  5
8E5
330
1F
100
AcDbEntity
  8
1
  6
CONTINUOUS
370
50
 62
4
100
AcDbLine
 10
7.280287
 20
-0.150231
 30
0.0
 11
7.281733999999999
 21
-0.147722
 31
0.0
  0
LINE
  5
8E6
330
1F
100
AcDbEntity
  8
1
  6
CONTINUOUS
370
50
 62
4
100
AcDbLine
 10
6.919302999999999
 20
-0.171319
 30
0.0
 11
6.920148999999999
 21
-0.169817
 31
0.0
  0
LINE
  5
8E7
330
1F
100
AcDbEntity
  8
1
  6
CONTINUOUS
370
50
 62
4
100
AcDbLine
 10
7.271409999999999
 20
-0.136667
 30
0.0
 11
7.273511999999999
 21
-0.132876
 31
0.0
  0
LINE
  5
8E8
330
1F
100
AcDbEntity
  8
1
  6
CONTINUOUS
370
50
 62
4
100
AcDbLine
 10
7.281733999999999
 20
-0.147722
 30
0.0
 11
7.283081999999999
 21
-0.145219
 31
0.0
  0
LINE
  5
8E9
330
1F
100
AcDbEntity
  8
1
  6
CONTINUOUS
370
50
 62
4
100
AcDbLine
 10
7.287872999999999
 20
-0.126291
 30
0.0
 11
7.288703
 21
-0.124732
 31
0.0
  0
LINE
  5
8EA
330
1F
100
AcDbEntity
  8
1
  6
CONTINUOUS
370
50
 62
4
100
AcDbLine
 10
7.283081999999999
 20
-0.145219
 30
0.0
 11
7.284331
 21
-0.142728
 31
0.0
  0
LINE
  5
8EB
330
1F
100
AcDbEntity
  8
1
  6
CONTINUOUS
370
50
 62
4
100
AcDbLine
 10
7.053999999999999
 20
0.15802
 30
0.0
 11
7.054161
 21
0.158363
 31
0.0
  0
LINE
  5
8EC
330
1F
100
AcDbEntity
  8
1
  6
CONTINUOUS
370
50
 62
4
100
AcDbLine
 10
7.284331
 20
-0.142728
 30
0.0
 11
7.285486
 21
-0.14025
 31
0.0
  0
LINE
  5
8ED
330
1F
100
AcDbEntity
  8
1
  6
CONTINUOUS
370
50
 62
4
100
AcDbLine
 10
7.053999999999999
 20
0.158007
 30
0.0
 11
7.054161
 21
0.158353
 31
0.0
  0
LINE
  5
8EE
330
1F
100
AcDbEntity
  8
1
  6
CONTINUOUS
370
50
 62
4
100
AcDbLine
 10
7.218605999999999
 20
-0.0171
 30
0.0
 11
7.219932999999999
 21
-0.014247
 31
0.0
  0
LINE
  5
8EF
330
1F
100
AcDbEntity
  8
1
  6
CONTINUOUS
370
50
 62
4
100
AcDbLine
 10
6.920300999999999
 20
0.090952
 30
0.0
 11
6.921418
 21
0.093408
 31
0.0
  0
LINE
  5
8F0
330
1F
100
AcDbEntity
  8
1
  6
CONTINUOUS
370
50
 62
4
100
AcDbLine
 10
7.288703
 20
-0.124732
 30
0.0
 11
7.289479
 21
-0.123025
 31
0.0
  0
LINE
  5
8F1
330
1F
100
AcDbEntity
  8
1
  6
CONTINUOUS
370
50
 62
4
100
AcDbLine
 10
7.055606999999999
 20
-0.158177
 30
0.0
 11
7.055922
 21
-0.157453
 31
0.0
  0
LINE
  5
8F2
330
1F
100
AcDbEntity
  8
1
  6
CONTINUOUS
370
50
 62
4
100
AcDbLine
 10
7.055601999999999
 20
-0.158182
 30
0.0
 11
7.055916
 21
-0.157459
 31
0.0
  0
LINE
  5
8F3
330
1F
100
AcDbEntity
  8
1
  6
CONTINUOUS
370
50
 62
4
100
AcDbLine
 10
7.285486
 20
-0.14025
 30
0.0
 11
7.286549
 21
-0.137789
 31
0.0
  0
LINE
  5
8F4
330
1F
100
AcDbEntity
  8
1
  6
CONTINUOUS
370
50
 62
4
100
AcDbLine
 10
7.219932999999999
 20
-0.014247
 30
0.0
 11
7.221139
 21
-0.011357
 31
0.0
  0
LINE
  5
8F5
330
1F
100
AcDbEntity
  8
1
  6
CONTINUOUS
370
50
 62
4
100
AcDbLine
 10
7.286549
 20
-0.137789
 30
0.0
 11
7.287522999999999
 21
-0.135349
 31
0.0
  0
LINE
  5
8F6
330
1F
100
AcDbEntity
  8
1
  6
CONTINUOUS
370
50
 62
4
100
AcDbLine
 10
7.289479
 20
-0.123025
 30
0.0
 11
7.290254999999999
 21
-0.12103
 31
0.0
  0
LINE
  5
8F7
330
1F
100
AcDbEntity
  8
1
  6
CONTINUOUS
370
50
 62
4
100
AcDbLine
 10
7.221139
 20
-0.011357
 30
0.0
 11
7.222218
 21
-0.008448
 31
0.0
  0
LINE
  5
8F8
330
1F
100
AcDbEntity
  8
1
  6
CONTINUOUS
370
50
 62
4
100
AcDbLine
 10
7.287522999999999
 20
-0.135349
 30
0.0
 11
7.288412
 21
-0.132933
 31
0.0
  0
LINE
  5
8F9
330
1F
100
AcDbEntity
  8
1
  6
CONTINUOUS
370
50
 62
4
100
AcDbLine
 10
7.290254999999999
 20
-0.12103
 30
0.0
 11
7.290997
 21
-0.118829
 31
0.0
  0
LINE
  5
8FA
330
1F
100
AcDbEntity
  8
1
  6
CONTINUOUS
370
50
 62
4
100
AcDbLine
 10
7.055916
 20
-0.157459
 30
0.0
 11
7.056235
 21
-0.156504
 31
0.0
  0
LINE
  5
8FB
330
1F
100
AcDbEntity
  8
1
  6
CONTINUOUS
370
50
 62
4
100
AcDbLine
 10
7.055922
 20
-0.157453
 30
0.0
 11
7.056241
 21
-0.156497
 31
0.0
  0
LINE
  5
8FC
330
1F
100
AcDbEntity
  8
1
  6
CONTINUOUS
370
50
 62
4
100
AcDbLine
 10
7.282169
 20
-0.063639
 30
0.0
 11
7.294
 21
-0.027227
 31
0.0
  0
LINE
  5
8FD
330
1F
100
AcDbEntity
  8
1
  6
CONTINUOUS
370
50
 62
4
100
AcDbLine
 10
7.222218
 20
-0.008448
 30
0.0
 11
7.223155999999999
 21
-0.005556
 31
0.0
  0
LINE
  5
8FE
330
1F
100
AcDbEntity
  8
1
  6
CONTINUOUS
370
50
 62
4
100
AcDbLine
 10
7.288412
 20
-0.132934
 30
0.0
 11
7.289656
 21
-0.129084
 31
0.0
  0
LINE
  5
8FF
330
1F
100
AcDbEntity
  8
1
  6
CONTINUOUS
370
50
 62
4
100
AcDbLine
 10
6.919478
 20
0.0884
 30
0.0
 11
6.920300999999999
 21
0.090952
 31
0.0
  0
LINE
  5
900
330
1F
100
AcDbEntity
  8
1
  6
CONTINUOUS
370
50
 62
4
100
AcDbLine
 10
6.918849
 20
-0.172797
 30
0.0
 11
6.919302999999999
 21
-0.171319
 31
0.0
  0
LINE
  5
901
330
1F
100
AcDbEntity
  8
1
  6
CONTINUOUS
370
50
 62
4
100
AcDbLine
 10
7.290997
 20
-0.118829
 30
0.0
 11
7.291656
 21
-0.116539
 31
0.0
  0
LINE
  5
902
330
1F
100
AcDbEntity
  8
1
  6
CONTINUOUS
370
50
 62
4
100
AcDbLine
 10
7.223155999999999
 20
-0.005556
 30
0.0
 11
7.223954999999999
 21
-0.002692
 31
0.0
  0
LINE
  5
903
330
1F
100
AcDbEntity
  8
1
  6
CONTINUOUS
370
50
 62
4
100
AcDbLine
 10
7.289656
 20
-0.129084
 30
0.0
 11
7.290779
 21
-0.125014
 31
0.0
  0
LINE
  5
904
330
1F
100
AcDbEntity
  8
1
  6
CONTINUOUS
370
50
 62
4
100
AcDbLine
 10
7.056235
 20
-0.156504
 30
0.0
 11
7.056559999999999
 21
-0.155317
 31
0.0
  0
LINE
  5
905
330
1F
100
AcDbEntity
  8
1
  6
CONTINUOUS
370
50
 62
4
100
AcDbLine
 10
7.056241
 20
-0.156497
 30
0.0
 11
7.056564
 21
-0.155313
 31
0.0
  0
LINE
  5
906
330
1F
100
AcDbEntity
  8
1
  6
CONTINUOUS
370
50
 62
4
100
AcDbLine
 10
7.291656
 20
-0.116539
 30
0.0
 11
7.292241
 21
-0.11407
 31
0.0
  0
LINE
  5
907
330
1F
100
AcDbEntity
  8
1
  6
CONTINUOUS
370
50
 62
4
100
AcDbLine
 10
7.223954999999999
 20
-0.002692
 30
0.0
 11
7.224616999999999
 21
0.000137
 31
0.0
  0
LINE
  5
908
330
1F
100
AcDbEntity
  8
1
  6
CONTINUOUS
370
50
 62
4
100
AcDbLine
 10
7.290779
 20
-0.125014
 30
0.0
 11
7.29176
 21
-0.120816
 31
0.0
  0
LINE
  5
909
330
1F
100
AcDbEntity
  8
1
  6
CONTINUOUS
370
50
 62
4
100
AcDbLine
 10
7.056559999999999
 20
-0.155317
 30
0.0
 11
7.056889
 21
-0.153902
 31
0.0
  0
LINE
  5
90A
330
1F
100
AcDbEntity
  8
1
  6
CONTINUOUS
370
50
 62
4
100
AcDbLine
 10
7.056564
 20
-0.155313
 30
0.0
 11
7.056891999999999
 21
-0.153902
 31
0.0
  0
LINE
  5
90B
330
1F
100
AcDbEntity
  8
1
  6
CONTINUOUS
370
50
 62
4
100
AcDbLine
 10
6.918965999999999
 20
0.085785
 30
0.0
 11
6.919478
 21
0.0884
 31
0.0
  0
LINE
  5
90C
330
1F
100
AcDbEntity
  8
1
  6
CONTINUOUS
370
50
 62
4
100
AcDbLine
 10
7.292241
 20
-0.11407
 30
0.0
 11
7.292777999999999
 21
-0.111316
 31
0.0
  0
LINE
  5
90D
330
1F
100
AcDbEntity
  8
1
  6
CONTINUOUS
370
50
 62
4
100
AcDbLine
 10
7.29176
 20
-0.120816
 30
0.0
 11
7.292579
 21
-0.116581
 31
0.0
  0
LINE
  5
90E
330
1F
100
AcDbEntity
  8
1
  6
CONTINUOUS
370
50
 62
4
100
AcDbLine
 10
7.224616999999999
 20
0.000137
 30
0.0
 11
7.225142
 21
0.002924
 31
0.0
  0
LINE
  5
90F
330
1F
100
AcDbEntity
  8
1
  6
CONTINUOUS
370
50
 62
4
100
AcDbLine
 10
7.292777999999999
 20
-0.111316
 30
0.0
 11
7.293219
 21
-0.108503
 31
0.0
  0
LINE
  5
910
330
1F
100
AcDbEntity
  8
1
  6
CONTINUOUS
370
50
 62
4
100
AcDbLine
 10
7.292579
 20
-0.116581
 30
0.0
 11
7.293215999999999
 21
-0.112401
 31
0.0
  0
LINE
  5
911
330
1F
100
AcDbEntity
  8
1
  6
CONTINUOUS
370
50
 62
4
100
AcDbLine
 10
7.225142
 20
0.002924
 30
0.0
 11
7.225533
 21
0.005662
 31
0.0
  0
LINE
  5
912
330
1F
100
AcDbEntity
  8
1
  6
CONTINUOUS
370
50
 62
4
100
AcDbLine
 10
7.293219
 20
-0.108503
 30
0.0
 11
7.293552999999999
 21
-0.105588
 31
0.0
  0
LINE
  5
913
330
1F
100
AcDbEntity
  8
1
  6
CONTINUOUS
370
50
 62
4
100
AcDbLine
 10
7.293215999999999
 20
-0.112401
 30
0.0
 11
7.293648999999999
 21
-0.108366
 31
0.0
  0
LINE
  5
914
330
1F
100
AcDbEntity
  8
1
  6
CONTINUOUS
370
50
 62
4
100
AcDbLine
 10
7.225533
 20
0.005662
 30
0.0
 11
7.225791
 21
0.008327
 31
0.0
  0
LINE
  5
915
330
1F
100
AcDbEntity
  8
1
  6
CONTINUOUS
370
50
 62
4
100
AcDbLine
 10
7.061876
 20
0.013733
 30
0.0
 11
7.062062
 21
0.01588
 31
0.0
  0
LINE
  5
916
330
1F
100
AcDbEntity
  8
1
  6
CONTINUOUS
370
50
 62
4
100
AcDbLine
 10
7.061877
 20
0.013731
 30
0.0
 11
7.062062999999999
 21
0.01588
 31
0.0
  0
LINE
  5
917
330
1F
100
AcDbEntity
  8
1
  6
CONTINUOUS
370
50
 62
4
100
AcDbLine
 10
7.061688999999999
 20
0.011545
 30
0.0
 11
7.061876
 21
0.013733
 31
0.0
  0
LINE
  5
918
330
1F
100
AcDbEntity
  8
1
  6
CONTINUOUS
370
50
 62
4
100
AcDbLine
 10
7.06169
 20
0.011542
 30
0.0
 11
7.061877
 21
0.013731
 31
0.0
  0
LINE
  5
919
330
1F
100
AcDbEntity
  8
1
  6
CONTINUOUS
370
50
 62
4
100
AcDbLine
 10
7.061503
 20
0.009316
 30
0.0
 11
7.061688999999999
 21
0.011545
 31
0.0
  0
LINE
  5
91A
330
1F
100
AcDbEntity
  8
1
  6
CONTINUOUS
370
50
 62
4
100
AcDbLine
 10
7.061503999999999
 20
0.009312
 30
0.0
 11
7.06169
 21
0.011542
 31
0.0
  0
LINE
  5
91B
330
1F
100
AcDbEntity
  8
1
  6
CONTINUOUS
370
50
 62
4
100
AcDbLine
 10
7.061317
 20
0.007042
 30
0.0
 11
7.061503999999999
 21
0.009312
 31
0.0
  0
LINE
  5
91C
330
1F
100
AcDbEntity
  8
1
  6
CONTINUOUS
370
50
 62
4
100
AcDbLine
 10
7.061316
 20
0.007046
 30
0.0
 11
7.061503
 21
0.009316
 31
0.0
  0
LINE
  5
91D
330
1F
100
AcDbEntity
  8
1
  6
CONTINUOUS
370
50
 62
4
100
AcDbLine
 10
7.061128999999999
 20
0.004736
 30
0.0
 11
7.061316
 21
0.007046
 31
0.0
  0
LINE
  5
91E
330
1F
100
AcDbEntity
  8
1
  6
CONTINUOUS
370
50
 62
4
100
AcDbLine
 10
7.225753
 20
0.11149
 30
0.0
 11
7.225912999999999
 21
0.113468
 31
0.0
  0
LINE
  5
91F
330
1F
100
AcDbEntity
  8
1
  6
CONTINUOUS
370
50
 62
4
100
AcDbLine
 10
7.061131
 20
0.004733
 30
0.0
 11
7.061317
 21
0.007042
 31
0.0
  0
LINE
  5
920
330
1F
100
AcDbEntity
  8
1
  6
CONTINUOUS
370
50
 62
4
100
AcDbLine
 10
7.293552999999999
 20
-0.105588
 30
0.0
 11
7.293805
 21
-0.102438
 31
0.0
  0
LINE
  5
921
330
1F
100
AcDbEntity
  8
1
  6
CONTINUOUS
370
50
 62
4
100
AcDbLine
 10
7.060944
 20
0.002386
 30
0.0
 11
7.061131
 21
0.004733
 31
0.0
  0
LINE
  5
922
330
1F
100
AcDbEntity
  8
1
  6
CONTINUOUS
370
50
 62
4
100
AcDbLine
 10
7.060942
 20
0.002388
 30
0.0
 11
7.061128999999999
 21
0.004736
 31
0.0
  0
LINE
  5
923
330
1F
100
AcDbEntity
  8
1
  6
CONTINUOUS
370
50
 62
4
100
AcDbLine
 10
7.060754999999999
 20
0.0
 30
0.0
 11
7.060942
 21
0.002388
 31
0.0
  0
LINE
  5
924
330
1F
100
AcDbEntity
  8
1
  6
CONTINUOUS
370
50
 62
4
100
AcDbLine
 10
7.060758
 20
0.0
 30
0.0
 11
7.060944
 21
0.002386
 31
0.0
  0
LINE
  5
925
330
1F
100
AcDbEntity
  8
1
  6
CONTINUOUS
370
50
 62
4
100
AcDbLine
 10
7.060371
 20
-0.005062
 30
0.0
 11
7.060758
 21
0.0
 31
0.0
  0
LINE
  5
926
330
1F
100
AcDbEntity
  8
1
  6
CONTINUOUS
370
50
 62
4
100
AcDbLine
 10
7.060264999999999
 20
-0.006445
 30
0.0
 11
7.060754999999999
 21
0.0
 31
0.0
  0
LINE
  5
927
330
1F
100
AcDbEntity
  8
1
  6
CONTINUOUS
370
50
 62
4
100
AcDbLine
 10
7.059984999999999
 20
-0.010279
 30
0.0
 11
7.060371
 21
-0.005062
 31
0.0
  0
LINE
  5
928
330
1F
100
AcDbEntity
  8
1
  6
CONTINUOUS
370
50
 62
4
100
AcDbLine
 10
6.918768999999999
 20
0.083113
 30
0.0
 11
6.918965999999999
 21
0.085785
 31
0.0
  0
LINE
  5
929
330
1F
100
AcDbEntity
  8
1
  6
CONTINUOUS
370
50
 62
4
100
AcDbLine
 10
7.059774999999999
 20
-0.013142
 30
0.0
 11
7.060264999999999
 21
-0.006445
 31
0.0
  0
LINE
  5
92A
330
1F
100
AcDbEntity
  8
1
  6
CONTINUOUS
370
50
 62
4
100
AcDbLine
 10
7.0596
 20
-0.015645
 30
0.0
 11
7.059984999999999
 21
-0.010279
 31
0.0
  0
LINE
  5
92B
330
1F
100
AcDbEntity
  8
1
  6
CONTINUOUS
370
50
 62
4
100
AcDbLine
 10
7.059288
 20
-0.02008
 30
0.0
 11
7.059774999999999
 21
-0.013142
 31
0.0
  0
LINE
  5
92C
330
1F
100
AcDbEntity
  8
1
  6
CONTINUOUS
370
50
 62
4
100
AcDbLine
 10
7.059216999999999
 20
-0.021155
 30
0.0
 11
7.0596
 21
-0.015645
 31
0.0
  0
LINE
  5
92D
330
1F
100
AcDbEntity
  8
1
  6
CONTINUOUS
370
50
 62
4
100
AcDbLine
 10
7.058805
 20
-0.027239
 30
0.0
 11
7.059288
 21
-0.02008
 31
0.0
  0
LINE
  5
92E
330
1F
100
AcDbEntity
  8
1
  6
CONTINUOUS
370
50
 62
4
100
AcDbLine
 10
7.058835999999999
 20
-0.026803
 30
0.0
 11
7.059216999999999
 21
-0.021155
 31
0.0
  0
LINE
  5
92F
330
1F
100
AcDbEntity
  8
1
  6
CONTINUOUS
370
50
 62
4
100
AcDbLine
 10
7.058458
 20
-0.032583
 30
0.0
 11
7.058835999999999
 21
-0.026803
 31
0.0
  0
LINE
  5
930
330
1F
100
AcDbEntity
  8
1
  6
CONTINUOUS
370
50
 62
4
100
AcDbLine
 10
7.058326999999999
 20
-0.034583
 30
0.0
 11
7.058805
 21
-0.027239
 31
0.0
  0
LINE
  5
931
330
1F
100
AcDbEntity
  8
1
  6
CONTINUOUS
370
50
 62
4
100
AcDbLine
 10
7.062062
 20
0.01588
 30
0.0
 11
7.062208
 21
0.018179
 31
0.0
  0
LINE
  5
932
330
1F
100
AcDbEntity
  8
1
  6
CONTINUOUS
370
50
 62
4
100
AcDbLine
 10
7.058084
 20
-0.038485
 30
0.0
 11
7.058458
 21
-0.032583
 31
0.0
  0
LINE
  5
933
330
1F
100
AcDbEntity
  8
1
  6
CONTINUOUS
370
50
 62
4
100
AcDbLine
 10
7.057855999999999
 20
-0.042096
 30
0.0
 11
7.058326999999999
 21
-0.034583
 31
0.0
  0
LINE
  5
934
330
1F
100
AcDbEntity
  8
1
  6
CONTINUOUS
370
50
 62
4
100
AcDbLine
 10
7.062062999999999
 20
0.01588
 30
0.0
 11
7.062228999999999
 21
0.01853
 31
0.0
  0
LINE
  5
935
330
1F
100
AcDbEntity
  8
1
  6
CONTINUOUS
370
50
 62
4
100
AcDbLine
 10
7.057713
 20
-0.044483
 30
0.0
 11
7.058084
 21
-0.038485
 31
0.0
  0
LINE
  5
936
330
1F
100
AcDbEntity
  8
1
  6
CONTINUOUS
370
50
 62
4
100
AcDbLine
 10
7.057392
 20
-0.049763
 30
0.0
 11
7.057855999999999
 21
-0.042096
 31
0.0
  0
LINE
  5
937
330
1F
100
AcDbEntity
  8
1
  6
CONTINUOUS
370
50
 62
4
100
AcDbLine
 10
7.057347
 20
-0.050569
 30
0.0
 11
7.057713
 21
-0.044483
 31
0.0
  0
LINE
  5
938
330
1F
100
AcDbEntity
  8
1
  6
CONTINUOUS
370
50
 62
4
100
AcDbLine
 10
7.056934
 20
-0.05757
 30
0.0
 11
7.057392
 21
-0.049763
 31
0.0
  0
LINE
  5
939
330
1F
100
AcDbEntity
  8
1
  6
CONTINUOUS
370
50
 62
4
100
AcDbLine
 10
7.056985999999999
 20
-0.056735
 30
0.0
 11
7.057347
 21
-0.050569
 31
0.0
  0
LINE
  5
93A
330
1F
100
AcDbEntity
  8
1
  6
CONTINUOUS
370
50
 62
4
100
AcDbLine
 10
7.056630999999999
 20
-0.062974
 30
0.0
 11
7.056985999999999
 21
-0.056735
 31
0.0
  0
LINE
  5
93B
330
1F
100
AcDbEntity
  8
1
  6
CONTINUOUS
370
50
 62
4
100
AcDbLine
 10
7.056484999999999
 20
-0.065503
 30
0.0
 11
7.056934
 21
-0.05757
 31
0.0
  0
LINE
  5
93C
330
1F
100
AcDbEntity
  8
1
  6
CONTINUOUS
370
50
 62
4
100
AcDbLine
 10
7.05628
 20
-0.069276
 30
0.0
 11
7.056630999999999
 21
-0.062974
 31
0.0
  0
LINE
  5
93D
330
1F
100
AcDbEntity
  8
1
  6
CONTINUOUS
370
50
 62
4
100
AcDbLine
 10
7.270438
 20
-0.055869
 30
0.0
 11
7.27087
 21
-0.048096
 31
0.0
  0
LINE
  5
93E
330
1F
100
AcDbEntity
  8
1
  6
CONTINUOUS
370
50
 62
4
100
AcDbLine
 10
7.056044
 20
-0.07353
 30
0.0
 11
7.056484999999999
 21
-0.065503
 31
0.0
  0
LINE
  5
93F
330
1F
100
AcDbEntity
  8
1
  6
CONTINUOUS
370
50
 62
4
100
AcDbLine
 10
7.055934
 20
-0.075637
 30
0.0
 11
7.05628
 21
-0.069276
 31
0.0
  0
LINE
  5
940
330
1F
100
AcDbEntity
  8
1
  6
CONTINUOUS
370
50
 62
4
100
AcDbLine
 10
7.055613999999999
 20
-0.081609
 30
0.0
 11
7.056044
 21
-0.07353
 31
0.0
  0
LINE
  5
941
330
1F
100
AcDbEntity
  8
1
  6
CONTINUOUS
370
50
 62
4
100
AcDbLine
 10
7.055594999999999
 20
-0.082044
 30
0.0
 11
7.055934
 21
-0.075637
 31
0.0
  0
LINE
  5
942
330
1F
100
AcDbEntity
  8
1
  6
CONTINUOUS
370
50
 62
4
100
AcDbLine
 10
7.062208
 20
0.018179
 30
0.0
 11
7.062334
 21
0.020575
 31
0.0
  0
LINE
  5
943
330
1F
100
AcDbEntity
  8
1
  6
CONTINUOUS
370
50
 62
4
100
AcDbLine
 10
7.055262
 20
-0.088472
 30
0.0
 11
7.055594999999999
 21
-0.082044
 31
0.0
  0
LINE
  5
944
330
1F
100
AcDbEntity
  8
1
  6
CONTINUOUS
370
50
 62
4
100
AcDbLine
 10
7.055193999999999
 20
-0.08972
 30
0.0
 11
7.055613999999999
 21
-0.081609
 31
0.0
  0
LINE
  5
945
330
1F
100
AcDbEntity
  8
1
  6
CONTINUOUS
370
50
 62
4
100
AcDbLine
 10
7.054936
 20
-0.094909
 30
0.0
 11
7.055262
 21
-0.088472
 31
0.0
  0
LINE
  5
946
330
1F
100
AcDbEntity
  8
1
  6
CONTINUOUS
370
50
 62
4
100
AcDbLine
 10
7.054785
 20
-0.097848
 30
0.0
 11
7.055193999999999
 21
-0.08972
 31
0.0
  0
LINE
  5
947
330
1F
100
AcDbEntity
  8
1
  6
CONTINUOUS
370
50
 62
4
100
AcDbLine
 10
7.062228999999999
 20
0.01853
 30
0.0
 11
7.062368999999999
 21
0.021314
 31
0.0
  0
LINE
  5
948
330
1F
100
AcDbEntity
  8
1
  6
CONTINUOUS
370
50
 62
4
100
AcDbLine
 10
7.225791
 20
0.008327
 30
0.0
 11
7.225918999999999
 21
0.010908
 31
0.0
  0
LINE
  5
949
330
1F
100
AcDbEntity
  8
1
  6
CONTINUOUS
370
50
 62
4
100
AcDbLine
 10
7.054616999999999
 20
-0.101347
 30
0.0
 11
7.054936
 21
-0.094909
 31
0.0
  0
LINE
  5
94A
330
1F
100
AcDbEntity
  8
1
  6
CONTINUOUS
370
50
 62
4
100
AcDbLine
 10
7.054386999999999
 20
-0.105975
 30
0.0
 11
7.054785
 21
-0.097848
 31
0.0
  0
LINE
  5
94B
330
1F
100
AcDbEntity
  8
1
  6
CONTINUOUS
370
50
 62
4
100
AcDbLine
 10
7.054304999999999
 20
-0.107777
 30
0.0
 11
7.054616999999999
 21
-0.101347
 31
0.0
  0
LINE
  5
94C
330
1F
100
AcDbEntity
  8
1
  6
CONTINUOUS
370
50
 62
4
100
AcDbLine
 10
7.293805
 20
-0.102438
 30
0.0
 11
7.293952999999999
 21
-0.099346
 31
0.0
  0
LINE
  5
94D
330
1F
100
AcDbEntity
  8
1
  6
CONTINUOUS
370
50
 62
4
100
AcDbLine
 10
7.053999999999999
 20
-0.114086
 30
0.0
 11
7.054386999999999
 21
-0.105975
 31
0.0
  0
LINE
  5
94E
330
1F
100
AcDbEntity
  8
1
  6
CONTINUOUS
370
50
 62
4
100
AcDbLine
 10
7.053999999999999
 20
-0.11419
 30
0.0
 11
7.054304999999999
 21
-0.107777
 31
0.0
  0
LINE
  5
94F
330
1F
100
AcDbEntity
  8
1
  6
CONTINUOUS
370
50
 62
4
100
AcDbLine
 10
7.062334
 20
0.020575
 30
0.0
 11
7.062438999999999
 21
0.023063
 31
0.0
  0
LINE
  5
950
330
1F
100
AcDbEntity
  8
1
  6
CONTINUOUS
370
50
 62
4
100
AcDbLine
 10
6.918791
 20
-0.174247
 30
0.0
 11
6.918849
 21
-0.172797
 31
0.0
  0
LINE
  5
951
330
1F
100
AcDbEntity
  8
1
  6
CONTINUOUS
370
50
 62
4
100
AcDbLine
 10
7.062368999999999
 20
0.021314
 30
0.0
 11
7.062481
 21
0.024226
 31
0.0
  0
LINE
  5
952
330
1F
100
AcDbEntity
  8
1
  6
CONTINUOUS
370
50
 62
4
100
AcDbLine
 10
7.270137999999999
 20
-0.063681
 30
0.0
 11
7.270438
 21
-0.055869
 31
0.0
  0
LINE
  5
953
330
1F
100
AcDbEntity
  8
1
  6
CONTINUOUS
370
50
 62
4
100
AcDbLine
 10
7.062438999999999
 20
0.023063
 30
0.0
 11
7.062520999999999
 21
0.025639
 31
0.0
  0
LINE
  5
954
330
1F
100
AcDbEntity
  8
1
  6
CONTINUOUS
370
50
 62
4
100
AcDbLine
 10
7.062481
 20
0.024226
 30
0.0
 11
7.062562
 21
0.027255
 31
0.0
  0
LINE
  5
955
330
1F
100
AcDbEntity
  8
1
  6
CONTINUOUS
370
50
 62
4
100
AcDbLine
 10
7.062520999999999
 20
0.025639
 30
0.0
 11
7.062581
 21
0.028298
 31
0.0
  0
LINE
  5
956
330
1F
100
AcDbEntity
  8
1
  6
CONTINUOUS
370
50
 62
4
100
AcDbLine
 10
7.269971
 20
-0.071517
 30
0.0
 11
7.270137999999999
 21
-0.063681
 31
0.0
  0
LINE
  5
957
330
1F
100
AcDbEntity
  8
1
  6
CONTINUOUS
370
50
 62
4
100
AcDbLine
 10
7.270924
 20
-0.048034
 30
0.0
 11
7.270973
 21
-0.045448
 31
0.0
  0
LINE
  5
958
330
1F
100
AcDbEntity
  8
1
  6
CONTINUOUS
370
50
 62
4
100
AcDbLine
 10
7.062562
 20
0.027255
 30
0.0
 11
7.062612
 21
0.03038
 31
0.0
  0
LINE
  5
959
330
1F
100
AcDbEntity
  8
1
  6
CONTINUOUS
370
50
 62
4
100
AcDbLine
 10
7.062581
 20
0.028298
 30
0.0
 11
7.062616999999999
 21
0.031036
 31
0.0
  0
LINE
  5
95A
330
1F
100
AcDbEntity
  8
1
  6
CONTINUOUS
370
50
 62
4
100
AcDbLine
 10
7.293952999999999
 20
-0.099346
 30
0.0
 11
7.293994
 21
-0.096222
 31
0.0
  0
LINE
  5
95B
330
1F
100
AcDbEntity
  8
1
  6
CONTINUOUS
370
50
 62
4
100
AcDbLine
 10
7.062612
 20
0.03038
 30
0.0
 11
7.06263
 21
0.033594
 31
0.0
  0
LINE
  5
95C
330
1F
100
AcDbEntity
  8
1
  6
CONTINUOUS
370
50
 62
4
100
AcDbLine
 10
7.225912999999999
 20
0.113468
 30
0.0
 11
7.225924
 21
0.115594
 31
0.0
  0
LINE
  5
95D
330
1F
100
AcDbEntity
  8
1
  6
CONTINUOUS
370
50
 62
4
100
AcDbLine
 10
7.062616999999999
 20
0.031036
 30
0.0
 11
7.062628999999999
 21
0.033847
 31
0.0
  0
LINE
  5
95E
330
1F
100
AcDbEntity
  8
1
  6
CONTINUOUS
370
50
 62
4
100
AcDbLine
 10
7.269939
 20
-0.079364
 30
0.0
 11
7.269971
 21
-0.071517
 31
0.0
  0
LINE
  5
95F
330
1F
100
AcDbEntity
  8
1
  6
CONTINUOUS
370
50
 62
4
100
AcDbLine
 10
7.270973
 20
-0.045448
 30
0.0
 11
7.270982
 21
-0.04286
 31
0.0
  0
LINE
  5
960
330
1F
100
AcDbEntity
  8
1
  6
CONTINUOUS
370
50
 62
4
100
AcDbLine
 10
7.225918999999999
 20
0.010908
 30
0.0
 11
7.225924
 21
0.013402
 31
0.0
  0
LINE
  5
961
330
1F
100
AcDbEntity
  8
1
  6
CONTINUOUS
370
50
 62
4
100
AcDbLine
 10
-0.01
 20
-1.99995
 30
0.0
 11
-0.01
 21
1.99995
 31
0.0
  0
LINE
  5
962
330
1F
100
AcDbEntity
  8
1
  6
CONTINUOUS
370
50
 62
4
100
AcDbLine
 10
6.294
 20
-0.19245
 30
0.0
 11
6.294
 21
0.19245
 31
0.0
  0
LINE
  5
963
330
1F
100
AcDbEntity
  8
1
  6
CONTINUOUS
370
50
 62
4
100
AcDbLine
 10
7.053999999999999
 20
0.122777
 30
0.0
 11
7.053999999999999
 21
0.158607
 31
0.0
  0
LINE
  5
964
330
1F
100
AcDbEntity
  8
1
  6
CONTINUOUS
370
50
 62
4
100
AcDbLine
 10
7.053999999999999
 20
-0.150124
 30
0.0
 11
7.053999999999999
 21
-0.11419
 31
0.0
  0
LINE
  5
965
330
1F
100
AcDbEntity
  8
1
  6
CONTINUOUS
370
50
 62
4
100
AcDbLine
 10
7.053999999999999
 20
-0.11419
 30
0.0
 11
7.053999999999999
 21
-0.113326
 31
0.0
  0
LINE
  5
966
330
1F
100
AcDbEntity
  8
1
  6
CONTINUOUS
370
50
 62
4
100
AcDbLine
 10
7.053999999999999
 20
-0.113326
 30
0.0
 11
7.053999999999999
 21
-0.112461
 31
0.0
  0
LINE
  5
967
330
1F
100
AcDbEntity
  8
1
  6
CONTINUOUS
370
50
 62
4
100
AcDbLine
 10
7.053999999999999
 20
-0.112461
 30
0.0
 11
7.053999999999999
 21
-0.111596
 31
0.0
  0
LINE
  5
968
330
1F
100
AcDbEntity
  8
1
  6
CONTINUOUS
370
50
 62
4
100
AcDbLine
 10
7.053999999999999
 20
-0.111596
 30
0.0
 11
7.053999999999999
 21
-0.110731
 31
0.0
  0
LINE
  5
969
330
1F
100
AcDbEntity
  8
1
  6
CONTINUOUS
370
50
 62
4
100
AcDbLine
 10
7.053999999999999
 20
-0.110731
 30
0.0
 11
7.053999999999999
 21
-0.109865
 31
0.0
  0
LINE
  5
96A
330
1F
100
AcDbEntity
  8
1
  6
CONTINUOUS
370
50
 62
4
100
AcDbLine
 10
7.053999999999999
 20
-0.109865
 30
0.0
 11
7.053999999999999
 21
-0.108998
 31
0.0
  0
LINE
  5
96B
330
1F
100
AcDbEntity
  8
1
  6
CONTINUOUS
370
50
 62
4
100
AcDbLine
 10
7.053999999999999
 20
-0.124669
 30
0.0
 11
7.053999999999999
 21
-0.123163
 31
0.0
  0
LINE
  5
96C
330
1F
100
AcDbEntity
  8
1
  6
CONTINUOUS
370
50
 62
4
100
AcDbLine
 10
7.053999999999999
 20
-0.123163
 30
0.0
 11
7.053999999999999
 21
-0.121655
 31
0.0
  0
LINE
  5
96D
330
1F
100
AcDbEntity
  8
1
  6
CONTINUOUS
370
50
 62
4
100
AcDbLine
 10
7.053999999999999
 20
-0.121655
 30
0.0
 11
7.053999999999999
 21
-0.120145
 31
0.0
  0
LINE
  5
96E
330
1F
100
AcDbEntity
  8
1
  6
CONTINUOUS
370
50
 62
4
100
AcDbLine
 10
7.053999999999999
 20
-0.120145
 30
0.0
 11
7.053999999999999
 21
-0.118633
 31
0.0
  0
LINE
  5
96F
330
1F
100
AcDbEntity
  8
1
  6
CONTINUOUS
370
50
 62
4
100
AcDbLine
 10
7.053999999999999
 20
-0.118633
 30
0.0
 11
7.053999999999999
 21
-0.117119
 31
0.0
  0
LINE
  5
970
330
1F
100
AcDbEntity
  8
1
  6
CONTINUOUS
370
50
 62
4
100
AcDbLine
 10
7.053999999999999
 20
-0.117119
 30
0.0
 11
7.053999999999999
 21
-0.115603
 31
0.0
  0
LINE
  5
971
330
1F
100
AcDbEntity
  8
1
  6
CONTINUOUS
370
50
 62
4
100
AcDbLine
 10
7.053999999999999
 20
-0.115603
 30
0.0
 11
7.053999999999999
 21
-0.114086
 31
0.0
  0
LINE
  5
972
330
1F
100
AcDbEntity
  8
1
  6
CONTINUOUS
370
50
 62
4
100
AcDbLine
 10
7.053999999999999
 20
-0.153936
 30
0.0
 11
7.053999999999999
 21
-0.124669
 31
0.0
  0
LINE
  5
973
330
1F
100
AcDbEntity
  8
1
  6
CONTINUOUS
370
50
 62
4
100
AcDbLine
 10
7.064
 20
0.15052
 30
0.0
 11
7.064
 21
0.154793
 31
0.0
  0
LINE
  5
974
330
1F
100
AcDbEntity
  8
1
  6
CONTINUOUS
370
50
 62
4
100
AcDbLine
 10
7.064
 20
-0.131554
 30
0.0
 11
7.064
 21
-0.131052
 31
0.0
  0
LINE
  5
975
330
1F
100
AcDbEntity
  8
1
  6
CONTINUOUS
370
50
 62
4
100
AcDbLine
 10
7.064
 20
-0.130273
 30
0.0
 11
7.064
 21
-0.130117
 31
0.0
  0
LINE
  5
976
330
1F
100
AcDbEntity
  8
1
  6
CONTINUOUS
370
50
 62
4
100
AcDbLine
 10
7.064
 20
-0.130429
 30
0.0
 11
7.064
 21
-0.130273
 31
0.0
  0
LINE
  5
977
330
1F
100
AcDbEntity
  8
1
  6
CONTINUOUS
370
50
 62
4
100
AcDbLine
 10
7.064
 20
-0.130585
 30
0.0
 11
7.064
 21
-0.130429
 31
0.0
  0
LINE
  5
978
330
1F
100
AcDbEntity
  8
1
  6
CONTINUOUS
370
50
 62
4
100
AcDbLine
 10
7.064
 20
-0.130741
 30
0.0
 11
7.064
 21
-0.130585
 31
0.0
  0
LINE
  5
979
330
1F
100
AcDbEntity
  8
1
  6
CONTINUOUS
370
50
 62
4
100
AcDbLine
 10
7.064
 20
-0.130896
 30
0.0
 11
7.064
 21
-0.130741
 31
0.0
  0
LINE
  5
97A
330
1F
100
AcDbEntity
  8
1
  6
CONTINUOUS
370
50
 62
4
100
AcDbLine
 10
7.064
 20
-0.131052
 30
0.0
 11
7.064
 21
-0.130896
 31
0.0
  0
LINE
  5
97B
330
1F
100
AcDbEntity
  8
1
  6
CONTINUOUS
370
50
 62
4
100
AcDbLine
 10
7.064
 20
-0.130117
 30
0.0
 11
7.064
 21
-0.129427
 31
0.0
  0
LINE
  5
97C
330
1F
100
AcDbEntity
  8
1
  6
CONTINUOUS
370
50
 62
4
100
AcDbLine
 10
7.064
 20
-0.129427
 30
0.0
 11
7.064
 21
-0.092015
 31
0.0
  0
LINE
  5
97D
330
1F
100
AcDbEntity
  8
1
  6
CONTINUOUS
370
50
 62
4
100
AcDbLine
 10
7.064
 20
0.007816
 30
0.0
 11
7.064
 21
0.01583
 31
0.0
  0
LINE
  5
97E
330
1F
100
AcDbEntity
  8
1
  6
CONTINUOUS
370
50
 62
4
100
AcDbLine
 10
7.064
 20
-0.000672
 30
0.0
 11
7.064
 21
0.007816
 31
0.0
  0
LINE
  5
97F
330
1F
100
AcDbEntity
  8
1
  6
CONTINUOUS
370
50
 62
4
100
AcDbLine
 10
7.064
 20
-0.009602
 30
0.0
 11
7.064
 21
-0.000672
 31
0.0
  0
LINE
  5
980
330
1F
100
AcDbEntity
  8
1
  6
CONTINUOUS
370
50
 62
4
100
AcDbLine
 10
7.064
 20
-0.018942
 30
0.0
 11
7.064
 21
-0.009602
 31
0.0
  0
LINE
  5
981
330
1F
100
AcDbEntity
  8
1
  6
CONTINUOUS
370
50
 62
4
100
AcDbLine
 10
7.064
 20
-0.02866
 30
0.0
 11
7.064
 21
-0.018942
 31
0.0
  0
LINE
  5
982
330
1F
100
AcDbEntity
  8
1
  6
CONTINUOUS
370
50
 62
4
100
AcDbLine
 10
7.064
 20
-0.038719
 30
0.0
 11
7.064
 21
-0.02866
 31
0.0
  0
LINE
  5
983
330
1F
100
AcDbEntity
  8
1
  6
CONTINUOUS
370
50
 62
4
100
AcDbLine
 10
7.064
 20
-0.049039
 30
0.0
 11
7.064
 21
-0.038719
 31
0.0
  0
LINE
  5
984
330
1F
100
AcDbEntity
  8
1
  6
CONTINUOUS
370
50
 62
4
100
AcDbLine
 10
7.064
 20
-0.059566
 30
0.0
 11
7.064
 21
-0.049039
 31
0.0
  0
LINE
  5
985
330
1F
100
AcDbEntity
  8
1
  6
CONTINUOUS
370
50
 62
4
100
AcDbLine
 10
7.064
 20
-0.070263
 30
0.0
 11
7.064
 21
-0.059566
 31
0.0
  0
LINE
  5
986
330
1F
100
AcDbEntity
  8
1
  6
CONTINUOUS
370
50
 62
4
100
AcDbLine
 10
7.064
 20
-0.081092
 30
0.0
 11
7.064
 21
-0.070263
 31
0.0
  0
LINE
  5
987
330
1F
100
AcDbEntity
  8
1
  6
CONTINUOUS
370
50
 62
4
100
AcDbLine
 10
7.064
 20
-0.092015
 30
0.0
 11
7.064
 21
-0.081092
 31
0.0
  0
LINE
  5
988
330
1F
100
AcDbEntity
  8
1
  6
CONTINUOUS
370
50
 62
4
100
AcDbLine
 10
7.064
 20
0.094215
 30
0.0
 11
7.064
 21
0.095897
 31
0.0
  0
LINE
  5
989
330
1F
100
AcDbEntity
  8
1
  6
CONTINUOUS
370
50
 62
4
100
AcDbLine
 10
7.064
 20
0.092452
 30
0.0
 11
7.064
 21
0.094215
 31
0.0
  0
LINE
  5
98A
330
1F
100
AcDbEntity
  8
1
  6
CONTINUOUS
370
50
 62
4
100
AcDbLine
 10
7.064
 20
0.090612
 30
0.0
 11
7.064
 21
0.092452
 31
0.0
  0
LINE
  5
98B
330
1F
100
AcDbEntity
  8
1
  6
CONTINUOUS
370
50
 62
4
100
AcDbLine
 10
7.064
 20
0.088697
 30
0.0
 11
7.064
 21
0.090612
 31
0.0
  0
LINE
  5
98C
330
1F
100
AcDbEntity
  8
1
  6
CONTINUOUS
370
50
 62
4
100
AcDbLine
 10
7.064
 20
0.086711
 30
0.0
 11
7.064
 21
0.088697
 31
0.0
  0
LINE
  5
98D
330
1F
100
AcDbEntity
  8
1
  6
CONTINUOUS
370
50
 62
4
100
AcDbLine
 10
7.064
 20
0.084656
 30
0.0
 11
7.064
 21
0.086711
 31
0.0
  0
LINE
  5
98E
330
1F
100
AcDbEntity
  8
1
  6
CONTINUOUS
370
50
 62
4
100
AcDbLine
 10
7.064
 20
0.082535
 30
0.0
 11
7.064
 21
0.084656
 31
0.0
  0
LINE
  5
98F
330
1F
100
AcDbEntity
  8
1
  6
CONTINUOUS
370
50
 62
4
100
AcDbLine
 10
7.064
 20
0.080351
 30
0.0
 11
7.064
 21
0.082535
 31
0.0
  0
LINE
  5
990
330
1F
100
AcDbEntity
  8
1
  6
CONTINUOUS
370
50
 62
4
100
AcDbLine
 10
7.064
 20
0.078108
 30
0.0
 11
7.064
 21
0.080351
 31
0.0
  0
LINE
  5
991
330
1F
100
AcDbEntity
  8
1
  6
CONTINUOUS
370
50
 62
4
100
AcDbLine
 10
7.064
 20
0.075814
 30
0.0
 11
7.064
 21
0.078108
 31
0.0
  0
LINE
  5
992
330
1F
100
AcDbEntity
  8
1
  6
CONTINUOUS
370
50
 62
4
100
AcDbLine
 10
7.064
 20
0.073477
 30
0.0
 11
7.064
 21
0.075814
 31
0.0
  0
LINE
  5
993
330
1F
100
AcDbEntity
  8
1
  6
CONTINUOUS
370
50
 62
4
100
AcDbLine
 10
7.064
 20
0.0711
 30
0.0
 11
7.064
 21
0.073477
 31
0.0
  0
LINE
  5
994
330
1F
100
AcDbEntity
  8
1
  6
CONTINUOUS
370
50
 62
4
100
AcDbLine
 10
7.064
 20
0.068687
 30
0.0
 11
7.064
 21
0.0711
 31
0.0
  0
LINE
  5
995
330
1F
100
AcDbEntity
  8
1
  6
CONTINUOUS
370
50
 62
4
100
AcDbLine
 10
7.064
 20
0.066241
 30
0.0
 11
7.064
 21
0.068687
 31
0.0
  0
LINE
  5
996
330
1F
100
AcDbEntity
  8
1
  6
CONTINUOUS
370
50
 62
4
100
AcDbLine
 10
7.064
 20
0.063767
 30
0.0
 11
7.064
 21
0.066241
 31
0.0
  0
LINE
  5
997
330
1F
100
AcDbEntity
  8
1
  6
CONTINUOUS
370
50
 62
4
100
AcDbLine
 10
7.064
 20
0.061266
 30
0.0
 11
7.064
 21
0.063767
 31
0.0
  0
LINE
  5
998
330
1F
100
AcDbEntity
  8
1
  6
CONTINUOUS
370
50
 62
4
100
AcDbLine
 10
7.064
 20
0.058744
 30
0.0
 11
7.064
 21
0.061266
 31
0.0
  0
LINE
  5
999
330
1F
100
AcDbEntity
  8
1
  6
CONTINUOUS
370
50
 62
4
100
AcDbLine
 10
7.064
 20
0.056204
 30
0.0
 11
7.064
 21
0.058744
 31
0.0
  0
LINE
  5
99A
330
1F
100
AcDbEntity
  8
1
  6
CONTINUOUS
370
50
 62
4
100
AcDbLine
 10
7.064
 20
0.053659
 30
0.0
 11
7.064
 21
0.056204
 31
0.0
  0
LINE
  5
99B
330
1F
100
AcDbEntity
  8
1
  6
CONTINUOUS
370
50
 62
4
100
AcDbLine
 10
7.064
 20
0.051114
 30
0.0
 11
7.064
 21
0.053659
 31
0.0
  0
LINE
  5
99C
330
1F
100
AcDbEntity
  8
1
  6
CONTINUOUS
370
50
 62
4
100
AcDbLine
 10
7.064
 20
0.048573
 30
0.0
 11
7.064
 21
0.051114
 31
0.0
  0
LINE
  5
99D
330
1F
100
AcDbEntity
  8
1
  6
CONTINUOUS
370
50
 62
4
100
AcDbLine
 10
7.064
 20
0.046039
 30
0.0
 11
7.064
 21
0.048573
 31
0.0
  0
LINE
  5
99E
330
1F
100
AcDbEntity
  8
1
  6
CONTINUOUS
370
50
 62
4
100
AcDbLine
 10
7.064
 20
0.043517
 30
0.0
 11
7.064
 21
0.046039
 31
0.0
  0
LINE
  5
99F
330
1F
100
AcDbEntity
  8
1
  6
CONTINUOUS
370
50
 62
4
100
AcDbLine
 10
7.064
 20
0.04101
 30
0.0
 11
7.064
 21
0.043517
 31
0.0
  0
LINE
  5
9A0
330
1F
100
AcDbEntity
  8
1
  6
CONTINUOUS
370
50
 62
4
100
AcDbLine
 10
7.064
 20
0.038522
 30
0.0
 11
7.064
 21
0.04101
 31
0.0
  0
LINE
  5
9A1
330
1F
100
AcDbEntity
  8
1
  6
CONTINUOUS
370
50
 62
4
100
AcDbLine
 10
7.064
 20
0.036056
 30
0.0
 11
7.064
 21
0.038522
 31
0.0
  0
LINE
  5
9A2
330
1F
100
AcDbEntity
  8
1
  6
CONTINUOUS
370
50
 62
4
100
AcDbLine
 10
7.064
 20
0.033618
 30
0.0
 11
7.064
 21
0.036056
 31
0.0
  0
LINE
  5
9A3
330
1F
100
AcDbEntity
  8
1
  6
CONTINUOUS
370
50
 62
4
100
AcDbLine
 10
7.064
 20
0.031217
 30
0.0
 11
7.064
 21
0.033618
 31
0.0
  0
LINE
  5
9A4
330
1F
100
AcDbEntity
  8
1
  6
CONTINUOUS
370
50
 62
4
100
AcDbLine
 10
7.064
 20
0.028857
 30
0.0
 11
7.064
 21
0.031217
 31
0.0
  0
LINE
  5
9A5
330
1F
100
AcDbEntity
  8
1
  6
CONTINUOUS
370
50
 62
4
100
AcDbLine
 10
7.064
 20
0.026543
 30
0.0
 11
7.064
 21
0.028857
 31
0.0
  0
LINE
  5
9A6
330
1F
100
AcDbEntity
  8
1
  6
CONTINUOUS
370
50
 62
4
100
AcDbLine
 10
7.064
 20
0.024276
 30
0.0
 11
7.064
 21
0.026543
 31
0.0
  0
LINE
  5
9A7
330
1F
100
AcDbEntity
  8
1
  6
CONTINUOUS
370
50
 62
4
100
AcDbLine
 10
7.064
 20
0.022065
 30
0.0
 11
7.064
 21
0.024276
 31
0.0
  0
LINE
  5
9A8
330
1F
100
AcDbEntity
  8
1
  6
CONTINUOUS
370
50
 62
4
100
AcDbLine
 10
7.064
 20
0.019913
 30
0.0
 11
7.064
 21
0.022065
 31
0.0
  0
LINE
  5
9A9
330
1F
100
AcDbEntity
  8
1
  6
CONTINUOUS
370
50
 62
4
100
AcDbLine
 10
7.064
 20
0.017824
 30
0.0
 11
7.064
 21
0.019913
 31
0.0
  0
LINE
  5
9AA
330
1F
100
AcDbEntity
  8
1
  6
CONTINUOUS
370
50
 62
4
100
AcDbLine
 10
7.064
 20
0.015801
 30
0.0
 11
7.064
 21
0.017824
 31
0.0
  0
LINE
  5
9AB
330
1F
100
AcDbEntity
  8
1
  6
CONTINUOUS
370
50
 62
4
100
AcDbLine
 10
7.064
 20
0.123087
 30
0.0
 11
7.064
 21
0.127619
 31
0.0
  0
LINE
  5
9AC
330
1F
100
AcDbEntity
  8
1
  6
CONTINUOUS
370
50
 62
4
100
AcDbLine
 10
7.064
 20
0.118555
 30
0.0
 11
7.064
 21
0.123087
 31
0.0
  0
LINE
  5
9AD
330
1F
100
AcDbEntity
  8
1
  6
CONTINUOUS
370
50
 62
4
100
AcDbLine
 10
7.064
 20
0.114024
 30
0.0
 11
7.064
 21
0.118555
 31
0.0
  0
LINE
  5
9AE
330
1F
100
AcDbEntity
  8
1
  6
CONTINUOUS
370
50
 62
4
100
AcDbLine
 10
7.064
 20
0.109492
 30
0.0
 11
7.064
 21
0.114024
 31
0.0
  0
LINE
  5
9AF
330
1F
100
AcDbEntity
  8
1
  6
CONTINUOUS
370
50
 62
4
100
AcDbLine
 10
7.064
 20
0.10496
 30
0.0
 11
7.064
 21
0.109492
 31
0.0
  0
LINE
  5
9B0
330
1F
100
AcDbEntity
  8
1
  6
CONTINUOUS
370
50
 62
4
100
AcDbLine
 10
7.064
 20
0.100429
 30
0.0
 11
7.064
 21
0.10496
 31
0.0
  0
LINE
  5
9B1
330
1F
100
AcDbEntity
  8
1
  6
CONTINUOUS
370
50
 62
4
100
AcDbLine
 10
7.064
 20
0.095897
 30
0.0
 11
7.064
 21
0.100429
 31
0.0
  0
LINE
  5
9B2
330
1F
100
AcDbEntity
  8
1
  6
CONTINUOUS
370
50
 62
4
100
AcDbLine
 10
7.064
 20
0.127619
 30
0.0
 11
7.064
 21
0.127678
 31
0.0
  0
LINE
  5
9B3
330
1F
100
AcDbEntity
  8
1
  6
CONTINUOUS
370
50
 62
4
100
AcDbLine
 10
7.064
 20
-0.153871
 30
0.0
 11
7.064
 21
-0.153822
 31
0.0
  0
LINE
  5
9B4
330
1F
100
AcDbEntity
  8
1
  6
CONTINUOUS
370
50
 62
4
100
AcDbLine
 10
7.064
 20
-0.154084
 30
0.0
 11
7.064
 21
-0.15388
 31
0.0
  0
LINE
  5
9B5
330
1F
100
AcDbEntity
  8
1
  6
CONTINUOUS
370
50
 62
4
100
AcDbLine
 10
7.064
 20
-0.154262
 30
0.0
 11
7.064
 21
-0.154084
 31
0.0
  0
LINE
  5
9B6
330
1F
100
AcDbEntity
  8
1
  6
CONTINUOUS
370
50
 62
4
100
AcDbLine
 10
7.064
 20
-0.154413
 30
0.0
 11
7.064
 21
-0.154262
 31
0.0
  0
LINE
  5
9B7
330
1F
100
AcDbEntity
  8
1
  6
CONTINUOUS
370
50
 62
4
100
AcDbLine
 10
7.064
 20
-0.154538
 30
0.0
 11
7.064
 21
-0.154413
 31
0.0
  0
LINE
  5
9B8
330
1F
100
AcDbEntity
  8
1
  6
CONTINUOUS
370
50
 62
4
100
AcDbLine
 10
7.064
 20
-0.154635
 30
0.0
 11
7.064
 21
-0.154538
 31
0.0
  0
LINE
  5
9B9
330
1F
100
AcDbEntity
  8
1
  6
CONTINUOUS
370
50
 62
4
100
AcDbLine
 10
7.064
 20
-0.154706
 30
0.0
 11
7.064
 21
-0.154635
 31
0.0
  0
LINE
  5
9BA
330
1F
100
AcDbEntity
  8
1
  6
CONTINUOUS
370
50
 62
4
100
AcDbLine
 10
7.194
 20
-0.190147
 30
0.0
 11
7.194
 21
-0.177618
 31
0.0
  0
LINE
  5
9BB
330
1F
100
AcDbEntity
  8
1
  6
CONTINUOUS
370
50
 62
4
100
AcDbLine
 10
7.194
 20
0.062001
 30
0.0
 11
7.194
 21
0.091934
 31
0.0
  0
LINE
  5
9BC
330
1F
100
AcDbEntity
  8
1
  6
CONTINUOUS
370
50
 62
4
100
AcDbLine
 10
7.234
 20
-0.016048
 30
0.0
 11
7.234
 21
-0.003379
 31
0.0
  0
LINE
  5
9BD
330
1F
100
AcDbEntity
  8
1
  6
CONTINUOUS
370
50
 62
4
100
AcDbLine
 10
7.294
 20
-0.027227
 30
0.0
 11
7.294
 21
0.027227
 31
0.0
  0
LINE
  5
9BE
330
1F
100
AcDbEntity
  8
1
  6
CONTINUOUS
370
50
 62
4
100
AcDbLine
 10
7.294
 20
0.09
 30
0.0
 11
7.294
 21
0.1
 31
0.0
  0
LINE
  5
9BF
330
1F
100
AcDbEntity
  8
1
  6
CONTINUOUS
370
50
 62
4
100
AcDbLine
 10
7.294
 20
-0.096222
 30
0.0
 11
7.294
 21
-0.085783
 31
0.0
  0
LINE
  5
9C0
330
1F
100
AcDbEntity
  8
1
  6
CONTINUOUS
370
50
 62
4
100
AcDbLine
 10
7.294
 20
0.085783
 30
0.0
 11
7.294
 21
0.09
 31
0.0
  0
LINE
  5
9C1
330
1F
100
AcDbEntity
  8
1
  6
CONTINUOUS
370
50
 62
4
100
AcDbLine
 10
7.294
 20
-0.1
 30
0.0
 11
7.294
 21
-0.096222
 31
0.0
  0
ARC
  5
9C2
330
1F
100
AcDbEntity
  8
1
  6
CONTINUOUS
370
50
 62
4
100
AcDbCircle
 10
7.194
 20
-0.1
 30
0.0
 40
0.1
100
AcDbArc
 50
355.2296674061329
 51
0.0
  0
ELLIPSE
  5
9C3
330
1F
100
AcDbEntity
  8
1
  6
CONTINUOUS
370
50
 62
4
100
AcDbEllipse
 10
7.294
 20
0.0
 30
0.0
 11
0.0624060161531883
 21
0.08505098814762829
 31
0.0
210
0.0
220
0.0
230
1.0
 40
0.471648853664297
 41
1.650159592833935
 42
2.068630399220656
  0
ELLIPSE
  5
9C4
330
1F
100
AcDbEntity
  8
1
  6
CONTINUOUS
370
50
 62
4
100
AcDbEllipse
 10
7.294
 20
0.0
 30
0.0
 11
-0.06240601615318796
 21
0.08505098814762839
 31
0.0
210
0.0
220
0.0
230
1.0
 40
0.4716488536642967
 41
1.237625531736649
 42
1.453873207020892
  0
ELLIPSE
  5
9C5
330
1F
100
AcDbEntity
  8
1
  6
CONTINUOUS
370
50
 62
4
100
AcDbEllipse
 10
7.294
 20
0.0
 30
0.0
 11
-0.1770240002311106
 21
0.0002058013017087103
 31
0.0
210
0.0
220
0.0
230
1.0
 40
0.5084056416800948
 41
4.712980033182803
 42
4.827441965249559
  0
ELLIPSE
  5
9C6
330
1F
100
AcDbEntity
  8
1
  6
CONTINUOUS
370
50
 62
4
100
AcDbEllipse
 10
7.294
 20
0.0
 30
0.0
 11
0.1770239896498413
 21
0.09000002035806898
 31
0.0
210
0.0
220
0.0
230
1.0
 40
0.0006846286321724
 41
1.57235705765909
 42
1.80525616881719
  0
ELLIPSE
  5
9C7
330
1F
100
AcDbEntity
  8
1
  6
CONTINUOUS
370
50
 62
4
100
AcDbEllipse
 10
7.294
 20
0.0
 30
0.0
 11
0.3516319266323511
 21
0.08512730305736728
 31
0.0
210
0.0
220
0.0
230
1.0
 40
0.0830755094280706
 41
1.668493224663882
 42
1.685047533268344
  0
ELLIPSE
  5
9C8
330
1F
100
AcDbEntity
  8
1
  6
CONTINUOUS
370
50
 62
4
100
AcDbEllipse
 10
7.294
 20
0.0
 30
0.0
 11
-0.351631926632352
 21
0.08512730305736346
 31
0.0
210
0.0
220
0.0
230
1.0
 40
0.0830755094280708
 41
1.404892553170431
 42
1.536509310134275
  0
ELLIPSE
  5
9C9
330
1F
100
AcDbEntity
  8
1
  6
CONTINUOUS
370
50
 62
4
100
AcDbEllipse
 10
7.294083
 20
0.0
 30
0.0
 11
0.06240781937966401
 21
0.08505013253531844
 31
0.0
210
0.0
220
0.0
230
1.0
 40
0.4716604191094677
 41
1.943434248115385
 42
2.068419895596493
  0
ELLIPSE
  5
9CA
330
1F
100
AcDbEntity
  8
1
  6
CONTINUOUS
370
50
 62
4
100
AcDbEllipse
 10
7.294171
 20
0.0
 30
0.0
 11
-0.3516400030570566
 21
0.08512698737200305
 31
0.0
210
0.0
220
0.0
230
1.0
 40
0.0830764104288828
 41
1.404654001817281
 42
1.418976114002728
  0
ELLIPSE
  5
9CB
330
1F
100
AcDbEntity
  8
1
  6
CONTINUOUS
370
50
 62
4
100
AcDbEllipse
 10
7.302847
 20
0.0
 30
0.0
 11
5.510728592200698E-18
 21
0.09
 31
0.0
210
0.0
220
0.0
230
1.0
 40
0.3249222222222239
 41
1.867078732386289
 42
2.834255498643641
  0
ELLIPSE
  5
9CC
330
1F
100
AcDbEntity
  8
1
  6
CONTINUOUS
370
50
 62
4
100
AcDbEllipse
 10
7.302847
 20
0.0
 30
0.0
 11
5.510728592200698E-18
 21
0.09
 31
0.0
210
0.0
220
0.0
230
1.0
 40
0.3249222222222239
 41
0.3073371549461512
 42
0.7853394735129472
  0
ELLIPSE
  5
9CD
330
1F
100
AcDbEntity
  8
1
  6
CONTINUOUS
370
50
 62
4
100
AcDbEllipse
 10
8.383586
 20
0.304643
 30
0.0
 11
-2.838057017249048
 21
0.6782729278258393
 31
0.0
210
0.0
220
0.0
230
1.0
 40
0.2732443154809601
 41
1.151186578036135
 42
1.153532504280515
  0
ELLIPSE
  5
9CE
330
1F
100
AcDbEntity
  8
1
  6
CONTINUOUS
370
50
 62
4
100
AcDbEllipse
 10
8.383586
 20
2.717614
 30
0.0
 11
2.258246869091368
 21
1.84795715997342
 31
0.0
210
0.0
220
0.0
230
1.0
 40
0.9355962156122264
 41
3.574149973774501
 42
3.576495901116064
  0
ELLIPSE
  5
9CF
330
1F
100
AcDbEntity
  8
1
  6
CONTINUOUS
370
50
 62
4
100
AcDbEllipse
 10
8.416473
 20
-2.677425
 30
0.0
 11
-2.271132963993777
 21
1.858502044000448
 31
0.0
210
0.0
220
0.0
230
1.0
 40
0.9355964846058226
 41
5.892736241676332
 42
5.915499063665597
  0
ELLIPSE
  5
9D0
330
1F
100
AcDbEntity
  8
1
  6
CONTINUOUS
370
50
 62
4
100
AcDbEllipse
 10
8.416473
 20
0.442251
 30
0.0
 11
-2.85425308180334
 21
0.6821436577152424
 31
0.0
210
0.0
220
0.0
230
1.0
 40
0.27324451430048
 41
1.086315326646319
 42
1.143498316861027
  0
ELLIPSE
  5
9D1
330
1F
100
AcDbEntity
  8
1
  6
CONTINUOUS
370
50
 62
4
100
AcDbEllipse
 10
8.432952
 20
0.511204
 30
0.0
 11
-2.836529057893265
 21
0.6779077577607028
 31
0.0
210
0.0
220
0.0
230
0.9999999999999998
 40
0.2732445465184948
 41
1.10640636865393
 42
1.133539361429913
  0
LINE
  5
9D2
330
1F
100
AcDbEntity
  8
CUT
  6
CONTINUOUS
370
25
 62
1
100
AcDbLine
 10
7.064
 20
0.09
 30
0.0
 11
7.294
 21
0.09
 31
0.0
  0
LINE
  5
9D3
330
1F
100
AcDbEntity
  8
CUT
  6
CONTINUOUS
370
25
 62
1
100
AcDbLine
 10
7.294
 20
0.09
 30
0.0
 11
7.294
 21
0.1
 31
0.0
  0
ARC
  5
9D4
330
1F
100
AcDbEntity
  8
CUT
  6
CONTINUOUS
370
25
 62
1
100
AcDbCircle
 10
7.194
 20
0.1
 30
0.0
 40
0.1000000000000005
100
AcDbArc
 50
0.0
 51
90.0
  0
LINE
  5
9D5
330
1F
100
AcDbEntity
  8
CUT
  6
CONTINUOUS
370
25
 62
1
100
AcDbLine
 10
7.194
 20
0.2
 30
0.0
 11
7.054
 21
0.1999
 31
0.0
  0
LINE
  5
9D6
330
1F
100
AcDbEntity
  8
CUT
  6
CONTINUOUS
370
25
 62
1
100
AcDbLine
 10
7.054
 20
0.1999
 30
0.0
 11
7.054
 21
0.1949
 31
0.0
  0
LINE
  5
9D7
330
1F
100
AcDbEntity
  8
CUT
  6
CONTINUOUS
370
25
 62
1
100
AcDbLine
 10
7.054
 20
0.1949
 30
0.0
 11
7.064
 21
0.09
 31
0.0
  0
LINE
  5
9D8
330
1F
100
AcDbEntity
  8
NOCUT
  6
CONTINUOUS
370
25
 62
7
100
AcDbLine
 10
-0.01
 20
0.0
 30
0.0
 11
7.234000000000001
 21
0.0
 31
0.0
  0
LINE
  5
9D9
330
1F
100
AcDbEntity
  8
NOCUT
  6
CONTINUOUS
370
25
 62
7
100
AcDbLine
 10
7.234000000000001
 20
0.0
 30
0.0
 11
7.234000000000001
 21
0.09
 31
0.0
  0
LINE
  5
9DA
330
1F
100
AcDbEntity
  8
NOCUT
  6
CONTINUOUS
370
25
 62
7
100
AcDbLine
 10
7.234000000000001
 20
0.09
 30
0.0
 11
7.064
 21
0.09
 31
0.0
  0
LINE
  5
9DB
330
1F
100
AcDbEntity
  8
NOCUT
  6
CONTINUOUS
370
25
 62
7
100
AcDbLine
 10
7.064
 20
0.09
 30
0.0
 11
7.054
 21
0.19495
 31
0.0
  0
LINE
  5
9DC
330
1F
100
AcDbEntity
  8
NOCUT
  6
CONTINUOUS
370
25
 62
7
100
AcDbLine
 10
7.054
 20
0.19495
 30
0.0
 11
7.054
 21
0.19245
 31
0.0
  0
LINE
  5
9DD
330
1F
100
AcDbEntity
  8
NOCUT
  6
CONTINUOUS
370
25
 62
7
100
AcDbLine
 10
7.054
 20
0.19245
 30
0.0
 11
6.294
 21
0.19245
 31
0.0
  0
LINE
  5
9DE
330
1F
100
AcDbEntity
  8
NOCUT
  6
CONTINUOUS
370
25
 62
7
100
AcDbLine
 10
6.294
 20
0.19245
 30
0.0
 11
-0.01
 21
1.99995
 31
0.0
  0
LINE
  5
9DF
330
1F
100
AcDbEntity
  8
NOCUT
  6
CONTINUOUS
370
25
 62
7
100
AcDbLine
 10
-0.01
 20
1.99995
 30
0.0
 11
-0.01
 21
0.0
 31
0.0
  0
LINE
  5
9E0
330
1F
100
AcDbEntity
  8
SK1
  6
CONTINUOUS
370
50
 62
4
100
AcDbLine
 10
-0.01
 20
2.0
 30
0.0
 11
-42.406
 21
2.0
 31
0.0
  0
LINE
  5
9E1
330
1F
100
AcDbEntity
  8
SK1
  6
CONTINUOUS
370
50
 62
4
100
AcDbLine
 10
-42.406
 20
2.0
 30
0.0
 11
-42.706
 21
1.7
 31
0.0
  0
LINE
  5
9E2
330
1F
100
AcDbEntity
  8
SK1
  6
CONTINUOUS
370
50
 62
4
100
AcDbLine
 10
-42.706
 20
1.7
 30
0.0
 11
-42.706
 21
-1.7
 31
0.0
  0
LINE
  5
9E3
330
1F
100
AcDbEntity
  8
SK1
  6
CONTINUOUS
370
50
 62
4
100
AcDbLine
 10
-42.706
 20
-1.7
 30
0.0
 11
-42.406
 21
-2.0
 31
0.0
  0
LINE
  5
9E4
330
1F
100
AcDbEntity
  8
SK1
  6
CONTINUOUS
370
50
 62
4
100
AcDbLine
 10
-42.406
 20
-2.0
 30
0.0
 11
-0.01
 21
-2.0
 31
0.0
  0
LINE
  5
9E5
330
1F
100
AcDbEntity
  8
SK1
  6
CONTINUOUS
370
50
 62
4
100
AcDbLine
 10
-42.406
 20
2.0
 30
0.0
 11
-42.406
 21
-2.0
 31
0.0
  0
LINE
  5
9E6
330
1F
100
AcDbEntity
  8
SK2
  6
CONTINUOUS
370
25
 62
7
100
AcDbLine
 10
-54.70600019999999
 20
-2.000001
 30
0.0
 11
-55.70600000000007
 21
-2.000001
 31
0.0
  0
LINE
  5
9E7
330
1F
100
AcDbEntity
  8
SK2
  6
CONTINUOUS
370
25
 62
7
100
AcDbLine
 10
-42.706
 20
-2.000001
 30
0.0
 11
-54.70599979999999
 21
-2.000001
 31
0.0
  0
LINE
  5
9E8
330
1F
100
AcDbEntity
  8
SK2
  6
CONTINUOUS
370
25
 62
7
100
AcDbLine
 10
-55.706
 20
2.0
 30
0.0
 11
-42.706
 21
2.0
 31
0.0
  0
LINE
  5
9E9
330
1F
100
AcDbEntity
  8
SK2
  6
CONTINUOUS
370
25
 62
7
100
AcDbLine
 10
-54.706
 20
-9.0
 30
0.0
 11
-54.706
 21
15.475
 31
0.0
  0
LINE
  5
9EA
330
1F
100
AcDbEntity
  8
SK2
  6
CONTINUOUS
370
25
 62
7
100
AcDbLine
 10
-54.706
 20
-2.0
 30
0.0
 11
-53.706
 21
-7.0
 31
0.0
  0
LINE
  5
9EB
330
1F
100
AcDbEntity
  8
SK2
  6
CONTINUOUS
370
25
 62
7
100
AcDbLine
 10
-53.706
 20
-7.0
 30
0.0
 11
-55.706
 21
-7.0
 31
0.0
  0
LINE
  5
9EC
330
1F
100
AcDbEntity
  8
SK2
  6
CONTINUOUS
370
25
 62
7
100
AcDbLine
 10
-55.706
 20
-7.0
 30
0.0
 11
-54.706
 21
-2.0
 31
0.0
  0
LINE
  5
9ED
330
1F
100
AcDbEntity
  8
SK2
  6
CONTINUOUS
370
25
 62
7
100
AcDbLine
 10
-54.10331162702404
 20
-7.0
 30
0.0
 11
-53.772218604504
 21
-6.668906977479963
 31
0.0
  0
LINE
  5
9EE
330
1F
100
AcDbEntity
  8
SK2
  6
CONTINUOUS
370
25
 62
7
100
AcDbLine
 10
-54.52757569573598
 20
-7.0
 30
0.0
 11
-53.84292928262267
 21
-6.315353586886694
 31
0.0
  0
LINE
  5
9EF
330
1F
100
AcDbEntity
  8
SK2
  6
CONTINUOUS
370
25
 62
7
100
AcDbLine
 10
-54.9518397644479
 20
-7.0
 30
0.0
 11
-53.91363996074132
 21
-5.961800196293417
 31
0.0
  0
LINE
  5
9F0
330
1F
100
AcDbEntity
  8
SK2
  6
CONTINUOUS
370
25
 62
7
100
AcDbLine
 10
-55.37610383315983
 20
-7.0
 30
0.0
 11
-53.98435063885998
 21
-5.608246805700148
 31
0.0
  0
LINE
  5
9F1
330
1F
100
AcDbEntity
  8
SK2
  6
CONTINUOUS
370
25
 62
7
100
AcDbLine
 10
-55.68240802453207
 20
-6.8820401226603
 30
0.0
 11
-54.05506131697863
 21
-5.254693415106864
 31
0.0
  0
LINE
  5
9F2
330
1F
100
AcDbEntity
  8
SK2
  6
CONTINUOUS
370
25
 62
7
100
AcDbLine
 10
-55.57634200735408
 20
-6.351710036770378
 30
0.0
 11
-54.12577199509729
 21
-4.901140024513587
 31
0.0
  0
LINE
  5
9F3
330
1F
100
AcDbEntity
  8
SK2
  6
CONTINUOUS
370
25
 62
7
100
AcDbLine
 10
-55.4702759901761
 20
-5.82137995088047
 30
0.0
 11
-54.19648267321594
 21
-4.547586633920311
 31
0.0
  0
LINE
  5
9F4
330
1F
100
AcDbEntity
  8
SK2
  6
CONTINUOUS
370
25
 62
7
100
AcDbLine
 10
-55.36420997299812
 20
-5.291049864990562
 30
0.0
 11
-54.26719335133459
 21
-4.194033243327034
 31
0.0
  0
LINE
  5
9F5
330
1F
100
AcDbEntity
  8
SK2
  6
CONTINUOUS
370
25
 62
7
100
AcDbLine
 10
-55.25814395582014
 20
-4.760719779100647
 30
0.0
 11
-54.33790402945325
 21
-3.840479852733758
 31
0.0
  0
LINE
  5
9F6
330
1F
100
AcDbEntity
  8
SK2
  6
CONTINUOUS
370
25
 62
7
100
AcDbLine
 10
-55.15207793864215
 20
-4.230389693210725
 30
0.0
 11
-54.40861470757191
 21
-3.486926462140481
 31
0.0
  0
LINE
  5
9F7
330
1F
100
AcDbEntity
  8
SK2
  6
CONTINUOUS
370
25
 62
7
100
AcDbLine
 10
-55.04601192146417
 20
-3.700059607320817
 30
0.0
 11
-54.47932538569057
 21
-3.133373071547211
 31
0.0
  0
LINE
  5
9F8
330
1F
100
AcDbEntity
  8
SK2
  6
CONTINUOUS
370
25
 62
7
100
AcDbLine
 10
-54.93994590428618
 20
-3.169729521430902
 30
0.0
 11
-54.55003606380922
 21
-2.779819680953935
 31
0.0
  0
LINE
  5
9F9
330
1F
100
AcDbEntity
  8
SK2
  6
CONTINUOUS
370
25
 62
7
100
AcDbLine
 10
-54.8338798871082
 20
-2.639399435540987
 30
0.0
 11
-54.62074674192787
 21
-2.426266290360651
 31
0.0
  0
LINE
  5
9FA
330
1F
100
AcDbEntity
  8
SK2
  6
CONTINUOUS
370
25
 62
7
100
AcDbLine
 10
-54.72781386993022
 20
-2.109069349651065
 30
0.0
 11
-54.69145742004653
 21
-2.072712899767374
 31
0.0
  0
LINE
  5
9FB
330
1F
100
AcDbEntity
  8
SK2
  6
CONTINUOUS
370
25
 62
7
100
AcDbLine
 10
-55.63686933607925
 20
-6.654346680396245
 30
0.0
 11
-55.2912160164755
 21
-7.0
 31
0.0
  0
LINE
  5
9FC
330
1F
100
AcDbEntity
  8
SK2
  6
CONTINUOUS
370
25
 62
7
100
AcDbLine
 10
-55.5661586579606
 20
-6.300793289802961
 30
0.0
 11
-54.86695194776356
 21
-7.0
 31
0.0
  0
LINE
  5
9FD
330
1F
100
AcDbEntity
  8
SK2
  6
CONTINUOUS
370
25
 62
7
100
AcDbLine
 10
-55.49544797984195
 20
-5.947239899209684
 30
0.0
 11
-54.44268787905163
 21
-7.0
 31
0.0
  0
LINE
  5
9FE
330
1F
100
AcDbEntity
  8
SK2
  6
CONTINUOUS
370
25
 62
7
100
AcDbLine
 10
-55.42473730172328
 20
-5.593686508616415
 30
0.0
 11
-54.0184238103397
 21
-7.0
 31
0.0
  0
LINE
  5
9FF
330
1F
100
AcDbEntity
  8
SK2
  6
CONTINUOUS
370
25
 62
7
100
AcDbLine
 10
-55.35402662360463
 20
-5.240133118023131
 30
0.0
 11
-53.73396006459306
 21
-6.8601996770347
 31
0.0
  0
LINE
  5
A00
330
1F
100
AcDbEntity
  8
SK2
  6
CONTINUOUS
370
25
 62
7
100
AcDbLine
 10
-55.28331594548597
 20
-4.886579727429861
 30
0.0
 11
-53.84002608177104
 21
-6.329869591144792
 31
0.0
  0
LINE
  5
A01
330
1F
100
AcDbEntity
  8
SK2
  6
CONTINUOUS
370
25
 62
7
100
AcDbLine
 10
-55.21260526736732
 20
-4.533026336836578
 30
0.0
 11
-53.94609209894902
 21
-5.799539505254877
 31
0.0
  0
LINE
  5
A02
330
1F
100
AcDbEntity
  8
SK2
  6
CONTINUOUS
370
25
 62
7
100
AcDbLine
 10
-55.14189458924867
 20
-4.179472946243301
 30
0.0
 11
-54.052158116127
 21
-5.269209419364969
 31
0.0
  0
LINE
  5
A03
330
1F
100
AcDbEntity
  8
SK2
  6
CONTINUOUS
370
25
 62
7
100
AcDbLine
 10
-55.07118391113001
 20
-3.825919555650025
 30
0.0
 11
-54.15822413330499
 21
-4.738879333475047
 31
0.0
  0
LINE
  5
A04
330
1F
100
AcDbEntity
  8
SK2
  6
CONTINUOUS
370
25
 62
7
100
AcDbLine
 10
-55.00047323301136
 20
-3.472366165056762
 30
0.0
 11
-54.26429015048297
 21
-4.20854924758514
 31
0.0
  0
LINE
  5
A05
330
1F
100
AcDbEntity
  8
SK2
  6
CONTINUOUS
370
25
 62
7
100
AcDbLine
 10
-54.9297625548927
 20
-3.118812774463485
 30
0.0
 11
-54.37035616766096
 21
-3.678219161695218
 31
0.0
  0
LINE
  5
A06
330
1F
100
AcDbEntity
  8
SK2
  6
CONTINUOUS
370
25
 62
7
100
AcDbLine
 10
-54.85905187677404
 20
-2.765259383870209
 30
0.0
 11
-54.47642218483895
 21
-3.147889075805303
 31
0.0
  0
LINE
  5
A07
330
1F
100
AcDbEntity
  8
SK2
  6
CONTINUOUS
370
25
 62
7
100
AcDbLine
 10
-54.78834119865538
 20
-2.411705993276939
 30
0.0
 11
-54.58248820201693
 21
-2.617558989915395
 31
0.0
  0
LINE
  5
A08
330
1F
100
AcDbEntity
  8
SK2
  6
CONTINUOUS
370
25
 62
7
100
AcDbLine
 10
-54.71763052053673
 20
-2.058152602683656
 30
0.0
 11
-54.68855421919491
 21
-2.08722890402548
 31
0.0
  0
LINE
  5
A09
330
1F
100
AcDbEntity
  8
SK2
  6
CONTINUOUS
370
25
 62
7
100
AcDbLine
 10
-54.706
 20
2.0
 30
0.0
 11
-55.706
 21
7.0
 31
0.0
  0
LINE
  5
A0A
330
1F
100
AcDbEntity
  8
SK2
  6
CONTINUOUS
370
25
 62
7
100
AcDbLine
 10
-55.706
 20
7.0
 30
0.0
 11
-53.706
 21
7.0
 31
0.0
  0
LINE
  5
A0B
330
1F
100
AcDbEntity
  8
SK2
  6
CONTINUOUS
370
25
 62
7
100
AcDbLine
 10
-53.706
 20
7.0
 30
0.0
 11
-54.706
 21
2.0
 31
0.0
  0
LINE
  5
A0C
330
1F
100
AcDbEntity
  8
SK2
  6
CONTINUOUS
370
25
 62
7
100
AcDbLine
 10
-54.7318975345664
 20
2.129487672831985
 30
0.0
 11
-54.66715369815041
 21
2.194231509247977
 31
0.0
  0
LINE
  5
A0D
330
1F
100
AcDbEntity
  8
SK2
  6
CONTINUOUS
370
25
 62
7
100
AcDbLine
 10
-54.80260821268505
 20
2.483041063425269
 30
0.0
 11
-54.56108768097243
 21
2.724561595137892
 31
0.0
  0
LINE
  5
A0E
330
1F
100
AcDbEntity
  8
SK2
  6
CONTINUOUS
370
25
 62
7
100
AcDbLine
 10
-54.8733188908037
 20
2.836594454018545
 30
0.0
 11
-54.45502166379445
 21
3.2548916810278
 31
0.0
  0
LINE
  5
A0F
330
1F
100
AcDbEntity
  8
SK2
  6
CONTINUOUS
370
25
 62
7
100
AcDbLine
 10
-54.94402956892236
 20
3.190147844611822
 30
0.0
 11
-54.34895564661646
 21
3.785221766917722
 31
0.0
  0
LINE
  5
A10
330
1F
100
AcDbEntity
  8
SK2
  6
CONTINUOUS
370
25
 62
7
100
AcDbLine
 10
-55.01474024704101
 20
3.543701235205098
 30
0.0
 11
-54.24288962943848
 21
4.31555185280763
 31
0.0
  0
LINE
  5
A11
330
1F
100
AcDbEntity
  8
SK2
  6
CONTINUOUS
370
25
 62
7
100
AcDbLine
 10
-55.08545092515968
 20
3.897254625798368
 30
0.0
 11
-54.13682361226049
 21
4.845881938697552
 31
0.0
  0
LINE
  5
A12
330
1F
100
AcDbEntity
  8
SK2
  6
CONTINUOUS
370
25
 62
7
100
AcDbLine
 10
-55.15616160327833
 20
4.250808016391652
 30
0.0
 11
-54.03075759508251
 21
5.376212024587467
 31
0.0
  0
LINE
  5
A13
330
1F
100
AcDbEntity
  8
SK2
  6
CONTINUOUS
370
25
 62
7
100
AcDbLine
 10
-55.22687228139699
 20
4.604361406984914
 30
0.0
 11
-53.92469157790452
 21
5.906542110477382
 31
0.0
  0
LINE
  5
A14
330
1F
100
AcDbEntity
  8
SK2
  6
CONTINUOUS
370
25
 62
7
100
AcDbLine
 10
-55.29758295951564
 20
4.957914797578191
 30
0.0
 11
-53.81862556072654
 21
6.436872196367297
 31
0.0
  0
LINE
  5
A15
330
1F
100
AcDbEntity
  8
SK2
  6
CONTINUOUS
370
25
 62
7
100
AcDbLine
 10
-55.3682936376343
 20
5.311468188171467
 30
0.0
 11
-53.71255954354856
 21
6.967202282257205
 31
0.0
  0
LINE
  5
A16
330
1F
100
AcDbEntity
  8
SK2
  6
CONTINUOUS
370
25
 62
7
100
AcDbLine
 10
-55.43900431575296
 20
5.665021578764737
 30
0.0
 11
-54.1040258945177
 21
7.0
 31
0.0
  0
LINE
  5
A17
330
1F
100
AcDbEntity
  8
SK2
  6
CONTINUOUS
370
25
 62
7
100
AcDbLine
 10
-55.5097149938716
 20
6.018574969358021
 30
0.0
 11
-54.52828996322962
 21
7.0
 31
0.0
  0
LINE
  5
A18
330
1F
100
AcDbEntity
  8
SK2
  6
CONTINUOUS
370
25
 62
7
100
AcDbLine
 10
-55.58042567199026
 20
6.372128359951297
 30
0.0
 11
-54.95255403194156
 21
7.0
 31
0.0
  0
LINE
  5
A19
330
1F
100
AcDbEntity
  8
SK2
  6
CONTINUOUS
370
25
 62
7
100
AcDbLine
 10
-55.65113635010892
 20
6.725681750544574
 30
0.0
 11
-55.37681810065349
 21
7.0
 31
0.0
  0
LINE
  5
A1A
330
1F
100
AcDbEntity
  8
SK2
  6
CONTINUOUS
370
25
 62
7
100
AcDbLine
 10
-54.79444166949947
 20
2.442208347497342
 30
0.0
 11
-54.64703888700036
 21
2.294805564998228
 31
0.0
  0
LINE
  5
A1B
330
1F
100
AcDbEntity
  8
SK2
  6
CONTINUOUS
370
25
 62
7
100
AcDbLine
 10
-54.90050768667746
 20
2.972538433387257
 30
0.0
 11
-54.5763282088817
 21
2.648358955591497
 31
0.0
  0
LINE
  5
A1C
330
1F
100
AcDbEntity
  8
SK2
  6
CONTINUOUS
370
25
 62
7
100
AcDbLine
 10
-55.00657370385544
 20
3.502868519277165
 30
0.0
 11
-54.50561753076305
 21
3.001912346184774
 31
0.0
  0
LINE
  5
A1D
330
1F
100
AcDbEntity
  8
SK2
  6
CONTINUOUS
370
25
 62
7
100
AcDbLine
 10
-55.11263972103342
 20
4.03319860516708
 30
0.0
 11
-54.4349068526444
 21
3.355465736778058
 31
0.0
  0
LINE
  5
A1E
330
1F
100
AcDbEntity
  8
SK2
  6
CONTINUOUS
370
25
 62
7
100
AcDbLine
 10
-55.2187057382114
 20
4.563528691056995
 30
0.0
 11
-54.36419617452574
 21
3.709019127371334
 31
0.0
  0
LINE
  5
A1F
330
1F
100
AcDbEntity
  8
SK2
  6
CONTINUOUS
370
25
 62
7
100
AcDbLine
 10
-55.32477175538939
 20
5.093858776946917
 30
0.0
 11
-54.29348549640708
 21
4.062572517964611
 31
0.0
  0
LINE
  5
A20
330
1F
100
AcDbEntity
  8
SK2
  6
CONTINUOUS
370
25
 62
7
100
AcDbLine
 10
-55.43083777256737
 20
5.624188862836832
 30
0.0
 11
-54.22277481828842
 21
4.416125908557888
 31
0.0
  0
LINE
  5
A21
330
1F
100
AcDbEntity
  8
SK2
  6
CONTINUOUS
370
25
 62
7
100
AcDbLine
 10
-55.53690378974535
 20
6.154518948726739
 30
0.0
 11
-54.15206414016977
 21
4.769679299151164
 31
0.0
  0
LINE
  5
A22
330
1F
100
AcDbEntity
  8
SK2
  6
CONTINUOUS
370
25
 62
7
100
AcDbLine
 10
-55.64296980692334
 20
6.684849034616654
 30
0.0
 11
-54.0813534620511
 21
5.123232689744427
 31
0.0
  0
LINE
  5
A23
330
1F
100
AcDbEntity
  8
SK2
  6
CONTINUOUS
370
25
 62
7
100
AcDbLine
 10
-55.53385670359475
 20
7.0
 30
0.0
 11
-54.01064278393245
 21
5.476786080337703
 31
0.0
  0
LINE
  5
A24
330
1F
100
AcDbEntity
  8
SK2
  6
CONTINUOUS
370
25
 62
7
100
AcDbLine
 10
-55.10959263488282
 20
7.0
 30
0.0
 11
-53.9399321058138
 21
5.83033947093098
 31
0.0
  0
LINE
  5
A25
330
1F
100
AcDbEntity
  8
SK2
  6
CONTINUOUS
370
25
 62
7
100
AcDbLine
 10
-54.68532856617089
 20
7.0
 30
0.0
 11
-53.86922142769515
 21
6.183892861524264
 31
0.0
  0
LINE
  5
A26
330
1F
100
AcDbEntity
  8
SK2
  6
CONTINUOUS
370
25
 62
7
100
AcDbLine
 10
-54.26106449745895
 20
7.0
 30
0.0
 11
-53.7985107495765
 21
6.537446252117547
 31
0.0
  0
LINE
  5
A27
330
1F
100
AcDbEntity
  8
SK2
  6
CONTINUOUS
370
25
 62
7
100
AcDbLine
 10
-53.83680042874703
 20
7.0
 30
0.0
 11
-53.72780007145784
 21
6.89099964271081
 31
0.0
  0
TEXT
  5
A28
330
1F
100
AcDbEntity
  8
SK2
  6
CONTINUOUS
370
25
 62
7
100
AcDbText
 10
-56.206
 20
12.34583333333333
 30
0.0
 40
3.5
  1
4
 50
90.00000000000001
 72
     1
 11
-56.206
 21
13.5125
 31
0.0
100
AcDbText
  0
CIRCLE
  5
A29
330
1F
100
AcDbEntity
  8
SK2
  6
CONTINUOUS
370
25
 62
7
100
AcDbCircle
 10
-57.956
 20
10.1875
 30
0.0
 40
1.4
  0
LINE
  5
A2A
330
1F
100
AcDbEntity
  8
SK2
  6
CONTINUOUS
370
25
 62
7
100
AcDbLine
 10
-56.556
 20
8.787500000000001
 30
0.0
 11
-59.35599999999999
 21
11.5875
 31
0.0
  0
LINE
  5
A2B
330
1F
100
AcDbEntity
  8
SK2
  6
CONTINUOUS
370
25
 62
7
100
AcDbLine
 10
-42.706
 20
2.0
 30
0.0
 11
-42.706
 21
15.0
 31
0.0
  0
LINE
  5
A2C
330
1F
100
AcDbEntity
  8
SK2
  6
CONTINUOUS
370
25
 62
7
100
AcDbLine
 10
-0.0099999999999999
 20
15.0
 30
0.0
 11
-0.0100000000000007
 21
2.0
 31
0.0
  0
LINE
  5
A2D
330
1F
100
AcDbEntity
  8
SK2
  6
CONTINUOUS
370
25
 62
7
100
AcDbLine
 10
-42.706
 20
14.0
 30
0.0
 11
-0.01
 21
14.0
 31
0.0
  0
LINE
  5
A2E
330
1F
100
AcDbEntity
  8
SK2
  6
CONTINUOUS
370
25
 62
7
100
AcDbLine
 10
-42.706
 20
14.0
 30
0.0
 11
-37.706
 21
15.0
 31
0.0
  0
LINE
  5
A2F
330
1F
100
AcDbEntity
  8
SK2
  6
CONTINUOUS
370
25
 62
7
100
AcDbLine
 10
-37.706
 20
15.0
 30
0.0
 11
-37.706
 21
13.0
 31
0.0
  0
LINE
  5
A30
330
1F
100
AcDbEntity
  8
SK2
  6
CONTINUOUS
370
25
 62
7
100
AcDbLine
 10
-37.706
 20
13.0
 30
0.0
 11
-42.706
 21
14.0
 31
0.0
  0
LINE
  5
A31
330
1F
100
AcDbEntity
  8
SK2
  6
CONTINUOUS
370
25
 62
7
100
AcDbLine
 10
-37.88574020452617
 20
13.03594804090523
 30
0.0
 11
-37.706
 21
13.21568824543139
 31
0.0
  0
LINE
  5
A32
330
1F
100
AcDbEntity
  8
SK2
  6
CONTINUOUS
370
25
 62
7
100
AcDbLine
 10
-38.23929359511944
 20
13.10665871902388
 30
0.0
 11
-37.706
 21
13.63995231414333
 31
0.0
  0
LINE
  5
A33
330
1F
100
AcDbEntity
  8
SK2
  6
CONTINUOUS
370
25
 62
7
100
AcDbLine
 10
-38.59284698571271
 20
13.17736939714254
 30
0.0
 11
-37.706
 21
14.06421638285526
 31
0.0
  0
LINE
  5
A34
330
1F
100
AcDbEntity
  8
SK2
  6
CONTINUOUS
370
25
 62
7
100
AcDbLine
 10
-38.94640037630599
 20
13.24808007526119
 30
0.0
 11
-37.706
 21
14.48848045156719
 31
0.0
  0
LINE
  5
A35
330
1F
100
AcDbEntity
  8
SK2
  6
CONTINUOUS
370
25
 62
7
100
AcDbLine
 10
-39.29995376689926
 20
13.31879075337985
 30
0.0
 11
-37.706
 21
14.91274452027912
 31
0.0
  0
LINE
  5
A36
330
1F
100
AcDbEntity
  8
SK2
  6
CONTINUOUS
370
25
 62
7
100
AcDbLine
 10
-39.65350715749255
 20
13.3895014314985
 30
0.0
 11
-38.12726073623881
 21
14.91574785275224
 31
0.0
  0
LINE
  5
A37
330
1F
100
AcDbEntity
  8
SK2
  6
CONTINUOUS
370
25
 62
7
100
AcDbLine
 10
-40.00706054808582
 20
13.46021210961716
 30
0.0
 11
-38.65759082212872
 21
14.80968183557426
 31
0.0
  0
LINE
  5
A38
330
1F
100
AcDbEntity
  8
SK2
  6
CONTINUOUS
370
25
 62
7
100
AcDbLine
 10
-40.36061393867909
 20
13.53092278773582
 30
0.0
 11
-39.18792090801864
 21
14.70361581839627
 31
0.0
  0
LINE
  5
A39
330
1F
100
AcDbEntity
  8
SK2
  6
CONTINUOUS
370
25
 62
7
100
AcDbLine
 10
-40.71416732927237
 20
13.60163346585447
 30
0.0
 11
-39.71825099390855
 21
14.59754980121829
 31
0.0
  0
LINE
  5
A3A
330
1F
100
AcDbEntity
  8
SK2
  6
CONTINUOUS
370
25
 62
7
100
AcDbLine
 10
-41.06772071986565
 20
13.67234414397313
 30
0.0
 11
-40.24858107979847
 21
14.49148378404031
 31
0.0
  0
LINE
  5
A3B
330
1F
100
AcDbEntity
  8
SK2
  6
CONTINUOUS
370
25
 62
7
100
AcDbLine
 10
-41.42127411045892
 20
13.74305482209178
 30
0.0
 11
-40.77891116568838
 21
14.38541776686233
 31
0.0
  0
LINE
  5
A3C
330
1F
100
AcDbEntity
  8
SK2
  6
CONTINUOUS
370
25
 62
7
100
AcDbLine
 10
-41.7748275010522
 20
13.81376550021044
 30
0.0
 11
-41.3092412515783
 21
14.27935174968434
 31
0.0
  0
LINE
  5
A3D
330
1F
100
AcDbEntity
  8
SK2
  6
CONTINUOUS
370
25
 62
7
100
AcDbLine
 10
-42.12838089164548
 20
13.88447617832909
 30
0.0
 11
-41.83957133746821
 21
14.17328573250636
 31
0.0
  0
LINE
  5
A3E
330
1F
100
AcDbEntity
  8
SK2
  6
CONTINUOUS
370
25
 62
7
100
AcDbLine
 10
-42.48193428223875
 20
13.95518685644775
 30
0.0
 11
-42.36990142335812
 21
14.06721971532838
 31
0.0
  0
LINE
  5
A3F
330
1F
100
AcDbEntity
  8
SK2
  6
CONTINUOUS
370
25
 62
7
100
AcDbLine
 10
-42.56373769881835
 20
14.02845246023633
 30
0.0
 11
-42.49260654822752
 21
13.9573213096455
 31
0.0
  0
LINE
  5
A40
330
1F
100
AcDbEntity
  8
SK2
  6
CONTINUOUS
370
25
 62
7
100
AcDbLine
 10
-42.21018430822507
 20
14.09916313835499
 30
0.0
 11
-41.96227646233761
 21
13.85125529246752
 31
0.0
  0
LINE
  5
A41
330
1F
100
AcDbEntity
  8
SK2
  6
CONTINUOUS
370
25
 62
7
100
AcDbLine
 10
-41.85663091763179
 20
14.16987381647364
 30
0.0
 11
-41.43194637644769
 21
13.74518927528954
 31
0.0
  0
LINE
  5
A42
330
1F
100
AcDbEntity
  8
SK2
  6
CONTINUOUS
370
25
 62
7
100
AcDbLine
 10
-41.50307752703852
 20
14.2405844945923
 30
0.0
 11
-40.90161629055778
 21
13.63912325811155
 31
0.0
  0
LINE
  5
A43
330
1F
100
AcDbEntity
  8
SK2
  6
CONTINUOUS
370
25
 62
7
100
AcDbLine
 10
-41.14952413644524
 20
14.31129517271095
 30
0.0
 11
-40.37128620466787
 21
13.53305724093357
 31
0.0
  0
LINE
  5
A44
330
1F
100
AcDbEntity
  8
SK2
  6
CONTINUOUS
370
25
 62
7
100
AcDbLine
 10
-40.79597074585197
 20
14.38200585082961
 30
0.0
 11
-39.84095611877795
 21
13.42699122375559
 31
0.0
  0
LINE
  5
A45
330
1F
100
AcDbEntity
  8
SK2
  6
CONTINUOUS
370
25
 62
7
100
AcDbLine
 10
-40.4424173552587
 20
14.45271652894826
 30
0.0
 11
-39.31062603288804
 21
13.32092520657761
 31
0.0
  0
LINE
  5
A46
330
1F
100
AcDbEntity
  8
SK2
  6
CONTINUOUS
370
25
 62
7
100
AcDbLine
 10
-40.08886396466542
 20
14.52342720706692
 30
0.0
 11
-38.78029594699812
 21
13.21485918939963
 31
0.0
  0
LINE
  5
A47
330
1F
100
AcDbEntity
  8
SK2
  6
CONTINUOUS
370
25
 62
7
100
AcDbLine
 10
-39.73531057407214
 20
14.59413788518557
 30
0.0
 11
-38.24996586110821
 21
13.10879317222164
 31
0.0
  0
LINE
  5
A48
330
1F
100
AcDbEntity
  8
SK2
  6
CONTINUOUS
370
25
 62
7
100
AcDbLine
 10
-39.38175718347887
 20
14.66484856330423
 30
0.0
 11
-37.71963577521829
 21
13.00272715504366
 31
0.0
  0
LINE
  5
A49
330
1F
100
AcDbEntity
  8
SK2
  6
CONTINUOUS
370
25
 62
7
100
AcDbLine
 10
-39.02820379288559
 20
14.73555924142289
 30
0.0
 11
-37.706
 21
13.41335544853729
 31
0.0
  0
LINE
  5
A4A
330
1F
100
AcDbEntity
  8
SK2
  6
CONTINUOUS
370
25
 62
7
100
AcDbLine
 10
-38.67465040229231
 20
14.80626991954154
 30
0.0
 11
-37.706
 21
13.83761951724922
 31
0.0
  0
LINE
  5
A4B
330
1F
100
AcDbEntity
  8
SK2
  6
CONTINUOUS
370
25
 62
7
100
AcDbLine
 10
-38.32109701169904
 20
14.8769805976602
 30
0.0
 11
-37.706
 21
14.26188358596115
 31
0.0
  0
LINE
  5
A4C
330
1F
100
AcDbEntity
  8
SK2
  6
CONTINUOUS
370
25
 62
7
100
AcDbLine
 10
-37.96754362110576
 20
14.94769127577885
 30
0.0
 11
-37.706
 21
14.68614765467309
 31
0.0
  0
LINE
  5
A4D
330
1F
100
AcDbEntity
  8
SK2
  6
CONTINUOUS
370
25
 62
7
100
AcDbLine
 10
-0.01
 20
14.0
 30
0.0
 11
-5.01
 21
13.0
 31
0.0
  0
LINE
  5
A4E
330
1F
100
AcDbEntity
  8
SK2
  6
CONTINUOUS
370
25
 62
7
100
AcDbLine
 10
-5.01
 20
13.0
 30
0.0
 11
-5.01
 21
15.0
 31
0.0
  0
LINE
  5
A4F
330
1F
100
AcDbEntity
  8
SK2
  6
CONTINUOUS
370
25
 62
7
100
AcDbLine
 10
-5.01
 20
15.0
 30
0.0
 11
-0.01
 21
14.0
 31
0.0
  0
LINE
  5
A50
330
1F
100
AcDbEntity
  8
SK2
  6
CONTINUOUS
370
25
 62
7
100
AcDbLine
 10
-0.01089283436705
 20
13.99982143312659
 30
0.0
 11
-0.0105952229113667
 21
14.00011904458227
 31
0.0
  0
LINE
  5
A51
330
1F
100
AcDbEntity
  8
SK2
  6
CONTINUOUS
370
25
 62
7
100
AcDbLine
 10
-0.5412229202569596
 20
13.89375541594861
 30
0.0
 11
-0.3641486135046398
 21
14.07082972270093
 31
0.0
  0
LINE
  5
A52
330
1F
100
AcDbEntity
  8
SK2
  6
CONTINUOUS
370
25
 62
7
100
AcDbLine
 10
-1.071553006146869
 20
13.78768939877063
 30
0.0
 11
-0.7177020040979128
 21
14.14154040081958
 31
0.0
  0
LINE
  5
A53
330
1F
100
AcDbEntity
  8
SK2
  6
CONTINUOUS
370
25
 62
7
100
AcDbLine
 10
-1.601883092036781
 20
13.68162338159264
 30
0.0
 11
-1.071255394691187
 21
14.21225107893824
 31
0.0
  0
LINE
  5
A54
330
1F
100
AcDbEntity
  8
SK2
  6
CONTINUOUS
370
25
 62
7
100
AcDbLine
 10
-2.13221317792669
 20
13.57555736441466
 30
0.0
 11
-1.42480878528446
 21
14.28296175705689
 31
0.0
  0
LINE
  5
A55
330
1F
100
AcDbEntity
  8
SK2
  6
CONTINUOUS
370
25
 62
7
100
AcDbLine
 10
-2.662543263816599
 20
13.46949134723668
 30
0.0
 11
-1.778362175877733
 21
14.35367243517555
 31
0.0
  0
LINE
  5
A56
330
1F
100
AcDbEntity
  8
SK2
  6
CONTINUOUS
370
25
 62
7
100
AcDbLine
 10
-3.192873349706508
 20
13.3634253300587
 30
0.0
 11
-2.131915566471005
 21
14.4243831132942
 31
0.0
  0
LINE
  5
A57
330
1F
100
AcDbEntity
  8
SK2
  6
CONTINUOUS
370
25
 62
7
100
AcDbLine
 10
-3.723203435596417
 20
13.25735931288072
 30
0.0
 11
-2.485468957064279
 21
14.49509379141286
 31
0.0
  0
LINE
  5
A58
330
1F
100
AcDbEntity
  8
SK2
  6
CONTINUOUS
370
25
 62
7
100
AcDbLine
 10
-4.253533521486326
 20
13.15129329570274
 30
0.0
 11
-2.839022347657552
 21
14.56580446953151
 31
0.0
  0
LINE
  5
A59
330
1F
100
AcDbEntity
  8
SK2
  6
CONTINUOUS
370
25
 62
7
100
AcDbLine
 10
-4.783863607376236
 20
13.04522727852475
 30
0.0
 11
-3.192575738250825
 21
14.63651514765017
 31
0.0
  0
LINE
  5
A5A
330
1F
100
AcDbEntity
  8
SK2
  6
CONTINUOUS
370
25
 62
7
100
AcDbLine
 10
-5.01
 20
13.24335495461292
 30
0.0
 11
-3.546129128844097
 21
14.70722582576882
 31
0.0
  0
LINE
  5
A5B
330
1F
100
AcDbEntity
  8
SK2
  6
CONTINUOUS
370
25
 62
7
100
AcDbLine
 10
-5.01
 20
13.66761902332485
 30
0.0
 11
-3.899682519437373
 21
14.77793650388747
 31
0.0
  0
LINE
  5
A5C
330
1F
100
AcDbEntity
  8
SK2
  6
CONTINUOUS
370
25
 62
7
100
AcDbLine
 10
-5.01
 20
14.09188309203677
 30
0.0
 11
-4.253235910030646
 21
14.84864718200613
 31
0.0
  0
LINE
  5
A5D
330
1F
100
AcDbEntity
  8
SK2
  6
CONTINUOUS
370
25
 62
7
100
AcDbLine
 10
-5.01
 20
14.5161471607487
 30
0.0
 11
-4.606789300623919
 21
14.91935786012478
 31
0.0
  0
LINE
  5
A5E
330
1F
100
AcDbEntity
  8
SK2
  6
CONTINUOUS
370
25
 62
7
100
AcDbLine
 10
-5.01
 20
14.94041122946063
 30
0.0
 11
-4.960342691217191
 21
14.99006853824344
 31
0.0
  0
LINE
  5
A5F
330
1F
100
AcDbEntity
  8
SK2
  6
CONTINUOUS
370
25
 62
7
100
AcDbLine
 10
-5.01
 20
13.06101730552664
 30
0.0
 11
-4.959152245394465
 21
13.01016955092111
 31
0.0
  0
LINE
  5
A60
330
1F
100
AcDbEntity
  8
SK2
  6
CONTINUOUS
370
25
 62
7
100
AcDbLine
 10
-5.01
 20
13.48528137423857
 30
0.0
 11
-4.60559885480119
 21
13.08088022903976
 31
0.0
  0
LINE
  5
A61
330
1F
100
AcDbEntity
  8
SK2
  6
CONTINUOUS
370
25
 62
7
100
AcDbLine
 10
-5.01
 20
13.9095454429505
 30
0.0
 11
-4.252045464207918
 21
13.15159090715842
 31
0.0
  0
LINE
  5
A62
330
1F
100
AcDbEntity
  8
SK2
  6
CONTINUOUS
370
25
 62
7
100
AcDbLine
 10
-5.01
 20
14.33380951166242
 30
0.0
 11
-3.898492073614645
 21
13.22230158527707
 31
0.0
  0
LINE
  5
A63
330
1F
100
AcDbEntity
  8
SK2
  6
CONTINUOUS
370
25
 62
7
100
AcDbLine
 10
-5.01
 20
14.75807358037435
 30
0.0
 11
-3.544938683021372
 21
13.29301226339573
 31
0.0
  0
LINE
  5
A64
330
1F
100
AcDbEntity
  8
SK2
  6
CONTINUOUS
370
25
 62
7
100
AcDbLine
 10
-4.78207793864215
 20
14.95441558772843
 30
0.0
 11
-3.191385292428098
 21
13.36372294151438
 31
0.0
  0
LINE
  5
A65
330
1F
100
AcDbEntity
  8
SK2
  6
CONTINUOUS
370
25
 62
7
100
AcDbLine
 10
-4.251747852752241
 20
14.84834957055045
 30
0.0
 11
-2.837831901834826
 21
13.43443361963303
 31
0.0
  0
LINE
  5
A66
330
1F
100
AcDbEntity
  8
SK2
  6
CONTINUOUS
370
25
 62
7
100
AcDbLine
 10
-3.721417766862331
 20
14.74228355337247
 30
0.0
 11
-2.484278511241552
 21
13.50514429775169
 31
0.0
  0
LINE
  5
A67
330
1F
100
AcDbEntity
  8
SK2
  6
CONTINUOUS
370
25
 62
7
100
AcDbLine
 10
-3.19108768097242
 20
14.63621753619448
 30
0.0
 11
-2.130725120648279
 21
13.57585497587034
 31
0.0
  0
LINE
  5
A68
330
1F
100
AcDbEntity
  8
SK2
  6
CONTINUOUS
370
25
 62
7
100
AcDbLine
 10
-2.660757595082508
 20
14.5301515190165
 30
0.0
 11
-1.777171730055004
 21
13.646565653989
 31
0.0
  0
LINE
  5
A69
330
1F
100
AcDbEntity
  8
SK2
  6
CONTINUOUS
370
25
 62
7
100
AcDbLine
 10
-2.130427509192599
 20
14.42408550183852
 30
0.0
 11
-1.423618339461732
 21
13.71727633210765
 31
0.0
  0
LINE
  5
A6A
330
1F
100
AcDbEntity
  8
SK2
  6
CONTINUOUS
370
25
 62
7
100
AcDbLine
 10
-1.600097423302689
 20
14.31801948466054
 30
0.0
 11
-1.070064948868459
 21
13.78798701022631
 31
0.0
  0
LINE
  5
A6B
330
1F
100
AcDbEntity
  8
SK2
  6
CONTINUOUS
370
25
 62
7
100
AcDbLine
 10
-1.069767337412779
 20
14.21195346748256
 30
0.0
 11
-0.716511558275185
 21
13.85869768834496
 31
0.0
  0
LINE
  5
A6C
330
1F
100
AcDbEntity
  8
SK2
  6
CONTINUOUS
370
25
 62
7
100
AcDbLine
 10
-0.5394372515228676
 20
14.10588745030457
 30
0.0
 11
-0.3629581676819114
 21
13.92940836646362
 31
0.0
  0
TEXT
  5
A6D
330
1F
100
AcDbEntity
  8
SK2
  6
CONTINUOUS
370
25
 62
7
100
AcDbText
 10
-30.108
 20
15.5
 30
0.0
 40
3.5
  1
42.696
 72
     1
 11
-21.358
 21
15.5
 31
0.0
100
AcDbText
  0
LINE
  5
A6E
330
1F
100
AcDbEntity
  8
2
  6
CONTINUOUS
370
25
 62
7
100
AcDbLine
 10
7.194000000000001
 20
-0.2
 30
0.0
 11
40.169
 21
-0.200000000000004
 31
0.0
  0
LINE
  5
A6F
330
1F
100
AcDbEntity
  8
2
  6
CONTINUOUS
370
25
 62
7
100
AcDbLine
 10
40.169
 20
0.199999999999996
 30
0.0
 11
7.194000000000001
 21
0.2
 31
0.0
  0
LINE
  5
A70
330
1F
100
AcDbEntity
  8
2
  6
CONTINUOUS
370
25
 62
7
100
AcDbLine
 10
39.169
 20
-7.200000000000004
 30
0.0
 11
39.169
 21
19.625
 31
0.0
  0
LINE
  5
A71
330
1F
100
AcDbEntity
  8
2
  6
CONTINUOUS
370
25
 62
7
100
AcDbLine
 10
39.169
 20
-0.2000000000000039
 30
0.0
 11
40.169
 21
-5.200000000000004
 31
0.0
  0
LINE
  5
A72
330
1F
100
AcDbEntity
  8
2
  6
CONTINUOUS
370
25
 62
7
100
AcDbLine
 10
40.169
 20
-5.200000000000004
 30
0.0
 11
38.169
 21
-5.200000000000004
 31
0.0
  0
LINE
  5
A73
330
1F
100
AcDbEntity
  8
2
  6
CONTINUOUS
370
25
 62
7
100
AcDbLine
 10
38.169
 20
-5.200000000000004
 30
0.0
 11
39.169
 21
-0.2000000000000039
 31
0.0
  0
LINE
  5
A74
330
1F
100
AcDbEntity
  8
2
  6
CONTINUOUS
370
25
 62
7
100
AcDbLine
 10
39.83204283366458
 20
-5.200000000000003
 30
0.0
 11
40.11284047227743
 21
-4.91920236138715
 31
0.0
  0
LINE
  5
A75
330
1F
100
AcDbEntity
  8
2
  6
CONTINUOUS
370
25
 62
7
100
AcDbLine
 10
39.40777876495265
 20
-5.200000000000003
 30
0.0
 11
40.04212979415878
 21
-4.565648970793866
 31
0.0
  0
LINE
  5
A76
330
1F
100
AcDbEntity
  8
2
  6
CONTINUOUS
370
25
 62
7
100
AcDbLine
 10
38.98351469624072
 20
-5.200000000000003
 30
0.0
 11
39.97141911604012
 21
-4.212095580200597
 31
0.0
  0
LINE
  5
A77
330
1F
100
AcDbEntity
  8
2
  6
CONTINUOUS
370
25
 62
7
100
AcDbLine
 10
38.55925062752879
 20
-5.200000000000003
 30
0.0
 11
39.90070843792147
 21
-3.858542189607327
 31
0.0
  0
LINE
  5
A78
330
1F
100
AcDbEntity
  8
2
  6
CONTINUOUS
370
25
 62
7
100
AcDbLine
 10
38.1775033602958
 20
-5.157483198521057
 30
0.0
 11
39.82999775980281
 21
-3.50498879901405
 31
0.0
  0
LINE
  5
A79
330
1F
100
AcDbEntity
  8
2
  6
CONTINUOUS
370
25
 62
7
100
AcDbLine
 10
38.28356937747378
 20
-4.627153112631142
 30
0.0
 11
39.75928708168415
 21
-3.151435408420774
 31
0.0
  0
LINE
  5
A7A
330
1F
100
AcDbEntity
  8
2
  6
CONTINUOUS
370
25
 62
7
100
AcDbLine
 10
38.38963539465176
 20
-4.096823026741227
 30
0.0
 11
39.6885764035655
 21
-2.79788201782749
 31
0.0
  0
LINE
  5
A7B
330
1F
100
AcDbEntity
  8
2
  6
CONTINUOUS
370
25
 62
7
100
AcDbLine
 10
38.49570141182974
 20
-3.566492940851319
 30
0.0
 11
39.61786572544685
 21
-2.444328627234214
 31
0.0
  0
LINE
  5
A7C
330
1F
100
AcDbEntity
  8
2
  6
CONTINUOUS
370
25
 62
7
100
AcDbLine
 10
38.60176742900773
 20
-3.036162854961397
 30
0.0
 11
39.54715504732819
 21
-2.090775236640937
 31
0.0
  0
LINE
  5
A7D
330
1F
100
AcDbEntity
  8
2
  6
CONTINUOUS
370
25
 62
7
100
AcDbLine
 10
38.70783344618571
 20
-2.505832769071489
 30
0.0
 11
39.47644436920953
 21
-1.737221846047667
 31
0.0
  0
LINE
  5
A7E
330
1F
100
AcDbEntity
  8
2
  6
CONTINUOUS
370
25
 62
7
100
AcDbLine
 10
38.8138994633637
 20
-1.975502683181567
 30
0.0
 11
39.40573369109087
 21
-1.383668455454391
 31
0.0
  0
LINE
  5
A7F
330
1F
100
AcDbEntity
  8
2
  6
CONTINUOUS
370
25
 62
7
100
AcDbLine
 10
38.91996548054168
 20
-1.445172597291659
 30
0.0
 11
39.33502301297222
 21
-1.030115064861114
 31
0.0
  0
LINE
  5
A80
330
1F
100
AcDbEntity
  8
2
  6
CONTINUOUS
370
25
 62
7
100
AcDbLine
 10
39.02603149771966
 20
-0.9148425114017442
 30
0.0
 11
39.26431233485357
 21
-0.6765616742678304
 31
0.0
  0
LINE
  5
A81
330
1F
100
AcDbEntity
  8
2
  6
CONTINUOUS
370
25
 62
7
100
AcDbLine
 10
39.13209751489764
 20
-0.3845124255118364
 30
0.0
 11
39.19360165673491
 21
-0.3230082836745609
 31
0.0
  0
LINE
  5
A82
330
1F
100
AcDbEntity
  8
2
  6
CONTINUOUS
370
25
 62
7
100
AcDbLine
 10
38.18793289325507
 20
-5.105335533724663
 30
0.0
 11
38.28259735953041
 21
-5.200000000000003
 31
0.0
  0
LINE
  5
A83
330
1F
100
AcDbEntity
  8
2
  6
CONTINUOUS
370
25
 62
7
100
AcDbLine
 10
38.25864357137373
 20
-4.751782143131393
 30
0.0
 11
38.70686142824234
 21
-5.200000000000003
 31
0.0
  0
LINE
  5
A84
330
1F
100
AcDbEntity
  8
2
  6
CONTINUOUS
370
25
 62
7
100
AcDbLine
 10
38.32935424949239
 20
-4.398228752538117
 30
0.0
 11
39.13112549695428
 21
-5.200000000000003
 31
0.0
  0
LINE
  5
A85
330
1F
100
AcDbEntity
  8
2
  6
CONTINUOUS
370
25
 62
7
100
AcDbLine
 10
38.40006492761104
 20
-4.04467536194484
 30
0.0
 11
39.55538956566621
 21
-5.200000000000003
 31
0.0
  0
LINE
  5
A86
330
1F
100
AcDbEntity
  8
2
  6
CONTINUOUS
370
25
 62
7
100
AcDbLine
 10
38.4707756057297
 20
-3.691121971351564
 30
0.0
 11
39.97965363437814
 21
-5.200000000000003
 31
0.0
  0
LINE
  5
A87
330
1F
100
AcDbEntity
  8
2
  6
CONTINUOUS
370
25
 62
7
100
AcDbLine
 10
38.54148628384835
 20
-3.337568580758287
 30
0.0
 11
40.11027057422748
 21
-4.906352871137408
 31
0.0
  0
LINE
  5
A88
330
1F
100
AcDbEntity
  8
2
  6
CONTINUOUS
370
25
 62
7
100
AcDbLine
 10
38.61219696196701
 20
-2.98401519016501
 30
0.0
 11
40.00420455704949
 21
-4.376022785247486
 31
0.0
  0
LINE
  5
A89
330
1F
100
AcDbEntity
  8
2
  6
CONTINUOUS
370
25
 62
7
100
AcDbLine
 10
38.68290764008567
 20
-2.630461799571748
 30
0.0
 11
39.89813853987152
 21
-3.845692699357592
 31
0.0
  0
LINE
  5
A8A
330
1F
100
AcDbEntity
  8
2
  6
CONTINUOUS
370
25
 62
7
100
AcDbLine
 10
38.75361831820432
 20
-2.276908408978464
 30
0.0
 11
39.79207252269354
 21
-3.315362613467677
 31
0.0
  0
LINE
  5
A8B
330
1F
100
AcDbEntity
  8
2
  6
CONTINUOUS
370
25
 62
7
100
AcDbLine
 10
38.82432899632297
 20
-1.92335501838518
 30
0.0
 11
39.68600650551556
 21
-2.785032527577762
 31
0.0
  0
LINE
  5
A8C
330
1F
100
AcDbEntity
  8
2
  6
CONTINUOUS
370
25
 62
7
100
AcDbLine
 10
38.89503967444163
 20
-1.569801627791904
 30
0.0
 11
39.57994048833758
 21
-2.254702441687854
 31
0.0
  0
LINE
  5
A8D
330
1F
100
AcDbEntity
  8
2
  6
CONTINUOUS
370
25
 62
7
100
AcDbLine
 10
38.96575035256028
 20
-1.216248237198627
 30
0.0
 11
39.47387447115959
 21
-1.724372355797932
 31
0.0
  0
LINE
  5
A8E
330
1F
100
AcDbEntity
  8
2
  6
CONTINUOUS
370
25
 62
7
100
AcDbLine
 10
39.03646103067894
 20
-0.8626948466053506
 30
0.0
 11
39.36780845398161
 21
-1.194042269908024
 31
0.0
  0
LINE
  5
A8F
330
1F
100
AcDbEntity
  8
2
  6
CONTINUOUS
370
25
 62
7
100
AcDbLine
 10
39.10717170879759
 20
-0.509141456012074
 30
0.0
 11
39.26174243680362
 21
-0.6637121840181024
 31
0.0
  0
LINE
  5
A90
330
1F
100
AcDbEntity
  8
2
  6
CONTINUOUS
370
25
 62
7
100
AcDbLine
 10
39.169
 20
0.1999999999999961
 30
0.0
 11
38.169
 21
5.199999999999996
 31
0.0
  0
LINE
  5
A91
330
1F
100
AcDbEntity
  8
2
  6
CONTINUOUS
370
25
 62
7
100
AcDbLine
 10
38.169
 20
5.199999999999996
 30
0.0
 11
40.169
 21
5.199999999999996
 31
0.0
  0
LINE
  5
A92
330
1F
100
AcDbEntity
  8
2
  6
CONTINUOUS
370
25
 62
7
100
AcDbLine
 10
40.169
 20
5.199999999999996
 30
0.0
 11
39.169
 21
0.1999999999999961
 31
0.0
  0
LINE
  5
A93
330
1F
100
AcDbEntity
  8
2
  6
CONTINUOUS
370
25
 62
7
100
AcDbLine
 10
39.1573245982493
 20
0.2583770087535129
 30
0.0
 11
39.18651310262607
 21
0.2875655131302821
 31
0.0
  0
LINE
  5
A94
330
1F
100
AcDbEntity
  8
2
  6
CONTINUOUS
370
25
 62
7
100
AcDbLine
 10
39.08661392013064
 20
0.6119303993467895
 30
0.0
 11
39.29257911980405
 21
0.8178955990202041
 31
0.0
  0
LINE
  5
A95
330
1F
100
AcDbEntity
  8
2
  6
CONTINUOUS
370
25
 62
7
100
AcDbLine
 10
39.01590324201199
 20
0.9654837899400661
 30
0.0
 11
39.39864513698203
 21
1.348225684910112
 31
0.0
  0
LINE
  5
A96
330
1F
100
AcDbEntity
  8
2
  6
CONTINUOUS
370
25
 62
7
100
AcDbLine
 10
38.94519256389333
 20
1.319037180533343
 30
0.0
 11
39.50471115416001
 21
1.878555770800027
 31
0.0
  0
LINE
  5
A97
330
1F
100
AcDbEntity
  8
2
  6
CONTINUOUS
370
25
 62
7
100
AcDbLine
 10
38.87448188577468
 20
1.672590571126619
 30
0.0
 11
39.61077717133799
 21
2.408885856689935
 31
0.0
  0
LINE
  5
A98
330
1F
100
AcDbEntity
  8
2
  6
CONTINUOUS
370
25
 62
7
100
AcDbLine
 10
38.80377120765602
 20
2.026143961719896
 30
0.0
 11
39.71684318851598
 21
2.939215942579857
 31
0.0
  0
LINE
  5
A99
330
1F
100
AcDbEntity
  8
2
  6
CONTINUOUS
370
25
 62
7
100
AcDbLine
 10
38.73306052953737
 20
2.379697352313173
 30
0.0
 11
39.82290920569396
 21
3.469546028469765
 31
0.0
  0
LINE
  5
A9A
330
1F
100
AcDbEntity
  8
2
  6
CONTINUOUS
370
25
 62
7
100
AcDbLine
 10
38.66234985141871
 20
2.733250742906449
 30
0.0
 11
39.92897522287194
 21
3.999876114359679
 31
0.0
  0
LINE
  5
A9B
330
1F
100
AcDbEntity
  8
2
  6
CONTINUOUS
370
25
 62
7
100
AcDbLine
 10
38.59163917330006
 20
3.086804133499726
 30
0.0
 11
40.03504124004992
 21
4.530206200249587
 31
0.0
  0
LINE
  5
A9C
330
1F
100
AcDbEntity
  8
2
  6
CONTINUOUS
370
25
 62
7
100
AcDbLine
 10
38.5209284951814
 20
3.440357524093002
 30
0.0
 11
40.14110725722791
 21
5.060536286139509
 31
0.0
  0
LINE
  5
A9D
330
1F
100
AcDbEntity
  8
2
  6
CONTINUOUS
370
25
 62
7
100
AcDbLine
 10
38.45021781706275
 20
3.793910914686286
 30
0.0
 11
39.85630690237646
 21
5.199999999999996
 31
0.0
  0
LINE
  5
A9E
330
1F
100
AcDbEntity
  8
2
  6
CONTINUOUS
370
25
 62
7
100
AcDbLine
 10
38.37950713894409
 20
4.147464305279556
 30
0.0
 11
39.43204283366453
 21
5.199999999999996
 31
0.0
  0
LINE
  5
A9F
330
1F
100
AcDbEntity
  8
2
  6
CONTINUOUS
370
25
 62
7
100
AcDbLine
 10
38.30879646082543
 20
4.501017695872832
 30
0.0
 11
39.0077787649526
 21
5.199999999999996
 31
0.0
  0
LINE
  5
AA0
330
1F
100
AcDbEntity
  8
2
  6
CONTINUOUS
370
25
 62
7
100
AcDbLine
 10
38.23808578270678
 20
4.854571086466109
 30
0.0
 11
38.58351469624067
 21
5.199999999999996
 31
0.0
  0
LINE
  5
AA1
330
1F
100
AcDbEntity
  8
2
  6
CONTINUOUS
370
25
 62
7
100
AcDbLine
 10
39.14961040244767
 20
0.2969479877616763
 30
0.0
 11
39.18192639836823
 21
0.2646319918411209
 31
0.0
  0
LINE
  5
AA2
330
1F
100
AcDbEntity
  8
2
  6
CONTINUOUS
370
25
 62
7
100
AcDbLine
 10
39.04354438526968
 20
0.8272780736515912
 30
0.0
 11
39.25263707648688
 21
0.6181853824343904
 31
0.0
  0
LINE
  5
AA3
330
1F
100
AcDbEntity
  8
2
  6
CONTINUOUS
370
25
 62
7
100
AcDbLine
 10
38.9374783680917
 20
1.357608159541506
 30
0.0
 11
39.32334775460554
 21
0.9717387730276741
 31
0.0
  0
LINE
  5
AA4
330
1F
100
AcDbEntity
  8
2
  6
CONTINUOUS
370
25
 62
7
100
AcDbLine
 10
38.83141235091372
 20
1.887938245431428
 30
0.0
 11
39.39405843272419
 21
1.325292163620951
 31
0.0
  0
LINE
  5
AA5
330
1F
100
AcDbEntity
  8
2
  6
CONTINUOUS
370
25
 62
7
100
AcDbLine
 10
38.72534633373574
 20
2.418268331321336
 30
0.0
 11
39.46476911084285
 21
1.67884555421422
 31
0.0
  0
LINE
  5
AA6
330
1F
100
AcDbEntity
  8
2
  6
CONTINUOUS
370
25
 62
7
100
AcDbLine
 10
38.61928031655775
 20
2.948598417211258
 30
0.0
 11
39.53547978896151
 21
2.032398944807497
 31
0.0
  0
LINE
  5
AA7
330
1F
100
AcDbEntity
  8
2
  6
CONTINUOUS
370
25
 62
7
100
AcDbLine
 10
38.51321429937977
 20
3.478928503101166
 30
0.0
 11
39.60619046708016
 21
2.385952335400773
 31
0.0
  0
LINE
  5
AA8
330
1F
100
AcDbEntity
  8
2
  6
CONTINUOUS
370
25
 62
7
100
AcDbLine
 10
38.40714828220178
 20
4.009258588991088
 30
0.0
 11
39.67690114519882
 21
2.73950572599405
 31
0.0
  0
LINE
  5
AA9
330
1F
100
AcDbEntity
  8
2
  6
CONTINUOUS
370
25
 62
7
100
AcDbLine
 10
38.3010822650238
 20
4.539588674881003
 30
0.0
 11
39.74761182331747
 21
3.093059116587334
 31
0.0
  0
LINE
  5
AAA
330
1F
100
AcDbEntity
  8
2
  6
CONTINUOUS
370
25
 62
7
100
AcDbLine
 10
38.19501624784582
 20
5.069918760770911
 30
0.0
 11
39.81832250143613
 21
3.446612507180603
 31
0.0
  0
LINE
  5
AAB
330
1F
100
AcDbEntity
  8
2
  6
CONTINUOUS
370
25
 62
7
100
AcDbLine
 10
38.48919907732867
 20
5.199999999999996
 30
0.0
 11
39.88903317955479
 21
3.80016589777388
 31
0.0
  0
LINE
  5
AAC
330
1F
100
AcDbEntity
  8
2
  6
CONTINUOUS
370
25
 62
7
100
AcDbLine
 10
38.9134631460406
 20
5.199999999999996
 30
0.0
 11
39.95974385767344
 21
4.153719288367157
 31
0.0
  0
LINE
  5
AAD
330
1F
100
AcDbEntity
  8
2
  6
CONTINUOUS
370
25
 62
7
100
AcDbLine
 10
39.33772721475253
 20
5.199999999999996
 30
0.0
 11
40.0304545357921
 21
4.507272678960433
 31
0.0
  0
LINE
  5
AAE
330
1F
100
AcDbEntity
  8
2
  6
CONTINUOUS
370
25
 62
7
100
AcDbLine
 10
39.76199128346446
 20
5.199999999999996
 30
0.0
 11
40.10116521391075
 21
4.86082606955371
 31
0.0
  0
TEXT
  5
AAF
330
1F
100
AcDbEntity
  8
2
  6
CONTINUOUS
370
25
 62
7
100
AcDbText
 10
37.669
 20
11.47916666666666
 30
0.0
 40
3.500000000000002
  1
0.4
 50
90.00000000000001
 72
     1
 11
37.669
 21
14.68749999999999
 31
0.0
100
AcDbText
  0
CIRCLE
  5
AB0
330
1F
100
AcDbEntity
  8
2
  6
CONTINUOUS
370
25
 62
7
100
AcDbCircle
 10
35.919
 20
8.212499999999993
 30
0.0
 40
1.4
  0
LINE
  5
AB1
330
1F
100
AcDbEntity
  8
2
  6
CONTINUOUS
370
25
 62
7
100
AcDbLine
 10
37.319
 20
6.812499999999994
 30
0.0
 11
34.51900000000001
 21
9.612499999999994
 31
0.0
  0
LINE
  5
AB2
330
1F
100
AcDbEntity
  8
2
  6
CONTINUOUS
370
25
 62
7
100
AcDbLine
 10
7.054
 20
-0.19245
 30
0.0
 11
4.054
 21
-0.1924499999999997
 31
0.0
  0
LINE
  5
AB3
330
1F
100
AcDbEntity
  8
2
  6
CONTINUOUS
370
25
 62
7
100
AcDbLine
 10
4.054
 20
0.1924500000000004
 30
0.0
 11
7.054
 21
0.19245
 31
0.0
  0
LINE
  5
AB4
330
1F
100
AcDbEntity
  8
2
  6
CONTINUOUS
370
25
 62
7
100
AcDbLine
 10
5.054
 20
-7.19245
 30
0.0
 11
5.054
 21
25.56745
 31
0.0
  0
LINE
  5
AB5
330
1F
100
AcDbEntity
  8
2
  6
CONTINUOUS
370
25
 62
7
100
AcDbLine
 10
5.054
 20
-0.1924499999999998
 30
0.0
 11
6.054
 21
-5.19245
 31
0.0
  0
LINE
  5
AB6
330
1F
100
AcDbEntity
  8
2
  6
CONTINUOUS
370
25
 62
7
100
AcDbLine
 10
6.054
 20
-5.19245
 30
0.0
 11
4.054
 21
-5.19245
 31
0.0
  0
LINE
  5
AB7
330
1F
100
AcDbEntity
  8
2
  6
CONTINUOUS
370
25
 62
7
100
AcDbLine
 10
4.054
 20
-5.19245
 30
0.0
 11
5.054
 21
-0.1924499999999998
 31
0.0
  0
LINE
  5
AB8
330
1F
100
AcDbEntity
  8
2
  6
CONTINUOUS
370
25
 62
7
100
AcDbLine
 10
5.959882399330758
 20
-5.19245
 30
0.0
 11
6.038313733221793
 21
-5.114018666108965
 31
0.0
  0
LINE
  5
AB9
330
1F
100
AcDbEntity
  8
2
  6
CONTINUOUS
370
25
 62
7
100
AcDbLine
 10
5.53561833061883
 20
-5.19245
 30
0.0
 11
5.967603055103138
 21
-4.760465275515692
 31
0.0
  0
LINE
  5
ABA
330
1F
100
AcDbEntity
  8
2
  6
CONTINUOUS
370
25
 62
7
100
AcDbLine
 10
5.111354261906902
 20
-5.19245
 30
0.0
 11
5.896892376984484
 21
-4.406911884922418
 31
0.0
  0
LINE
  5
ABB
330
1F
100
AcDbEntity
  8
2
  6
CONTINUOUS
370
25
 62
7
100
AcDbLine
 10
4.687090193194974
 20
-5.19245
 30
0.0
 11
5.826181698865829
 21
-4.053358494329145
 31
0.0
  0
LINE
  5
ABC
330
1F
100
AcDbEntity
  8
2
  6
CONTINUOUS
370
25
 62
7
100
AcDbLine
 10
4.262826124483046
 20
-5.19245
 30
0.0
 11
5.755471020747175
 21
-3.699805103735871
 31
0.0
  0
LINE
  5
ABD
330
1F
100
AcDbEntity
  8
2
  6
CONTINUOUS
370
25
 62
7
100
AcDbLine
 10
4.107859486057222
 20
-4.923152569713896
 30
0.0
 11
5.68476034262852
 21
-3.346251713142597
 31
0.0
  0
LINE
  5
ABE
330
1F
100
AcDbEntity
  8
2
  6
CONTINUOUS
370
25
 62
7
100
AcDbLine
 10
4.213925503235203
 20
-4.392822483823986
 30
0.0
 11
5.614049664509865
 21
-2.992698322549325
 31
0.0
  0
LINE
  5
ABF
330
1F
100
AcDbEntity
  8
2
  6
CONTINUOUS
370
25
 62
7
100
AcDbLine
 10
4.319991520413185
 20
-3.862492397934076
 30
0.0
 11
5.543338986391211
 21
-2.639144931956051
 31
0.0
  0
LINE
  5
AC0
330
1F
100
AcDbEntity
  8
2
  6
CONTINUOUS
370
25
 62
7
100
AcDbLine
 10
4.426057537591167
 20
-3.332162312044166
 30
0.0
 11
5.472628308272555
 21
-2.285591541362778
 31
0.0
  0
LINE
  5
AC1
330
1F
100
AcDbEntity
  8
2
  6
CONTINUOUS
370
25
 62
7
100
AcDbLine
 10
4.532123554769149
 20
-2.801832226154255
 30
0.0
 11
5.401917630153901
 21
-1.932038150769504
 31
0.0
  0
LINE
  5
AC2
330
1F
100
AcDbEntity
  8
2
  6
CONTINUOUS
370
25
 62
7
100
AcDbLine
 10
4.638189571947131
 20
-2.271502140264347
 30
0.0
 11
5.331206952035246
 21
-1.578484760176232
 31
0.0
  0
LINE
  5
AC3
330
1F
100
AcDbEntity
  8
2
  6
CONTINUOUS
370
25
 62
7
100
AcDbLine
 10
4.744255589125114
 20
-1.741172054374435
 30
0.0
 11
5.260496273916591
 21
-1.224931369582958
 31
0.0
  0
LINE
  5
AC4
330
1F
100
AcDbEntity
  8
2
  6
CONTINUOUS
370
25
 62
7
100
AcDbLine
 10
4.850321606303096
 20
-1.210841968484526
 30
0.0
 11
5.189785595797937
 21
-0.8713779789896847
 31
0.0
  0
LINE
  5
AC5
330
1F
100
AcDbEntity
  8
2
  6
CONTINUOUS
370
25
 62
7
100
AcDbLine
 10
4.956387623481078
 20
-0.6805118825946144
 30
0.0
 11
5.119074917679282
 21
-0.5178245883964099
 31
0.0
  0
LINE
  5
AC6
330
1F
100
AcDbEntity
  8
2
  6
CONTINUOUS
370
25
 62
7
100
AcDbLine
 10
4.060629991930493
 20
-5.159300040347539
 30
0.0
 11
4.093779951582954
 21
-5.19245
 31
0.0
  0
LINE
  5
AC7
330
1F
100
AcDbEntity
  8
2
  6
CONTINUOUS
370
25
 62
7
100
AcDbLine
 10
4.131340670049148
 20
-4.805746649754265
 30
0.0
 11
4.518044020294883
 21
-5.19245
 31
0.0
  0
LINE
  5
AC8
330
1F
100
AcDbEntity
  8
2
  6
CONTINUOUS
370
25
 62
7
100
AcDbLine
 10
4.202051348167802
 20
-4.452193259160993
 30
0.0
 11
4.94230808900681
 21
-5.19245
 31
0.0
  0
LINE
  5
AC9
330
1F
100
AcDbEntity
  8
2
  6
CONTINUOUS
370
25
 62
7
100
AcDbLine
 10
4.272762026286457
 20
-4.098639868567719
 30
0.0
 11
5.366572157718739
 21
-5.19245
 31
0.0
  0
LINE
  5
ACA
330
1F
100
AcDbEntity
  8
2
  6
CONTINUOUS
370
25
 62
7
100
AcDbLine
 10
4.343472704405111
 20
-3.745086477974445
 30
0.0
 11
5.790836226430668
 21
-5.192450000000001
 31
0.0
  0
LINE
  5
ACB
330
1F
100
AcDbEntity
  8
2
  6
CONTINUOUS
370
25
 62
7
100
AcDbLine
 10
4.414183382523766
 20
-3.391533087381172
 30
0.0
 11
6.01372492621435
 21
-4.991074631071755
 31
0.0
  0
LINE
  5
ACC
330
1F
100
AcDbEntity
  8
2
  6
CONTINUOUS
370
25
 62
7
100
AcDbLine
 10
4.484894060642421
 20
-3.037979696787898
 30
0.0
 11
5.907658909036369
 21
-4.460744545181845
 31
0.0
  0
LINE
  5
ACD
330
1F
100
AcDbEntity
  8
2
  6
CONTINUOUS
370
25
 62
7
100
AcDbLine
 10
4.555604738761075
 20
-2.684426306194624
 30
0.0
 11
5.801592891858387
 21
-3.930414459291934
 31
0.0
  0
LINE
  5
ACE
330
1F
100
AcDbEntity
  8
2
  6
CONTINUOUS
370
25
 62
7
100
AcDbLine
 10
4.62631541687973
 20
-2.330872915601351
 30
0.0
 11
5.695526874680406
 21
-3.400084373402025
 31
0.0
  0
LINE
  5
ACF
330
1F
100
AcDbEntity
  8
2
  6
CONTINUOUS
370
25
 62
7
100
AcDbLine
 10
4.697026094998385
 20
-1.977319525008078
 30
0.0
 11
5.589460857502423
 21
-2.869754287512114
 31
0.0
  0
LINE
  5
AD0
330
1F
100
AcDbEntity
  8
2
  6
CONTINUOUS
370
25
 62
7
100
AcDbLine
 10
4.76773677311704
 20
-1.623766134414804
 30
0.0
 11
5.483394840324441
 21
-2.339424201622204
 31
0.0
  0
LINE
  5
AD1
330
1F
100
AcDbEntity
  8
2
  6
CONTINUOUS
370
25
 62
7
100
AcDbLine
 10
4.838447451235695
 20
-1.27021274382153
 30
0.0
 11
5.377328823146459
 21
-1.809094115732293
 31
0.0
  0
LINE
  5
AD2
330
1F
100
AcDbEntity
  8
2
  6
CONTINUOUS
370
25
 62
7
100
AcDbLine
 10
4.909158129354349
 20
-0.9166593532282556
 30
0.0
 11
5.271262805968477
 21
-1.278764029842383
 31
0.0
  0
LINE
  5
AD3
330
1F
100
AcDbEntity
  8
2
  6
CONTINUOUS
370
25
 62
7
100
AcDbLine
 10
4.979868807473004
 20
-0.5631059626349817
 30
0.0
 11
5.165196788790495
 21
-0.748433943952473
 31
0.0
  0
LINE
  5
AD4
330
1F
100
AcDbEntity
  8
2
  6
CONTINUOUS
370
25
 62
7
100
AcDbLine
 10
5.050579485591658
 20
-0.2095525720417086
 30
0.0
 11
5.059130771612513
 21
-0.2181038580625634
 31
0.0
  0
LINE
  5
AD5
330
1F
100
AcDbEntity
  8
2
  6
CONTINUOUS
370
25
 62
7
100
AcDbLine
 10
5.054
 20
0.1924500000000003
 30
0.0
 11
4.054
 21
5.19245
 31
0.0
  0
LINE
  5
AD6
330
1F
100
AcDbEntity
  8
2
  6
CONTINUOUS
370
25
 62
7
100
AcDbLine
 10
4.054
 20
5.19245
 30
0.0
 11
6.054
 21
5.19245
 31
0.0
  0
LINE
  5
AD7
330
1F
100
AcDbEntity
  8
2
  6
CONTINUOUS
370
25
 62
7
100
AcDbLine
 10
6.054
 20
5.19245
 30
0.0
 11
5.054
 21
0.1924500000000003
 31
0.0
  0
LINE
  5
AD8
330
1F
100
AcDbEntity
  8
2
  6
CONTINUOUS
370
25
 62
7
100
AcDbLine
 10
5.014603847741675
 20
0.3894307612916306
 30
0.0
 11
5.113094228387489
 21
0.4879211419374441
 31
0.0
  0
LINE
  5
AD9
330
1F
100
AcDbEntity
  8
2
  6
CONTINUOUS
370
25
 62
7
100
AcDbLine
 10
4.94389316962302
 20
0.7429841518849027
 30
0.0
 11
5.219160245565471
 21
1.018251227827354
 31
0.0
  0
LINE
  5
ADA
330
1F
100
AcDbEntity
  8
2
  6
CONTINUOUS
370
25
 62
7
100
AcDbLine
 10
4.873182491504365
 20
1.096537542478176
 30
0.0
 11
5.325226262743453
 21
1.548581313717263
 31
0.0
  0
LINE
  5
ADB
330
1F
100
AcDbEntity
  8
2
  6
CONTINUOUS
370
25
 62
7
100
AcDbLine
 10
4.80247181338571
 20
1.450090933071449
 30
0.0
 11
5.431292279921435
 21
2.078911399607173
 31
0.0
  0
LINE
  5
ADC
330
1F
100
AcDbEntity
  8
2
  6
CONTINUOUS
370
25
 62
7
100
AcDbLine
 10
4.731761135267056
 20
1.803644323664723
 30
0.0
 11
5.537358297099417
 21
2.609241485497084
 31
0.0
  0
LINE
  5
ADD
330
1F
100
AcDbEntity
  8
2
  6
CONTINUOUS
370
25
 62
7
100
AcDbLine
 10
4.661050457148401
 20
2.157197714257996
 30
0.0
 11
5.643424314277399
 21
3.139571571386993
 31
0.0
  0
LINE
  5
ADE
330
1F
100
AcDbEntity
  8
2
  6
CONTINUOUS
370
25
 62
7
100
AcDbLine
 10
4.590339779029747
 20
2.51075110485127
 30
0.0
 11
5.749490331455381
 21
3.669901657276903
 31
0.0
  0
LINE
  5
ADF
330
1F
100
AcDbEntity
  8
2
  6
CONTINUOUS
370
25
 62
7
100
AcDbLine
 10
4.519629100911093
 20
2.864304495444543
 30
0.0
 11
5.855556348633361
 21
4.20023174316681
 31
0.0
  0
LINE
  5
AE0
330
1F
100
AcDbEntity
  8
2
  6
CONTINUOUS
370
25
 62
7
100
AcDbLine
 10
4.448918422792437
 20
3.217857886037816
 30
0.0
 11
5.961622365811344
 21
4.730561829056721
 31
0.0
  0
LINE
  5
AE1
330
1F
100
AcDbEntity
  8
2
  6
CONTINUOUS
370
25
 62
7
100
AcDbLine
 10
4.378207744673783
 20
3.57141127663109
 30
0.0
 11
5.999246468042695
 21
5.19245
 31
0.0
  0
LINE
  5
AE2
330
1F
100
AcDbEntity
  8
2
  6
CONTINUOUS
370
25
 62
7
100
AcDbLine
 10
4.307497066555128
 20
3.924964667224362
 30
0.0
 11
5.574982399330768
 21
5.19245
 31
0.0
  0
LINE
  5
AE3
330
1F
100
AcDbEntity
  8
2
  6
CONTINUOUS
370
25
 62
7
100
AcDbLine
 10
4.236786388436474
 20
4.278518057817636
 30
0.0
 11
5.150718330618839
 21
5.19245
 31
0.0
  0
LINE
  5
AE4
330
1F
100
AcDbEntity
  8
2
  6
CONTINUOUS
370
25
 62
7
100
AcDbLine
 10
4.166075710317819
 20
4.632071448410909
 30
0.0
 11
4.726454261906911
 21
5.19245
 31
0.0
  0
LINE
  5
AE5
330
1F
100
AcDbEntity
  8
2
  6
CONTINUOUS
370
25
 62
7
100
AcDbLine
 10
4.095365032199164
 20
4.985624839004182
 30
0.0
 11
4.302190193194982
 21
5.19245
 31
0.0
  0
LINE
  5
AE6
330
1F
100
AcDbEntity
  8
2
  6
CONTINUOUS
370
25
 62
7
100
AcDbLine
 10
4.989254276686233
 20
0.5161786165688413
 30
0.0
 11
5.097163815542512
 21
0.4082690777125624
 31
0.0
  0
LINE
  5
AE7
330
1F
100
AcDbEntity
  8
2
  6
CONTINUOUS
370
25
 62
7
100
AcDbLine
 10
4.88318825950825
 20
1.04650870245875
 30
0.0
 11
5.167874493661167
 21
0.7618224683058328
 31
0.0
  0
LINE
  5
AE8
330
1F
100
AcDbEntity
  8
2
  6
CONTINUOUS
370
25
 62
7
100
AcDbLine
 10
4.777122242330268
 20
1.576838788348661
 30
0.0
 11
5.238585171779822
 21
1.115375858899107
 31
0.0
  0
LINE
  5
AE9
330
1F
100
AcDbEntity
  8
2
  6
CONTINUOUS
370
25
 62
7
100
AcDbLine
 10
4.671056225152286
 20
2.107168874238571
 30
0.0
 11
5.309295849898477
 21
1.468929249492381
 31
0.0
  0
LINE
  5
AEA
330
1F
100
AcDbEntity
  8
2
  6
CONTINUOUS
370
25
 62
7
100
AcDbLine
 10
4.564990207974303
 20
2.637498960128482
 30
0.0
 11
5.380006528017132
 21
1.822482640085654
 31
0.0
  0
LINE
  5
AEB
330
1F
100
AcDbEntity
  8
2
  6
CONTINUOUS
370
25
 62
7
100
AcDbLine
 10
4.458924190796322
 20
3.167829046018393
 30
0.0
 11
5.450717206135787
 21
2.176036030678928
 31
0.0
  0
LINE
  5
AEC
330
1F
100
AcDbEntity
  8
2
  6
CONTINUOUS
370
25
 62
7
100
AcDbLine
 10
4.35285817361834
 20
3.698159131908302
 30
0.0
 11
5.52142788425444
 21
2.529589421272202
 31
0.0
  0
LINE
  5
AED
330
1F
100
AcDbEntity
  8
2
  6
CONTINUOUS
370
25
 62
7
100
AcDbLine
 10
4.246792156440359
 20
4.228489217798212
 30
0.0
 11
5.592138562373095
 21
2.883142811865476
 31
0.0
  0
LINE
  5
AEE
330
1F
100
AcDbEntity
  8
2
  6
CONTINUOUS
370
25
 62
7
100
AcDbLine
 10
4.140726139262376
 20
4.758819303688124
 30
0.0
 11
5.662849240491751
 21
3.23669620245875
 31
0.0
  0
LINE
  5
AEF
330
1F
100
AcDbEntity
  8
2
  6
CONTINUOUS
370
25
 62
7
100
AcDbLine
 10
4.131359511662428
 20
5.19245
 30
0.0
 11
5.733559918610404
 21
3.590249593052024
 31
0.0
  0
LINE
  5
AF0
330
1F
100
AcDbEntity
  8
2
  6
CONTINUOUS
370
25
 62
7
100
AcDbLine
 10
4.555623580374355
 20
5.19245
 30
0.0
 11
5.80427059672906
 21
3.943802983645296
 31
0.0
  0
LINE
  5
AF1
330
1F
100
AcDbEntity
  8
2
  6
CONTINUOUS
370
25
 62
7
100
AcDbLine
 10
4.979887649086284
 20
5.19245
 30
0.0
 11
5.874981274847713
 21
4.297356374238571
 31
0.0
  0
LINE
  5
AF2
330
1F
100
AcDbEntity
  8
2
  6
CONTINUOUS
370
25
 62
7
100
AcDbLine
 10
5.404151717798212
 20
5.19245
 30
0.0
 11
5.945691952966369
 21
4.650909764831843
 31
0.0
  0
LINE
  5
AF3
330
1F
100
AcDbEntity
  8
2
  6
CONTINUOUS
370
25
 62
7
100
AcDbLine
 10
5.828415786510139
 20
5.19245
 30
0.0
 11
6.016402631085023
 21
5.004463155425117
 31
0.0
  0
TEXT
  5
AF4
330
1F
100
AcDbEntity
  8
2
  6
CONTINUOUS
370
25
 62
7
100
AcDbText
 10
3.554000000000004
 20
10.94661666666667
 30
0.0
 40
3.5
  1
0.385
 50
90.00000000000001
 72
     1
 11
3.554000000000001
 21
17.65495
 31
0.0
100
AcDbText
  0
CIRCLE
  5
AF5
330
1F
100
AcDbEntity
  8
2
  6
CONTINUOUS
370
25
 62
7
100
AcDbCircle
 10
1.804000000000001
 20
8.02995
 30
0.0
 40
1.400000000000002
  0
LINE
  5
AF6
330
1F
100
AcDbEntity
  8
2
  6
CONTINUOUS
370
25
 62
7
100
AcDbLine
 10
3.204000000000001
 20
6.629950000000001
 30
0.0
 11
0.4040000000000006
 21
9.429950000000002
 31
0.0
  0
LINE
  5
AF7
330
1F
100
AcDbEntity
  8
2
  6
CONTINUOUS
370
25
 62
7
100
AcDbLine
 10
7.054
 20
-0.2
 30
0.0
 11
7.053999999999998
 21
-23.2
 31
0.0
  0
LINE
  5
AF8
330
1F
100
AcDbEntity
  8
2
  6
CONTINUOUS
370
25
 62
7
100
AcDbLine
 10
7.293999999999999
 20
-23.2
 30
0.0
 11
7.294
 21
-0.0999999999999979
 31
0.0
  0
LINE
  5
AF9
330
1F
100
AcDbEntity
  8
2
  6
CONTINUOUS
370
25
 62
7
100
AcDbLine
 10
0.0539999999999983
 20
-22.2
 30
0.0
 11
26.194
 21
-22.2
 31
0.0
  0
LINE
  5
AFA
330
1F
100
AcDbEntity
  8
2
  6
CONTINUOUS
370
25
 62
7
100
AcDbLine
 10
7.053999999999998
 20
-22.2
 30
0.0
 11
2.053999999999998
 21
-23.2
 31
0.0
  0
LINE
  5
AFB
330
1F
100
AcDbEntity
  8
2
  6
CONTINUOUS
370
25
 62
7
100
AcDbLine
 10
2.053999999999998
 20
-23.2
 30
0.0
 11
2.053999999999998
 21
-21.2
 31
0.0
  0
LINE
  5
AFC
330
1F
100
AcDbEntity
  8
2
  6
CONTINUOUS
370
25
 62
7
100
AcDbLine
 10
2.053999999999998
 20
-21.2
 30
0.0
 11
7.053999999999998
 21
-22.2
 31
0.0
  0
LINE
  5
AFD
330
1F
100
AcDbEntity
  8
2
  6
CONTINUOUS
370
25
 62
7
100
AcDbLine
 10
7.020276462337683
 20
-22.20674470753247
 30
0.0
 11
7.031517641558455
 21
-22.19550352831169
 31
0.0
  0
LINE
  5
AFE
330
1F
100
AcDbEntity
  8
2
  6
CONTINUOUS
370
25
 62
7
100
AcDbLine
 10
6.489946376447773
 20
-22.31281072471045
 30
0.0
 11
6.677964250965182
 21
-22.12479285019304
 31
0.0
  0
LINE
  5
AFF
330
1F
100
AcDbEntity
  8
2
  6
CONTINUOUS
370
25
 62
7
100
AcDbLine
 10
5.959616290557863
 20
-22.41887674188843
 30
0.0
 11
6.324410860371909
 21
-22.05408217207438
 31
0.0
  0
LINE
  5
B00
330
1F
100
AcDbEntity
  8
2
  6
CONTINUOUS
370
25
 62
7
100
AcDbLine
 10
5.429286204667955
 20
-22.52494275906641
 30
0.0
 11
5.970857469778637
 21
-21.98337149395573
 31
0.0
  0
LINE
  5
B01
330
1F
100
AcDbEntity
  8
2
  6
CONTINUOUS
370
25
 62
7
100
AcDbLine
 10
4.89895611877804
 20
-22.63100877624439
 30
0.0
 11
5.617304079185361
 21
-21.91266081583707
 31
0.0
  0
LINE
  5
B02
330
1F
100
AcDbEntity
  8
2
  6
CONTINUOUS
370
25
 62
7
100
AcDbLine
 10
4.36862603288813
 20
-22.73707479342237
 30
0.0
 11
5.263750688592088
 21
-21.84195013771842
 31
0.0
  0
LINE
  5
B03
330
1F
100
AcDbEntity
  8
2
  6
CONTINUOUS
370
25
 62
7
100
AcDbLine
 10
3.83829594699822
 20
-22.84314081060036
 30
0.0
 11
4.910197297998815
 21
-21.77123945959976
 31
0.0
  0
LINE
  5
B04
330
1F
100
AcDbEntity
  8
2
  6
CONTINUOUS
370
25
 62
7
100
AcDbLine
 10
3.307965861108311
 20
-22.94920682777834
 30
0.0
 11
4.556643907405542
 21
-21.70052878148111
 31
0.0
  0
LINE
  5
B05
330
1F
100
AcDbEntity
  8
2
  6
CONTINUOUS
370
25
 62
7
100
AcDbLine
 10
2.777635775218401
 20
-23.05527284495632
 30
0.0
 11
4.203090516812269
 21
-21.62981810336245
 31
0.0
  0
LINE
  5
B06
330
1F
100
AcDbEntity
  8
2
  6
CONTINUOUS
370
25
 62
7
100
AcDbLine
 10
2.247305689328491
 20
-23.1613388621343
 30
0.0
 11
3.849537126218996
 21
-21.5591074252438
 31
0.0
  0
LINE
  5
B07
330
1F
100
AcDbEntity
  8
2
  6
CONTINUOUS
370
25
 62
7
100
AcDbLine
 10
2.053999999999998
 20
-22.93038048275087
 30
0.0
 11
3.495983735625722
 21
-21.48839674712514
 31
0.0
  0
LINE
  5
B08
330
1F
100
AcDbEntity
  8
2
  6
CONTINUOUS
370
25
 62
7
100
AcDbLine
 10
2.053999999999998
 20
-22.50611641403894
 30
0.0
 11
3.14243034503245
 21
-21.41768606900649
 31
0.0
  0
LINE
  5
B09
330
1F
100
AcDbEntity
  8
2
  6
CONTINUOUS
370
25
 62
7
100
AcDbLine
 10
2.053999999999998
 20
-22.08185234532701
 30
0.0
 11
2.788876954439177
 21
-21.34697539088783
 31
0.0
  0
LINE
  5
B0A
330
1F
100
AcDbEntity
  8
2
  6
CONTINUOUS
370
25
 62
7
100
AcDbLine
 10
2.053999999999998
 20
-21.65758827661508
 30
0.0
 11
2.435323563845903
 21
-21.27626471276918
 31
0.0
  0
LINE
  5
B0B
330
1F
100
AcDbEntity
  8
2
  6
CONTINUOUS
370
25
 62
7
100
AcDbLine
 10
2.053999999999998
 20
-21.23332420790316
 30
0.0
 11
2.08177017325263
 21
-21.20555403465053
 31
0.0
  0
LINE
  5
B0C
330
1F
100
AcDbEntity
  8
2
  6
CONTINUOUS
370
25
 62
7
100
AcDbLine
 10
2.053999999999998
 20
-22.80309475024451
 30
0.0
 11
2.38475437479624
 21
-23.13384912504075
 31
0.0
  0
LINE
  5
B0D
330
1F
100
AcDbEntity
  8
2
  6
CONTINUOUS
370
25
 62
7
100
AcDbLine
 10
2.053999999999998
 20
-22.37883068153258
 30
0.0
 11
2.738307765389514
 21
-23.0631384469221
 31
0.0
  0
LINE
  5
B0E
330
1F
100
AcDbEntity
  8
2
  6
CONTINUOUS
370
25
 62
7
100
AcDbLine
 10
2.053999999999998
 20
-21.95456661282066
 30
0.0
 11
3.091861155982787
 21
-22.99242776880344
 31
0.0
  0
LINE
  5
B0F
330
1F
100
AcDbEntity
  8
2
  6
CONTINUOUS
370
25
 62
7
100
AcDbLine
 10
2.053999999999998
 20
-21.53030254410873
 30
0.0
 11
3.44541454657606
 21
-22.92171709068479
 31
0.0
  0
LINE
  5
B10
330
1F
100
AcDbEntity
  8
2
  6
CONTINUOUS
370
25
 62
7
100
AcDbLine
 10
2.171451905753996
 20
-21.2234903811508
 30
0.0
 11
3.798967937169333
 21
-22.85100641256613
 31
0.0
  0
LINE
  5
B11
330
1F
100
AcDbEntity
  8
2
  6
CONTINUOUS
370
25
 62
7
100
AcDbLine
 10
2.701781991643906
 20
-21.32955639832878
 30
0.0
 11
4.152521327762607
 21
-22.78029573444748
 31
0.0
  0
LINE
  5
B12
330
1F
100
AcDbEntity
  8
2
  6
CONTINUOUS
370
25
 62
7
100
AcDbLine
 10
3.232112077533817
 20
-21.43562241550676
 30
0.0
 11
4.50607471835588
 21
-22.70958505632882
 31
0.0
  0
LINE
  5
B13
330
1F
100
AcDbEntity
  8
2
  6
CONTINUOUS
370
25
 62
7
100
AcDbLine
 10
3.762442163423727
 20
-21.54168843268474
 30
0.0
 11
4.859628108949154
 21
-22.63887437821017
 31
0.0
  0
LINE
  5
B14
330
1F
100
AcDbEntity
  8
2
  6
CONTINUOUS
370
25
 62
7
100
AcDbLine
 10
4.292772249313637
 20
-21.64775444986272
 30
0.0
 11
5.213181499542427
 21
-22.56816370009151
 31
0.0
  0
LINE
  5
B15
330
1F
100
AcDbEntity
  8
2
  6
CONTINUOUS
370
25
 62
7
100
AcDbLine
 10
4.823102335203547
 20
-21.75382046704071
 30
0.0
 11
5.566734890135701
 21
-22.49745302197286
 31
0.0
  0
LINE
  5
B16
330
1F
100
AcDbEntity
  8
2
  6
CONTINUOUS
370
25
 62
7
100
AcDbLine
 10
5.353432421093458
 20
-21.85988648421869
 30
0.0
 11
5.920288280728973
 21
-22.4267423438542
 31
0.0
  0
LINE
  5
B17
330
1F
100
AcDbEntity
  8
2
  6
CONTINUOUS
370
25
 62
7
100
AcDbLine
 10
5.883762506983368
 20
-21.96595250139667
 30
0.0
 11
6.273841671322246
 21
-22.35603166573555
 31
0.0
  0
LINE
  5
B18
330
1F
100
AcDbEntity
  8
2
  6
CONTINUOUS
370
25
 62
7
100
AcDbLine
 10
6.414092592873276
 20
-22.07201851857466
 30
0.0
 11
6.627395061915518
 21
-22.2853209876169
 31
0.0
  0
LINE
  5
B19
330
1F
100
AcDbEntity
  8
2
  6
CONTINUOUS
370
25
 62
7
100
AcDbLine
 10
6.944422678763186
 20
-22.17808453575264
 30
0.0
 11
6.980948452508791
 21
-22.21461030949824
 31
0.0
  0
LINE
  5
B1A
330
1F
100
AcDbEntity
  8
2
  6
CONTINUOUS
370
25
 62
7
100
AcDbLine
 10
7.293999999999999
 20
-22.2
 30
0.0
 11
12.294
 21
-21.2
 31
0.0
  0
LINE
  5
B1B
330
1F
100
AcDbEntity
  8
2
  6
CONTINUOUS
370
25
 62
7
100
AcDbLine
 10
12.294
 20
-21.2
 30
0.0
 11
12.294
 21
-23.2
 31
0.0
  0
LINE
  5
B1C
330
1F
100
AcDbEntity
  8
2
  6
CONTINUOUS
370
25
 62
7
100
AcDbLine
 10
12.294
 20
-23.2
 30
0.0
 11
7.293999999999999
 21
-22.2
 31
0.0
  0
LINE
  5
B1D
330
1F
100
AcDbEntity
  8
2
  6
CONTINUOUS
370
25
 62
7
100
AcDbLine
 10
12.26931706895904
 20
-23.19506341379181
 30
0.0
 11
12.294
 21
-23.17038048275084
 31
0.0
  0
LINE
  5
B1E
330
1F
100
AcDbEntity
  8
2
  6
CONTINUOUS
370
25
 62
7
100
AcDbLine
 10
11.91576367836577
 20
-23.12435273567316
 30
0.0
 11
12.294
 21
-22.74611641403892
 31
0.0
  0
LINE
  5
B1F
330
1F
100
AcDbEntity
  8
2
  6
CONTINUOUS
370
25
 62
7
100
AcDbLine
 10
11.56221028777249
 20
-23.0536420575545
 30
0.0
 11
12.294
 21
-22.32185234532699
 31
0.0
  0
LINE
  5
B20
330
1F
100
AcDbEntity
  8
2
  6
CONTINUOUS
370
25
 62
7
100
AcDbLine
 10
11.20865689717922
 20
-22.98293137943585
 30
0.0
 11
12.294
 21
-21.89758827661507
 31
0.0
  0
LINE
  5
B21
330
1F
100
AcDbEntity
  8
2
  6
CONTINUOUS
370
25
 62
7
100
AcDbLine
 10
10.85510350658594
 20
-22.91222070131719
 30
0.0
 11
12.294
 21
-21.47332420790313
 31
0.0
  0
LINE
  5
B22
330
1F
100
AcDbEntity
  8
2
  6
CONTINUOUS
370
25
 62
7
100
AcDbLine
 10
10.50155011599267
 20
-22.84151002319853
 30
0.0
 11
12.10532517398901
 21
-21.2377349652022
 31
0.0
  0
LINE
  5
B23
330
1F
100
AcDbEntity
  8
2
  6
CONTINUOUS
370
25
 62
7
100
AcDbLine
 10
10.1479967253994
 20
-22.77079934507988
 30
0.0
 11
11.5749950880991
 21
-21.34380098238018
 31
0.0
  0
LINE
  5
B24
330
1F
100
AcDbEntity
  8
2
  6
CONTINUOUS
370
25
 62
7
100
AcDbLine
 10
9.794443334806125
 20
-22.70008866696122
 30
0.0
 11
11.04466500220919
 21
-21.44986699955816
 31
0.0
  0
LINE
  5
B25
330
1F
100
AcDbEntity
  8
2
  6
CONTINUOUS
370
25
 62
7
100
AcDbLine
 10
9.440889944212852
 20
-22.62937798884257
 30
0.0
 11
10.51433491631928
 21
-21.55593301673614
 31
0.0
  0
LINE
  5
B26
330
1F
100
AcDbEntity
  8
2
  6
CONTINUOUS
370
25
 62
7
100
AcDbLine
 10
9.087336553619583
 20
-22.55866731072392
 30
0.0
 11
9.984004830429374
 21
-21.66199903391412
 31
0.0
  0
LINE
  5
B27
330
1F
100
AcDbEntity
  8
2
  6
CONTINUOUS
370
25
 62
7
100
AcDbLine
 10
8.73378316302631
 20
-22.48795663260526
 30
0.0
 11
9.453674744539464
 21
-21.76806505109211
 31
0.0
  0
LINE
  5
B28
330
1F
100
AcDbEntity
  8
2
  6
CONTINUOUS
370
25
 62
7
100
AcDbLine
 10
8.380229772433037
 20
-22.41724595448661
 30
0.0
 11
8.923344658649555
 21
-21.87413106827009
 31
0.0
  0
LINE
  5
B29
330
1F
100
AcDbEntity
  8
2
  6
CONTINUOUS
370
25
 62
7
100
AcDbLine
 10
8.026676381839764
 20
-22.34653527636795
 30
0.0
 11
8.393014572759645
 21
-21.98019708544807
 31
0.0
  0
LINE
  5
B2A
330
1F
100
AcDbEntity
  8
2
  6
CONTINUOUS
370
25
 62
7
100
AcDbLine
 10
7.67312299124649
 20
-22.2758245982493
 30
0.0
 11
7.862684486869736
 21
-22.08626310262605
 31
0.0
  0
LINE
  5
B2B
330
1F
100
AcDbEntity
  8
2
  6
CONTINUOUS
370
25
 62
7
100
AcDbLine
 10
7.319569600653216
 20
-22.20511392013064
 30
0.0
 11
7.332354400979827
 21
-22.19232911980403
 31
0.0
  0
LINE
  5
B2C
330
1F
100
AcDbEntity
  8
2
  6
CONTINUOUS
370
25
 62
7
100
AcDbLine
 10
7.622553802196829
 20
-22.13428923956063
 30
0.0
 11
7.786830703295247
 21
-22.29856614065905
 31
0.0
  0
LINE
  5
B2D
330
1F
100
AcDbEntity
  8
2
  6
CONTINUOUS
370
25
 62
7
100
AcDbLine
 10
7.976107192790102
 20
-22.06357856144198
 30
0.0
 11
8.317160789185158
 21
-22.40463215783703
 31
0.0
  0
LINE
  5
B2E
330
1F
100
AcDbEntity
  8
2
  6
CONTINUOUS
370
25
 62
7
100
AcDbLine
 10
8.329660583383376
 20
-21.99286788332332
 30
0.0
 11
8.847490875075067
 21
-22.51069817501502
 31
0.0
  0
LINE
  5
B2F
330
1F
100
AcDbEntity
  8
2
  6
CONTINUOUS
370
25
 62
7
100
AcDbLine
 10
8.683213973976649
 20
-21.92215720520467
 30
0.0
 11
9.377820960964979
 21
-22.616764192193
 31
0.0
  0
LINE
  5
B30
330
1F
100
AcDbEntity
  8
2
  6
CONTINUOUS
370
25
 62
7
100
AcDbLine
 10
9.036767364569922
 20
-21.85144652708601
 30
0.0
 11
9.908151046854888
 21
-22.72283020937098
 31
0.0
  0
LINE
  5
B31
330
1F
100
AcDbEntity
  8
2
  6
CONTINUOUS
370
25
 62
7
100
AcDbLine
 10
9.390320755163193
 20
-21.78073584896736
 30
0.0
 11
10.4384811327448
 21
-22.82889622654896
 31
0.0
  0
LINE
  5
B32
330
1F
100
AcDbEntity
  8
2
  6
CONTINUOUS
370
25
 62
7
100
AcDbLine
 10
9.743874145756466
 20
-21.7100251708487
 30
0.0
 11
10.96881121863471
 21
-22.93496224372694
 31
0.0
  0
LINE
  5
B33
330
1F
100
AcDbEntity
  8
2
  6
CONTINUOUS
370
25
 62
7
100
AcDbLine
 10
10.09742753634974
 20
-21.63931449273005
 30
0.0
 11
11.49914130452462
 21
-23.04102826090492
 31
0.0
  0
LINE
  5
B34
330
1F
100
AcDbEntity
  8
2
  6
CONTINUOUS
370
25
 62
7
100
AcDbLine
 10
10.45098092694301
 20
-21.56860381461139
 30
0.0
 11
12.02947139041453
 21
-23.14709427808291
 31
0.0
  0
LINE
  5
B35
330
1F
100
AcDbEntity
  8
2
  6
CONTINUOUS
370
25
 62
7
100
AcDbLine
 10
10.80453431753629
 20
-21.49789313649274
 30
0.0
 11
12.294
 21
-22.98735881895645
 31
0.0
  0
LINE
  5
B36
330
1F
100
AcDbEntity
  8
2
  6
CONTINUOUS
370
25
 62
7
100
AcDbLine
 10
11.15808770812956
 20
-21.42718245837408
 30
0.0
 11
12.294
 21
-22.56309475024452
 31
0.0
  0
LINE
  5
B37
330
1F
100
AcDbEntity
  8
2
  6
CONTINUOUS
370
25
 62
7
100
AcDbLine
 10
11.51164109872283
 20
-21.35647178025543
 30
0.0
 11
12.294
 21
-22.1388306815326
 31
0.0
  0
LINE
  5
B38
330
1F
100
AcDbEntity
  8
2
  6
CONTINUOUS
370
25
 62
7
100
AcDbLine
 10
11.8651944893161
 20
-21.28576110213677
 30
0.0
 11
12.294
 21
-21.71456661282067
 31
0.0
  0
LINE
  5
B39
330
1F
100
AcDbEntity
  8
2
  6
CONTINUOUS
370
25
 62
7
100
AcDbLine
 10
12.21874787990938
 20
-21.21505042401812
 30
0.0
 11
12.294
 21
-21.29030254410874
 31
0.0
  0
TEXT
  5
B3A
330
1F
100
AcDbEntity
  8
2
  6
CONTINUOUS
370
25
 62
7
100
AcDbText
 10
14.28566666666666
 20
-20.7
 30
0.0
 40
3.5
  1
0.24
 72
     1
 11
19.244
 21
-20.7
 31
0.0
100
AcDbText
  0
LINE
  5
B3B
330
1F
100
AcDbEntity
  8
2
  6
CONTINUOUS
370
25
 62
7
100
AcDbLine
 10
-0.01
 20
1.99995
 30
0.0
 11
-0.0099999999999982
 21
31.37495
 31
0.0
  0
LINE
  5
B3C
330
1F
100
AcDbEntity
  8
2
  6
CONTINUOUS
370
25
 62
7
100
AcDbLine
 10
7.294000000000002
 20
31.37495
 30
0.0
 11
7.294
 21
0.0999999999999979
 31
0.0
  0
LINE
  5
B3D
330
1F
100
AcDbEntity
  8
2
  6
CONTINUOUS
370
25
 62
7
100
AcDbLine
 10
-7.01
 20
30.37495
 30
0.0
 11
29.169
 21
30.37495
 31
0.0
  0
LINE
  5
B3E
330
1F
100
AcDbEntity
  8
2
  6
CONTINUOUS
370
25
 62
7
100
AcDbLine
 10
-0.01
 20
30.37495
 30
0.0
 11
-5.01
 21
29.37495
 31
0.0
  0
LINE
  5
B3F
330
1F
100
AcDbEntity
  8
2
  6
CONTINUOUS
370
25
 62
7
100
AcDbLine
 10
-5.01
 20
29.37495
 30
0.0
 11
-5.01
 21
31.37495
 31
0.0
  0
LINE
  5
B40
330
1F
100
AcDbEntity
  8
2
  6
CONTINUOUS
370
25
 62
7
100
AcDbLine
 10
-5.01
 20
31.37495
 30
0.0
 11
-0.01
 21
30.37495
 31
0.0
  0
LINE
  5
B41
330
1F
100
AcDbEntity
  8
2
  6
CONTINUOUS
370
25
 62
7
100
AcDbLine
 10
-0.2250786840735369
 20
30.33193426318529
 30
0.0
 11
-0.1533857893823581
 21
30.40362715787647
 31
0.0
  0
LINE
  5
B42
330
1F
100
AcDbEntity
  8
2
  6
CONTINUOUS
370
25
 62
7
100
AcDbLine
 10
-0.7554087699634532
 20
30.22586824600731
 30
0.0
 11
-0.5069391799756361
 21
30.47433783599513
 31
0.0
  0
LINE
  5
B43
330
1F
100
AcDbEntity
  8
2
  6
CONTINUOUS
370
25
 62
7
100
AcDbLine
 10
-1.285738855853365
 20
30.11980222882933
 30
0.0
 11
-0.860492570568911
 21
30.54504851411378
 31
0.0
  0
LINE
  5
B44
330
1F
100
AcDbEntity
  8
2
  6
CONTINUOUS
370
25
 62
7
100
AcDbLine
 10
-1.816068941743271
 20
30.01373621165135
 30
0.0
 11
-1.214045961162183
 21
30.61575919223244
 31
0.0
  0
LINE
  5
B45
330
1F
100
AcDbEntity
  8
2
  6
CONTINUOUS
370
25
 62
7
100
AcDbLine
 10
-2.346399027633181
 20
29.90767019447336
 30
0.0
 11
-1.567599351755457
 21
30.68646987035109
 31
0.0
  0
LINE
  5
B46
330
1F
100
AcDbEntity
  8
2
  6
CONTINUOUS
370
25
 62
7
100
AcDbLine
 10
-2.876729113523095
 20
29.80160417729538
 30
0.0
 11
-1.921152742348734
 21
30.75718054846974
 31
0.0
  0
LINE
  5
B47
330
1F
100
AcDbEntity
  8
2
  6
CONTINUOUS
370
25
 62
7
100
AcDbLine
 10
-3.407059199413009
 20
29.6955381601174
 30
0.0
 11
-2.27470613294201
 21
30.8278912265884
 31
0.0
  0
LINE
  5
B48
330
1F
100
AcDbEntity
  8
2
  6
CONTINUOUS
370
25
 62
7
100
AcDbLine
 10
-3.937389285302914
 20
29.58947214293941
 30
0.0
 11
-2.628259523535282
 21
30.89860190470705
 31
0.0
  0
LINE
  5
B49
330
1F
100
AcDbEntity
  8
2
  6
CONTINUOUS
370
25
 62
7
100
AcDbLine
 10
-4.467719371192826
 20
29.48340612576143
 30
0.0
 11
-2.981812914128558
 21
30.96931258282571
 31
0.0
  0
LINE
  5
B4A
330
1F
100
AcDbEntity
  8
2
  6
CONTINUOUS
370
25
 62
7
100
AcDbLine
 10
-4.998049457082736
 20
29.37734010858345
 30
0.0
 11
-3.335366304721834
 21
31.04002326094437
 31
0.0
  0
LINE
  5
B4B
330
1F
100
AcDbEntity
  8
2
  6
CONTINUOUS
370
25
 62
7
100
AcDbLine
 10
-5.01
 20
29.78965363437812
 30
0.0
 11
-3.688919695315105
 21
31.11073393906302
 31
0.0
  0
LINE
  5
B4C
330
1F
100
AcDbEntity
  8
2
  6
CONTINUOUS
370
25
 62
7
100
AcDbLine
 10
-5.01
 20
30.21391770309005
 30
0.0
 11
-4.042473085908379
 21
31.18144461718168
 31
0.0
  0
LINE
  5
B4D
330
1F
100
AcDbEntity
  8
2
  6
CONTINUOUS
370
25
 62
7
100
AcDbLine
 10
-5.01
 20
30.63818177180197
 30
0.0
 11
-4.396026476501649
 21
31.25215529530033
 31
0.0
  0
LINE
  5
B4E
330
1F
100
AcDbEntity
  8
2
  6
CONTINUOUS
370
25
 62
7
100
AcDbLine
 10
-5.01
 20
31.06244584051391
 30
0.0
 11
-4.749579867094924
 21
31.32286597341898
 31
0.0
  0
LINE
  5
B4F
330
1F
100
AcDbEntity
  8
2
  6
CONTINUOUS
370
25
 62
7
100
AcDbLine
 10
-5.01
 20
29.60731598529182
 30
0.0
 11
-4.816361678923482
 21
29.4136776642153
 31
0.0
  0
LINE
  5
B50
330
1F
100
AcDbEntity
  8
2
  6
CONTINUOUS
370
25
 62
7
100
AcDbLine
 10
-5.01
 20
30.03158005400375
 30
0.0
 11
-4.462808288330208
 21
29.48438834233396
 31
0.0
  0
LINE
  5
B51
330
1F
100
AcDbEntity
  8
2
  6
CONTINUOUS
370
25
 62
7
100
AcDbLine
 10
-5.01
 20
30.45584412271568
 30
0.0
 11
-4.109254897736934
 21
29.55509902045261
 31
0.0
  0
LINE
  5
B52
330
1F
100
AcDbEntity
  8
2
  6
CONTINUOUS
370
25
 62
7
100
AcDbLine
 10
-5.01
 20
30.88010819142761
 30
0.0
 11
-3.75570150714366
 21
29.62580969857127
 31
0.0
  0
LINE
  5
B53
330
1F
100
AcDbEntity
  8
2
  6
CONTINUOUS
370
25
 62
7
100
AcDbLine
 10
-5.01
 20
31.30437226013954
 30
0.0
 11
-3.402148116550386
 21
29.69652037668992
 31
0.0
  0
LINE
  5
B54
330
1F
100
AcDbEntity
  8
2
  6
CONTINUOUS
370
25
 62
7
100
AcDbLine
 10
-4.56789208893566
 20
31.28652841778713
 30
0.0
 11
-3.04859472595711
 21
29.76723105480858
 31
0.0
  0
LINE
  5
B55
330
1F
100
AcDbEntity
  8
2
  6
CONTINUOUS
370
25
 62
7
100
AcDbLine
 10
-4.03756200304575
 20
31.18046240060915
 30
0.0
 11
-2.695041335363836
 21
29.83794173292723
 31
0.0
  0
LINE
  5
B56
330
1F
100
AcDbEntity
  8
2
  6
CONTINUOUS
370
25
 62
7
100
AcDbLine
 10
-3.507231917155837
 20
31.07439638343116
 30
0.0
 11
-2.34148794477056
 21
29.90865241104589
 31
0.0
  0
LINE
  5
B57
330
1F
100
AcDbEntity
  8
2
  6
CONTINUOUS
370
25
 62
7
100
AcDbLine
 10
-2.976901831265927
 20
30.96833036625318
 30
0.0
 11
-1.987934554177287
 21
29.97936308916454
 31
0.0
  0
LINE
  5
B58
330
1F
100
AcDbEntity
  8
2
  6
CONTINUOUS
370
25
 62
7
100
AcDbLine
 10
-2.446571745376018
 20
30.8622643490752
 30
0.0
 11
-1.634381163584015
 21
30.05007376728319
 31
0.0
  0
LINE
  5
B59
330
1F
100
AcDbEntity
  8
2
  6
CONTINUOUS
370
25
 62
7
100
AcDbLine
 10
-1.916241659486106
 20
30.75619833189722
 30
0.0
 11
-1.280827772990739
 21
30.12078444540185
 31
0.0
  0
LINE
  5
B5A
330
1F
100
AcDbEntity
  8
2
  6
CONTINUOUS
370
25
 62
7
100
AcDbLine
 10
-1.385911573596194
 20
30.65013231471924
 30
0.0
 11
-0.927274382397464
 21
30.1914951235205
 31
0.0
  0
LINE
  5
B5B
330
1F
100
AcDbEntity
  8
2
  6
CONTINUOUS
370
25
 62
7
100
AcDbLine
 10
-0.8555814877062861
 20
30.54406629754126
 30
0.0
 11
-0.5737209918041918
 21
30.26220580163916
 31
0.0
  0
LINE
  5
B5C
330
1F
100
AcDbEntity
  8
2
  6
CONTINUOUS
370
25
 62
7
100
AcDbLine
 10
-0.3252514018163747
 20
30.43800028036327
 30
0.0
 11
-0.2201676012109169
 21
30.33291647975782
 31
0.0
  0
LINE
  5
B5D
330
1F
100
AcDbEntity
  8
2
  6
CONTINUOUS
370
25
 62
7
100
AcDbLine
 10
7.294000000000002
 20
30.37495
 30
0.0
 11
12.294
 21
31.37495
 31
0.0
  0
LINE
  5
B5E
330
1F
100
AcDbEntity
  8
2
  6
CONTINUOUS
370
25
 62
7
100
AcDbLine
 10
12.294
 20
31.37495
 30
0.0
 11
12.294
 21
29.37495
 31
0.0
  0
LINE
  5
B5F
330
1F
100
AcDbEntity
  8
2
  6
CONTINUOUS
370
25
 62
7
100
AcDbLine
 10
12.294
 20
29.37495
 30
0.0
 11
7.294000000000002
 21
30.37495
 31
0.0
  0
LINE
  5
B60
330
1F
100
AcDbEntity
  8
2
  6
CONTINUOUS
370
25
 62
7
100
AcDbLine
 10
12.02410265234248
 20
29.4289294695315
 30
0.0
 11
12.294
 21
29.69882681718902
 31
0.0
  0
LINE
  5
B61
330
1F
100
AcDbEntity
  8
2
  6
CONTINUOUS
370
25
 62
7
100
AcDbLine
 10
11.67054926174921
 20
29.49964014765015
 30
0.0
 11
12.294
 21
30.12309088590095
 31
0.0
  0
LINE
  5
B62
330
1F
100
AcDbEntity
  8
2
  6
CONTINUOUS
370
25
 62
7
100
AcDbLine
 10
11.31699587115593
 20
29.57035082576881
 30
0.0
 11
12.294
 21
30.54735495461288
 31
0.0
  0
LINE
  5
B63
330
1F
100
AcDbEntity
  8
2
  6
CONTINUOUS
370
25
 62
7
100
AcDbLine
 10
10.96344248056266
 20
29.64106150388746
 30
0.0
 11
12.294
 21
30.97161902332481
 31
0.0
  0
LINE
  5
B64
330
1F
100
AcDbEntity
  8
2
  6
CONTINUOUS
370
25
 62
7
100
AcDbLine
 10
10.60988908996938
 20
29.71177218200612
 30
0.0
 11
12.26783363495407
 21
31.36971672699081
 31
0.0
  0
LINE
  5
B65
330
1F
100
AcDbEntity
  8
2
  6
CONTINUOUS
370
25
 62
7
100
AcDbLine
 10
10.25633569937611
 20
29.78248286012478
 30
0.0
 11
11.73750354906416
 21
31.26365070981283
 31
0.0
  0
LINE
  5
B66
330
1F
100
AcDbEntity
  8
2
  6
CONTINUOUS
370
25
 62
7
100
AcDbLine
 10
9.902782308782838
 20
29.85319353824343
 30
0.0
 11
11.20717346317425
 21
31.15758469263485
 31
0.0
  0
LINE
  5
B67
330
1F
100
AcDbEntity
  8
2
  6
CONTINUOUS
370
25
 62
7
100
AcDbLine
 10
9.549228918189563
 20
29.92390421636208
 30
0.0
 11
10.67684337728434
 21
31.05151867545687
 31
0.0
  0
LINE
  5
B68
330
1F
100
AcDbEntity
  8
2
  6
CONTINUOUS
370
25
 62
7
100
AcDbLine
 10
9.195675527596288
 20
29.99461489448074
 30
0.0
 11
10.14651329139443
 21
30.94545265827889
 31
0.0
  0
LINE
  5
B69
330
1F
100
AcDbEntity
  8
2
  6
CONTINUOUS
370
25
 62
7
100
AcDbLine
 10
8.842122137003013
 20
30.0653255725994
 30
0.0
 11
9.616183205504516
 21
30.8393866411009
 31
0.0
  0
LINE
  5
B6A
330
1F
100
AcDbEntity
  8
2
  6
CONTINUOUS
370
25
 62
7
100
AcDbLine
 10
8.48856874640974
 20
30.13603625071805
 30
0.0
 11
9.08585311961461
 21
30.73332062392292
 31
0.0
  0
LINE
  5
B6B
330
1F
100
AcDbEntity
  8
2
  6
CONTINUOUS
370
25
 62
7
100
AcDbLine
 10
8.135015355816467
 20
30.2067469288367
 30
0.0
 11
8.5555230337247
 21
30.62725460674494
 31
0.0
  0
LINE
  5
B6C
330
1F
100
AcDbEntity
  8
2
  6
CONTINUOUS
370
25
 62
7
100
AcDbLine
 10
7.781461965223193
 20
30.27745760695536
 30
0.0
 11
8.02519294783479
 21
30.52118858956696
 31
0.0
  0
LINE
  5
B6D
330
1F
100
AcDbEntity
  8
2
  6
CONTINUOUS
370
25
 62
7
100
AcDbLine
 10
7.427908574629919
 20
30.34816828507401
 30
0.0
 11
7.49486286194488
 21
30.41512257238897
 31
0.0
  0
LINE
  5
B6E
330
1F
100
AcDbEntity
  8
2
  6
CONTINUOUS
370
25
 62
7
100
AcDbLine
 10
7.361126762801351
 20
30.38837535256027
 30
0.0
 11
7.394690144202027
 21
30.35481197115959
 31
0.0
  0
LINE
  5
B6F
330
1F
100
AcDbEntity
  8
2
  6
CONTINUOUS
370
25
 62
7
100
AcDbLine
 10
7.714680153394626
 20
30.45908603067893
 30
0.0
 11
7.92502023009194
 21
30.24874595398161
 31
0.0
  0
LINE
  5
B70
330
1F
100
AcDbEntity
  8
2
  6
CONTINUOUS
370
25
 62
7
100
AcDbLine
 10
8.068233543987896
 20
30.52979670879758
 30
0.0
 11
8.455350315981844
 21
30.14267993680363
 31
0.0
  0
LINE
  5
B71
330
1F
100
AcDbEntity
  8
2
  6
CONTINUOUS
370
25
 62
7
100
AcDbLine
 10
8.421786934581172
 20
30.60050738691623
 30
0.0
 11
8.98568040187176
 21
30.03661391962564
 31
0.0
  0
LINE
  5
B72
330
1F
100
AcDbEntity
  8
2
  6
CONTINUOUS
370
25
 62
7
100
AcDbLine
 10
8.775340325174447
 20
30.67121806503489
 30
0.0
 11
9.51601048776167
 21
29.93054790244766
 31
0.0
  0
LINE
  5
B73
330
1F
100
AcDbEntity
  8
2
  6
CONTINUOUS
370
25
 62
7
100
AcDbLine
 10
9.128893715767722
 20
30.74192874315354
 30
0.0
 11
10.04634057365158
 21
29.82448188526968
 31
0.0
  0
LINE
  5
B74
330
1F
100
AcDbEntity
  8
2
  6
CONTINUOUS
370
25
 62
7
100
AcDbLine
 10
9.482447106360997
 20
30.8126394212722
 30
0.0
 11
10.57667065954149
 21
29.7184158680917
 31
0.0
  0
LINE
  5
B75
330
1F
100
AcDbEntity
  8
2
  6
CONTINUOUS
370
25
 62
7
100
AcDbLine
 10
9.836000496954266
 20
30.88335009939085
 30
0.0
 11
11.1070007454314
 21
29.61234985091372
 31
0.0
  0
LINE
  5
B76
330
1F
100
AcDbEntity
  8
2
  6
CONTINUOUS
370
25
 62
7
100
AcDbLine
 10
10.18955388754754
 20
30.95406077750951
 30
0.0
 11
11.63733083132131
 21
29.50628383373574
 31
0.0
  0
LINE
  5
B77
330
1F
100
AcDbEntity
  8
2
  6
CONTINUOUS
370
25
 62
7
100
AcDbLine
 10
10.54310727814081
 20
31.02477145562816
 30
0.0
 11
12.16766091721122
 21
29.40021781655776
 31
0.0
  0
LINE
  5
B78
330
1F
100
AcDbEntity
  8
2
  6
CONTINUOUS
370
25
 62
7
100
AcDbLine
 10
10.89666066873409
 20
31.09548213374682
 30
0.0
 11
12.294
 21
29.69814280248089
 31
0.0
  0
LINE
  5
B79
330
1F
100
AcDbEntity
  8
2
  6
CONTINUOUS
370
25
 62
7
100
AcDbLine
 10
11.25021405932736
 20
31.16619281186547
 30
0.0
 11
12.294
 21
30.12240687119283
 31
0.0
  0
LINE
  5
B7A
330
1F
100
AcDbEntity
  8
2
  6
CONTINUOUS
370
25
 62
7
100
AcDbLine
 10
11.60376744992064
 20
31.23690348998413
 30
0.0
 11
12.294
 21
30.54667093990476
 31
0.0
  0
LINE
  5
B7B
330
1F
100
AcDbEntity
  8
2
  6
CONTINUOUS
370
25
 62
7
100
AcDbLine
 10
11.95732084051391
 20
31.30761416810278
 30
0.0
 11
12.294
 21
30.97093500861669
 31
0.0
  0
TEXT
  5
B7C
330
1F
100
AcDbEntity
  8
2
  6
CONTINUOUS
370
25
 62
7
100
AcDbText
 10
14.02316666666666
 20
31.87495
 30
0.0
 40
3.5
  1
7.304
 72
     1
 11
20.7315
 21
31.87495
 31
0.0
100
AcDbText
  0
LINE
  5
B7D
330
1F
100
AcDbEntity
  8
SK2
  6
CONTINUOUS
370
25
 62
7
100
AcDbLine
 10
-42.706
 20
-0.0000500000000001
 30
0.0
 11
-42.706
 21
41.37495
 31
0.0
  0
LINE
  5
B7E
330
1F
100
AcDbEntity
  8
SK2
  6
CONTINUOUS
370
25
 62
7
100
AcDbLine
 10
7.294000000000002
 20
41.37495
 30
0.0
 11
7.294
 21
0.1000000000000014
 31
0.0
  0
LINE
  5
B7F
330
1F
100
AcDbEntity
  8
SK2
  6
CONTINUOUS
370
25
 62
7
100
AcDbLine
 10
-42.706
 20
40.37495
 30
0.0
 11
7.294000000000002
 21
40.37495
 31
0.0
  0
LINE
  5
B80
330
1F
100
AcDbEntity
  8
SK2
  6
CONTINUOUS
370
25
 62
7
100
AcDbLine
 10
-42.706
 20
40.37495
 30
0.0
 11
-37.706
 21
41.37495
 31
0.0
  0
LINE
  5
B81
330
1F
100
AcDbEntity
  8
SK2
  6
CONTINUOUS
370
25
 62
7
100
AcDbLine
 10
-37.706
 20
41.37495
 30
0.0
 11
-37.706
 21
39.37495
 31
0.0
  0
LINE
  5
B82
330
1F
100
AcDbEntity
  8
SK2
  6
CONTINUOUS
370
25
 62
7
100
AcDbLine
 10
-37.706
 20
39.37495
 30
0.0
 11
-42.706
 21
40.37495
 31
0.0
  0
LINE
  5
B83
330
1F
100
AcDbEntity
  8
SK2
  6
CONTINUOUS
370
25
 62
7
100
AcDbLine
 10
-37.82692542130917
 20
39.39913508426184
 30
0.0
 11
-37.706
 21
39.52006050557101
 31
0.0
  0
LINE
  5
B84
330
1F
100
AcDbEntity
  8
SK2
  6
CONTINUOUS
370
25
 62
7
100
AcDbLine
 10
-38.18047881190245
 20
39.46984576238049
 30
0.0
 11
-37.706
 21
39.94432457428294
 31
0.0
  0
LINE
  5
B85
330
1F
100
AcDbEntity
  8
SK2
  6
CONTINUOUS
370
25
 62
7
100
AcDbLine
 10
-38.53403220249573
 20
39.54055644049915
 30
0.0
 11
-37.706
 21
40.36858864299488
 31
0.0
  0
LINE
  5
B86
330
1F
100
AcDbEntity
  8
SK2
  6
CONTINUOUS
370
25
 62
7
100
AcDbLine
 10
-38.88758559308901
 20
39.6112671186178
 30
0.0
 11
-37.706
 21
40.79285271170681
 31
0.0
  0
LINE
  5
B87
330
1F
100
AcDbEntity
  8
SK2
  6
CONTINUOUS
370
25
 62
7
100
AcDbLine
 10
-39.24113898368229
 20
39.68197779673645
 30
0.0
 11
-37.706
 21
41.21711678041875
 31
0.0
  0
LINE
  5
B88
330
1F
100
AcDbEntity
  8
SK2
  6
CONTINUOUS
370
25
 62
7
100
AcDbLine
 10
-39.59469237427557
 20
39.75268847485511
 30
0.0
 11
-38.03903856141336
 21
41.30834228771732
 31
0.0
  0
LINE
  5
B89
330
1F
100
AcDbEntity
  8
SK2
  6
CONTINUOUS
370
25
 62
7
100
AcDbLine
 10
-39.94824576486884
 20
39.82339915297377
 30
0.0
 11
-38.56936864730327
 21
41.20227627053934
 31
0.0
  0
LINE
  5
B8A
330
1F
100
AcDbEntity
  8
SK2
  6
CONTINUOUS
370
25
 62
7
100
AcDbLine
 10
-40.30179915546213
 20
39.89410983109242
 30
0.0
 11
-39.09969873319319
 21
41.09621025336136
 31
0.0
  0
LINE
  5
B8B
330
1F
100
AcDbEntity
  8
SK2
  6
CONTINUOUS
370
25
 62
7
100
AcDbLine
 10
-40.6553525460554
 20
39.96482050921108
 30
0.0
 11
-39.63002881908312
 21
40.99014423618337
 31
0.0
  0
LINE
  5
B8C
330
1F
100
AcDbEntity
  8
SK2
  6
CONTINUOUS
370
25
 62
7
100
AcDbLine
 10
-41.00890593664869
 20
40.03553118732973
 30
0.0
 11
-40.16035890497303
 21
40.88407821900539
 31
0.0
  0
LINE
  5
B8D
330
1F
100
AcDbEntity
  8
SK2
  6
CONTINUOUS
370
25
 62
7
100
AcDbLine
 10
-41.36245932724196
 20
40.1062418654484
 30
0.0
 11
-40.69068899086295
 21
40.7780122018274
 31
0.0
  0
LINE
  5
B8E
330
1F
100
AcDbEntity
  8
SK2
  6
CONTINUOUS
370
25
 62
7
100
AcDbLine
 10
-41.71601271783524
 20
40.17695254356705
 30
0.0
 11
-41.22101907675287
 21
40.67194618464943
 31
0.0
  0
LINE
  5
B8F
330
1F
100
AcDbEntity
  8
SK2
  6
CONTINUOUS
370
25
 62
7
100
AcDbLine
 10
-42.06956610842852
 20
40.24766322168571
 30
0.0
 11
-41.75134916264279
 21
40.56588016747144
 31
0.0
  0
LINE
  5
B90
330
1F
100
AcDbEntity
  8
SK2
  6
CONTINUOUS
370
25
 62
7
100
AcDbLine
 10
-42.4231194990218
 20
40.31837389980436
 30
0.0
 11
-42.28167924853271
 21
40.45981415029345
 31
0.0
  0
LINE
  5
B91
330
1F
100
AcDbEntity
  8
SK2
  6
CONTINUOUS
370
25
 62
7
100
AcDbLine
 10
-42.50492291560131
 20
40.41516541687974
 30
0.0
 11
-42.40438437340195
 21
40.31462687468039
 31
0.0
  0
LINE
  5
B92
330
1F
100
AcDbEntity
  8
SK2
  6
CONTINUOUS
370
25
 62
7
100
AcDbLine
 10
-42.15136952500802
 20
40.4858760949984
 30
0.0
 11
-41.87405428751203
 21
40.20856085750241
 31
0.0
  0
LINE
  5
B93
330
1F
100
AcDbEntity
  8
SK2
  6
CONTINUOUS
370
25
 62
7
100
AcDbLine
 10
-41.79781613441475
 20
40.55658677311705
 30
0.0
 11
-41.34372420162211
 21
40.10249484032442
 31
0.0
  0
LINE
  5
B94
330
1F
100
AcDbEntity
  8
SK2
  6
CONTINUOUS
370
25
 62
7
100
AcDbLine
 10
-41.44426274382146
 20
40.62729745123571
 30
0.0
 11
-40.81339411573219
 21
39.99642882314643
 31
0.0
  0
LINE
  5
B95
330
1F
100
AcDbEntity
  8
SK2
  6
CONTINUOUS
370
25
 62
7
100
AcDbLine
 10
-41.09070935322818
 20
40.69800812935436
 30
0.0
 11
-40.28306402984227
 21
39.89036280596845
 31
0.0
  0
LINE
  5
B96
330
1F
100
AcDbEntity
  8
SK2
  6
CONTINUOUS
370
25
 62
7
100
AcDbLine
 10
-40.73715596263491
 20
40.76871880747302
 30
0.0
 11
-39.75273394395235
 21
39.78429678879046
 31
0.0
  0
LINE
  5
B97
330
1F
100
AcDbEntity
  8
SK2
  6
CONTINUOUS
370
25
 62
7
100
AcDbLine
 10
-40.38360257204162
 20
40.83942948559167
 30
0.0
 11
-39.22240385806243
 21
39.67823077161248
 31
0.0
  0
LINE
  5
B98
330
1F
100
AcDbEntity
  8
SK2
  6
CONTINUOUS
370
25
 62
7
100
AcDbLine
 10
-40.03004918144835
 20
40.91014016371033
 30
0.0
 11
-38.69207377217251
 21
39.5721647544345
 31
0.0
  0
LINE
  5
B99
330
1F
100
AcDbEntity
  8
SK2
  6
CONTINUOUS
370
25
 62
7
100
AcDbLine
 10
-39.67649579085506
 20
40.98085084182898
 30
0.0
 11
-38.16174368628259
 21
39.46609873725652
 31
0.0
  0
LINE
  5
B9A
330
1F
100
AcDbEntity
  8
SK2
  6
CONTINUOUS
370
25
 62
7
100
AcDbLine
 10
-39.32294240026179
 20
41.05156151994764
 30
0.0
 11
-37.706
 21
39.43461911968586
 31
0.0
  0
LINE
  5
B9B
330
1F
100
AcDbEntity
  8
SK2
  6
CONTINUOUS
370
25
 62
7
100
AcDbLine
 10
-38.96938900966851
 20
41.1222721980663
 30
0.0
 11
-37.706
 21
39.85888318839779
 31
0.0
  0
LINE
  5
B9C
330
1F
100
AcDbEntity
  8
SK2
  6
CONTINUOUS
370
25
 62
7
100
AcDbLine
 10
-38.61583561907523
 20
41.19298287618496
 30
0.0
 11
-37.706
 21
40.28314725710973
 31
0.0
  0
LINE
  5
B9D
330
1F
100
AcDbEntity
  8
SK2
  6
CONTINUOUS
370
25
 62
7
100
AcDbLine
 10
-38.26228222848196
 20
41.26369355430361
 30
0.0
 11
-37.706
 21
40.70741132582165
 31
0.0
  0
LINE
  5
B9E
330
1F
100
AcDbEntity
  8
SK2
  6
CONTINUOUS
370
25
 62
7
100
AcDbLine
 10
-37.90872883788867
 20
41.33440423242227
 30
0.0
 11
-37.706
 21
41.13167539453359
 31
0.0
  0
LINE
  5
B9F
330
1F
100
AcDbEntity
  8
SK2
  6
CONTINUOUS
370
25
 62
7
100
AcDbLine
 10
7.294000000000002
 20
40.37495
 30
0.0
 11
2.294000000000002
 21
39.37495
 31
0.0
  0
LINE
  5
BA0
330
1F
100
AcDbEntity
  8
SK2
  6
CONTINUOUS
370
25
 62
7
100
AcDbLine
 10
2.294000000000002
 20
39.37495
 30
0.0
 11
2.294000000000002
 21
41.37495
 31
0.0
  0
LINE
  5
BA1
330
1F
100
AcDbEntity
  8
SK2
  6
CONTINUOUS
370
25
 62
7
100
AcDbLine
 10
2.294000000000002
 20
41.37495
 30
0.0
 11
7.294000000000002
 21
40.37495
 31
0.0
  0
LINE
  5
BA2
330
1F
100
AcDbEntity
  8
SK2
  6
CONTINUOUS
370
25
 62
7
100
AcDbLine
 10
7.266940800587023
 20
40.36953816011741
 30
0.0
 11
7.27596053372468
 21
40.37855789325506
 31
0.0
  0
LINE
  5
BA3
330
1F
100
AcDbEntity
  8
SK2
  6
CONTINUOUS
370
25
 62
7
100
AcDbLine
 10
6.736610714697104
 20
40.26347214293942
 30
0.0
 11
6.922407143131401
 21
40.44926857137371
 31
0.0
  0
LINE
  5
BA4
330
1F
100
AcDbEntity
  8
SK2
  6
CONTINUOUS
370
25
 62
7
100
AcDbLine
 10
6.206280628807193
 20
40.15740612576144
 30
0.0
 11
6.568853752538127
 21
40.51997924949237
 31
0.0
  0
LINE
  5
BA5
330
1F
100
AcDbEntity
  8
SK2
  6
CONTINUOUS
370
25
 62
7
100
AcDbLine
 10
5.675950542917275
 20
40.05134010858345
 30
0.0
 11
6.215300361944847
 21
40.59068992761102
 31
0.0
  0
LINE
  5
BA6
330
1F
100
AcDbEntity
  8
SK2
  6
CONTINUOUS
370
25
 62
7
100
AcDbLine
 10
5.145620457027364
 20
39.94527409140547
 30
0.0
 11
5.861746971351574
 21
40.66140060572968
 31
0.0
  0
LINE
  5
BA7
330
1F
100
AcDbEntity
  8
SK2
  6
CONTINUOUS
370
25
 62
7
100
AcDbLine
 10
4.615290371137447
 20
39.83920807422749
 30
0.0
 11
5.508193580758296
 21
40.73211128384834
 31
0.0
  0
LINE
  5
BA8
330
1F
100
AcDbEntity
  8
SK2
  6
CONTINUOUS
370
25
 62
7
100
AcDbLine
 10
4.084960285247536
 20
39.73314205704951
 30
0.0
 11
5.154640190165023
 21
40.80282196196699
 31
0.0
  0
LINE
  5
BA9
330
1F
100
AcDbEntity
  8
SK2
  6
CONTINUOUS
370
25
 62
7
100
AcDbLine
 10
3.554630199357617
 20
39.62707603987153
 30
0.0
 11
4.801086799571744
 21
40.87353264008565
 31
0.0
  0
LINE
  5
BAA
330
1F
100
AcDbEntity
  8
SK2
  6
CONTINUOUS
370
25
 62
7
100
AcDbLine
 10
3.024300113467707
 20
39.52101002269354
 30
0.0
 11
4.447533408978471
 21
40.9442433182043
 31
0.0
  0
LINE
  5
BAB
330
1F
100
AcDbEntity
  8
SK2
  6
CONTINUOUS
370
25
 62
7
100
AcDbLine
 10
2.493970027577788
 20
39.41494400551556
 30
0.0
 11
4.093980018385192
 21
41.01495399632296
 31
0.0
  0
LINE
  5
BAC
330
1F
100
AcDbEntity
  8
SK2
  6
CONTINUOUS
370
25
 62
7
100
AcDbLine
 10
2.294000000000002
 20
39.6392380466497
 30
0.0
 11
3.740426627791919
 21
41.08566467444162
 31
0.0
  0
LINE
  5
BAD
330
1F
100
AcDbEntity
  8
SK2
  6
CONTINUOUS
370
25
 62
7
100
AcDbLine
 10
2.294000000000002
 20
40.06350211536164
 30
0.0
 11
3.386873237198639
 21
41.15637535256027
 31
0.0
  0
LINE
  5
BAE
330
1F
100
AcDbEntity
  8
SK2
  6
CONTINUOUS
370
25
 62
7
100
AcDbLine
 10
2.294000000000002
 20
40.48776618407356
 30
0.0
 11
3.033319846605366
 21
41.22708603067893
 31
0.0
  0
LINE
  5
BAF
330
1F
100
AcDbEntity
  8
SK2
  6
CONTINUOUS
370
25
 62
7
100
AcDbLine
 10
2.294000000000002
 20
40.9120302527855
 30
0.0
 11
2.679766456012087
 21
41.29779670879758
 31
0.0
  0
LINE
  5
BB0
330
1F
100
AcDbEntity
  8
SK2
  6
CONTINUOUS
370
25
 62
7
100
AcDbLine
 10
2.294000000000002
 20
41.33629432149743
 30
0.0
 11
2.326213065418814
 21
41.36850738691624
 31
0.0
  0
LINE
  5
BB1
330
1F
100
AcDbEntity
  8
SK2
  6
CONTINUOUS
370
25
 62
7
100
AcDbLine
 10
2.294000000000002
 20
39.69814280248089
 30
0.0
 11
2.563327335400744
 21
39.42881546708015
 31
0.0
  0
LINE
  5
BB2
330
1F
100
AcDbEntity
  8
SK2
  6
CONTINUOUS
370
25
 62
7
100
AcDbLine
 10
2.294000000000002
 20
40.12240687119282
 30
0.0
 11
2.916880725994017
 21
39.4995261451988
 31
0.0
  0
LINE
  5
BB3
330
1F
100
AcDbEntity
  8
SK2
  6
CONTINUOUS
370
25
 62
7
100
AcDbLine
 10
2.294000000000002
 20
40.54667093990475
 30
0.0
 11
3.270434116587296
 21
39.57023682331746
 31
0.0
  0
LINE
  5
BB4
330
1F
100
AcDbEntity
  8
SK2
  6
CONTINUOUS
370
25
 62
7
100
AcDbLine
 10
2.294000000000002
 20
40.97093500861668
 30
0.0
 11
3.62398750718057
 21
39.64094750143612
 31
0.0
  0
LINE
  5
BB5
330
1F
100
AcDbEntity
  8
SK2
  6
CONTINUOUS
370
25
 62
7
100
AcDbLine
 10
2.319311346660775
 20
41.36988773066784
 30
0.0
 11
3.977540897773849
 21
39.71165817955477
 31
0.0
  0
LINE
  5
BB6
330
1F
100
AcDbEntity
  8
SK2
  6
CONTINUOUS
370
25
 62
7
100
AcDbLine
 10
2.849641432550684
 20
41.26382171348986
 30
0.0
 11
4.331094288367122
 21
39.78236885767343
 31
0.0
  0
LINE
  5
BB7
330
1F
100
AcDbEntity
  8
SK2
  6
CONTINUOUS
370
25
 62
7
100
AcDbLine
 10
3.379971518440603
 20
41.15775569631187
 30
0.0
 11
4.6846476789604
 21
39.85307953579208
 31
0.0
  0
LINE
  5
BB8
330
1F
100
AcDbEntity
  8
SK2
  6
CONTINUOUS
370
25
 62
7
100
AcDbLine
 10
3.910301604330513
 20
41.05168967913389
 30
0.0
 11
5.038201069553674
 21
39.92379021391073
 31
0.0
  0
LINE
  5
BB9
330
1F
100
AcDbEntity
  8
SK2
  6
CONTINUOUS
370
25
 62
7
100
AcDbLine
 10
4.440631690220432
 20
40.94562366195591
 30
0.0
 11
5.391754460146952
 21
39.99450089202939
 31
0.0
  0
LINE
  5
BBA
330
1F
100
AcDbEntity
  8
SK2
  6
CONTINUOUS
370
25
 62
7
100
AcDbLine
 10
4.970961776110341
 20
40.83955764477793
 30
0.0
 11
5.745307850740226
 21
40.06521157014804
 31
0.0
  0
LINE
  5
BBB
330
1F
100
AcDbEntity
  8
SK2
  6
CONTINUOUS
370
25
 62
7
100
AcDbLine
 10
5.501291862000261
 20
40.73349162759995
 30
0.0
 11
6.098861241333505
 21
40.1359222482667
 31
0.0
  0
LINE
  5
BBC
330
1F
100
AcDbEntity
  8
SK2
  6
CONTINUOUS
370
25
 62
7
100
AcDbLine
 10
6.03162194789017
 20
40.62742561042197
 30
0.0
 11
6.452414631926779
 21
40.20663292638535
 31
0.0
  0
LINE
  5
BBD
330
1F
100
AcDbEntity
  8
SK2
  6
CONTINUOUS
370
25
 62
7
100
AcDbLine
 10
6.561952033780088
 20
40.52135959324398
 30
0.0
 11
6.805968022520056
 21
40.27734360450401
 31
0.0
  0
LINE
  5
BBE
330
1F
100
AcDbEntity
  8
SK2
  6
CONTINUOUS
370
25
 62
7
100
AcDbLine
 10
7.092282119669997
 20
40.415293576066
 30
0.0
 11
7.159521413113329
 21
40.34805428262267
 31
0.0
  0
TEXT
  5
BBF
330
1F
100
AcDbEntity
  8
SK2
  6
CONTINUOUS
370
25
 62
7
100
AcDbText
 10
-20.331
 20
41.87495
 30
0.0
 40
3.5
  1
50
 72
     1
 11
-17.706
 21
41.87495
 31
0.0
100
AcDbText
  0
LINE
  5
BC0
330
1F
100
AcDbEntity
  8
2
  6
CONTINUOUS
370
25
 62
7
100
AcDbLine
 10
6.294
 20
-0.19245
 30
0.0
 11
6.293999999999999
 21
-33.2
 31
0.0
  0
LINE
  5
BC1
330
1F
100
AcDbEntity
  8
2
  6
CONTINUOUS
370
25
 62
7
100
AcDbLine
 10
7.293999999999999
 20
-33.2
 30
0.0
 11
7.294
 21
-0.1000000000000014
 31
0.0
  0
LINE
  5
BC2
330
1F
100
AcDbEntity
  8
2
  6
CONTINUOUS
370
25
 62
7
100
AcDbLine
 10
-0.7060000000000015
 20
-32.2
 30
0.0
 11
17.269
 21
-32.2
 31
0.0
  0
LINE
  5
BC3
330
1F
100
AcDbEntity
  8
2
  6
CONTINUOUS
370
25
 62
7
100
AcDbLine
 10
6.293999999999999
 20
-32.2
 30
0.0
 11
1.293999999999998
 21
-33.2
 31
0.0
  0
LINE
  5
BC4
330
1F
100
AcDbEntity
  8
2
  6
CONTINUOUS
370
25
 62
7
100
AcDbLine
 10
1.293999999999998
 20
-33.2
 30
0.0
 11
1.293999999999998
 21
-31.2
 31
0.0
  0
LINE
  5
BC5
330
1F
100
AcDbEntity
  8
2
  6
CONTINUOUS
370
25
 62
7
100
AcDbLine
 10
1.293999999999998
 20
-31.2
 30
0.0
 11
6.293999999999999
 21
-32.2
 31
0.0
  0
LINE
  5
BC6
330
1F
100
AcDbEntity
  8
2
  6
CONTINUOUS
370
25
 62
7
100
AcDbLine
 10
6.143014572759641
 20
-32.23019708544808
 30
0.0
 11
6.19334304850643
 21
-32.17986860970129
 31
0.0
  0
LINE
  5
BC7
330
1F
100
AcDbEntity
  8
2
  6
CONTINUOUS
370
25
 62
7
100
AcDbLine
 10
5.612684486869723
 20
-32.33626310262606
 30
0.0
 11
5.839789657913151
 21
-32.10915793158264
 31
0.0
  0
LINE
  5
BC8
330
1F
100
AcDbEntity
  8
2
  6
CONTINUOUS
370
25
 62
7
100
AcDbLine
 10
5.082354400979813
 20
-32.44232911980404
 30
0.0
 11
5.486236267319879
 21
-32.03844725346398
 31
0.0
  0
LINE
  5
BC9
330
1F
100
AcDbEntity
  8
2
  6
CONTINUOUS
370
25
 62
7
100
AcDbLine
 10
4.552024315089904
 20
-32.54839513698202
 30
0.0
 11
5.132682876726608
 21
-31.96773657534532
 31
0.0
  0
LINE
  5
BCA
330
1F
100
AcDbEntity
  8
2
  6
CONTINUOUS
370
25
 62
7
100
AcDbLine
 10
4.021694229199984
 20
-32.65446115416001
 30
0.0
 11
4.779129486133328
 21
-31.89702589722667
 31
0.0
  0
LINE
  5
BCB
330
1F
100
AcDbEntity
  8
2
  6
CONTINUOUS
370
25
 62
7
100
AcDbLine
 10
3.491364143310074
 20
-32.76052717133799
 30
0.0
 11
4.425576095540055
 21
-31.82631521910801
 31
0.0
  0
LINE
  5
BCC
330
1F
100
AcDbEntity
  8
2
  6
CONTINUOUS
370
25
 62
7
100
AcDbLine
 10
2.961034057420153
 20
-32.86659318851598
 30
0.0
 11
4.072022704946776
 21
-31.75560454098936
 31
0.0
  0
LINE
  5
BCD
330
1F
100
AcDbEntity
  8
2
  6
CONTINUOUS
370
25
 62
7
100
AcDbLine
 10
2.430703971530241
 20
-32.97265920569396
 30
0.0
 11
3.718469314353503
 21
-31.68489386287071
 31
0.0
  0
LINE
  5
BCE
330
1F
100
AcDbEntity
  8
2
  6
CONTINUOUS
370
25
 62
7
100
AcDbLine
 10
1.900373885640329
 20
-33.07872522287194
 30
0.0
 11
3.36491592376023
 21
-31.61418318475205
 31
0.0
  0
LINE
  5
BCF
330
1F
100
AcDbEntity
  8
2
  6
CONTINUOUS
370
25
 62
7
100
AcDbLine
 10
1.370043799750406
 20
-33.18479124004993
 30
0.0
 11
3.01136253316695
 21
-31.54347250663339
 31
0.0
  0
LINE
  5
BD0
330
1F
100
AcDbEntity
  8
2
  6
CONTINUOUS
370
25
 62
7
100
AcDbLine
 10
1.293999999999998
 20
-32.83657097108841
 30
0.0
 11
2.657809142573676
 21
-31.47276182851474
 31
0.0
  0
LINE
  5
BD1
330
1F
100
AcDbEntity
  8
2
  6
CONTINUOUS
370
25
 62
7
100
AcDbLine
 10
1.293999999999998
 20
-32.41230690237648
 30
0.0
 11
2.304255751980401
 21
-31.40205115039608
 31
0.0
  0
LINE
  5
BD2
330
1F
100
AcDbEntity
  8
2
  6
CONTINUOUS
370
25
 62
7
100
AcDbLine
 10
1.293999999999998
 20
-31.98804283366455
 30
0.0
 11
1.950702361387126
 21
-31.33134047227743
 31
0.0
  0
LINE
  5
BD3
330
1F
100
AcDbEntity
  8
2
  6
CONTINUOUS
370
25
 62
7
100
AcDbLine
 10
1.293999999999998
 20
-31.56377876495262
 30
0.0
 11
1.597148970793852
 21
-31.26062979415877
 31
0.0
  0
LINE
  5
BD4
330
1F
100
AcDbEntity
  8
2
  6
CONTINUOUS
370
25
 62
7
100
AcDbLine
 10
1.293999999999998
 20
-32.95649303244631
 30
0.0
 11
1.496922472961415
 21
-33.15941550540772
 31
0.0
  0
LINE
  5
BD5
330
1F
100
AcDbEntity
  8
2
  6
CONTINUOUS
370
25
 62
7
100
AcDbLine
 10
1.293999999999998
 20
-32.53222896373438
 30
0.0
 11
1.850475863554689
 21
-33.08870482728907
 31
0.0
  0
LINE
  5
BD6
330
1F
100
AcDbEntity
  8
2
  6
CONTINUOUS
370
25
 62
7
100
AcDbLine
 10
1.293999999999998
 20
-32.10796489502245
 30
0.0
 11
2.204029254147964
 21
-33.01799414917041
 31
0.0
  0
LINE
  5
BD7
330
1F
100
AcDbEntity
  8
2
  6
CONTINUOUS
370
25
 62
7
100
AcDbLine
 10
1.293999999999998
 20
-31.68370082631052
 30
0.0
 11
2.557582644741238
 21
-32.94728347105176
 31
0.0
  0
LINE
  5
BD8
330
1F
100
AcDbEntity
  8
2
  6
CONTINUOUS
370
25
 62
7
100
AcDbLine
 10
1.293999999999998
 20
-31.2594367575986
 30
0.0
 11
2.911136035334513
 21
-32.8765727929331
 31
0.0
  0
LINE
  5
BD9
330
1F
100
AcDbEntity
  8
2
  6
CONTINUOUS
370
25
 62
7
100
AcDbLine
 10
1.750034138891671
 20
-31.29120682777834
 30
0.0
 11
3.264689425927789
 21
-32.80586211481445
 31
0.0
  0
LINE
  5
BDA
330
1F
100
AcDbEntity
  8
2
  6
CONTINUOUS
370
25
 62
7
100
AcDbLine
 10
2.280364224781585
 20
-31.39727284495632
 30
0.0
 11
3.618242816521064
 21
-32.73515143669579
 31
0.0
  0
LINE
  5
BDB
330
1F
100
AcDbEntity
  8
2
  6
CONTINUOUS
370
25
 62
7
100
AcDbLine
 10
2.810694310671498
 20
-31.5033388621343
 30
0.0
 11
3.971796207114339
 21
-32.66444075857714
 31
0.0
  0
LINE
  5
BDC
330
1F
100
AcDbEntity
  8
2
  6
CONTINUOUS
370
25
 62
7
100
AcDbLine
 10
3.341024396561413
 20
-31.60940487931229
 30
0.0
 11
4.325349597707615
 21
-32.59373008045849
 31
0.0
  0
LINE
  5
BDD
330
1F
100
AcDbEntity
  8
2
  6
CONTINUOUS
370
25
 62
7
100
AcDbLine
 10
3.871354482451327
 20
-31.71547089649027
 30
0.0
 11
4.678902988300892
 21
-32.52301940233983
 31
0.0
  0
LINE
  5
BDE
330
1F
100
AcDbEntity
  8
2
  6
CONTINUOUS
370
25
 62
7
100
AcDbLine
 10
4.401684568341243
 20
-31.82153691366825
 30
0.0
 11
5.032456378894168
 21
-32.45230872422118
 31
0.0
  0
LINE
  5
BDF
330
1F
100
AcDbEntity
  8
2
  6
CONTINUOUS
370
25
 62
7
100
AcDbLine
 10
4.932014654231154
 20
-31.92760293084623
 30
0.0
 11
5.38600976948744
 21
-32.38159804610252
 31
0.0
  0
LINE
  5
BE0
330
1F
100
AcDbEntity
  8
2
  6
CONTINUOUS
370
25
 62
7
100
AcDbLine
 10
5.462344740121072
 20
-32.03366894802421
 30
0.0
 11
5.739563160080718
 21
-32.31088736798386
 31
0.0
  0
LINE
  5
BE1
330
1F
100
AcDbEntity
  8
2
  6
CONTINUOUS
370
25
 62
7
100
AcDbLine
 10
5.992674826010986
 20
-32.1397349652022
 30
0.0
 11
6.093116550673994
 21
-32.24017668986521
 31
0.0
  0
LINE
  5
BE2
330
1F
100
AcDbEntity
  8
2
  6
CONTINUOUS
370
25
 62
7
100
AcDbLine
 10
7.293999999999999
 20
-32.2
 30
0.0
 11
12.294
 21
-31.2
 31
0.0
  0
LINE
  5
BE3
330
1F
100
AcDbEntity
  8
2
  6
CONTINUOUS
370
25
 62
7
100
AcDbLine
 10
12.294
 20
-31.2
 30
0.0
 11
12.294
 21
-33.2
 31
0.0
  0
LINE
  5
BE4
330
1F
100
AcDbEntity
  8
2
  6
CONTINUOUS
370
25
 62
7
100
AcDbLine
 10
12.294
 20
-33.2
 30
0.0
 11
7.293999999999999
 21
-32.2
 31
0.0
  0
LINE
  5
BE5
330
1F
100
AcDbEntity
  8
2
  6
CONTINUOUS
370
25
 62
7
100
AcDbLine
 10
12.1173690280538
 20
-33.16467380561077
 30
0.0
 11
12.294
 21
-32.98804283366457
 31
0.0
  0
LINE
  5
BE6
330
1F
100
AcDbEntity
  8
2
  6
CONTINUOUS
370
25
 62
7
100
AcDbLine
 10
11.76381563746053
 20
-33.09396312749211
 30
0.0
 11
12.294
 21
-32.56377876495264
 31
0.0
  0
LINE
  5
BE7
330
1F
100
AcDbEntity
  8
2
  6
CONTINUOUS
370
25
 62
7
100
AcDbLine
 10
11.41026224686726
 20
-33.02325244937346
 30
0.0
 11
12.294
 21
-32.13951469624072
 31
0.0
  0
LINE
  5
BE8
330
1F
100
AcDbEntity
  8
2
  6
CONTINUOUS
370
25
 62
7
100
AcDbLine
 10
11.05670885627398
 20
-32.9525417712548
 30
0.0
 11
12.294
 21
-31.71525062752879
 31
0.0
  0
LINE
  5
BE9
330
1F
100
AcDbEntity
  8
2
  6
CONTINUOUS
370
25
 62
7
100
AcDbLine
 10
10.70315546568071
 20
-32.88183109313614
 30
0.0
 11
12.294
 21
-31.29098655881686
 31
0.0
  0
LINE
  5
BEA
330
1F
100
AcDbEntity
  8
2
  6
CONTINUOUS
370
25
 62
7
100
AcDbLine
 10
10.34960207508743
 20
-32.81112041501749
 30
0.0
 11
11.87740311263116
 21
-31.28331937747377
 31
0.0
  0
LINE
  5
BEB
330
1F
100
AcDbEntity
  8
2
  6
CONTINUOUS
370
25
 62
7
100
AcDbLine
 10
9.99604868449416
 20
-32.74040973689883
 30
0.0
 11
11.34707302674125
 21
-31.38938539465175
 31
0.0
  0
LINE
  5
BEC
330
1F
100
AcDbEntity
  8
2
  6
CONTINUOUS
370
25
 62
7
100
AcDbLine
 10
9.642495293900883
 20
-32.66969905878018
 30
0.0
 11
10.81674294085133
 21
-31.49545141182973
 31
0.0
  0
LINE
  5
BED
330
1F
100
AcDbEntity
  8
2
  6
CONTINUOUS
370
25
 62
7
100
AcDbLine
 10
9.288941903307604
 20
-32.59898838066152
 30
0.0
 11
10.28641285496142
 21
-31.60151742900772
 31
0.0
  0
LINE
  5
BEE
330
1F
100
AcDbEntity
  8
2
  6
CONTINUOUS
370
25
 62
7
100
AcDbLine
 10
8.935388512714333
 20
-32.52827770254287
 30
0.0
 11
9.756082769071508
 21
-31.7075834461857
 31
0.0
  0
LINE
  5
BEF
330
1F
100
AcDbEntity
  8
2
  6
CONTINUOUS
370
25
 62
7
100
AcDbLine
 10
8.581835122121054
 20
-32.45756702442421
 30
0.0
 11
9.225752683181588
 21
-31.81364946336369
 31
0.0
  0
LINE
  5
BF0
330
1F
100
AcDbEntity
  8
2
  6
CONTINUOUS
370
25
 62
7
100
AcDbLine
 10
8.228281731527781
 20
-32.38685634630556
 30
0.0
 11
8.69542259729168
 21
-31.91971548054167
 31
0.0
  0
LINE
  5
BF1
330
1F
100
AcDbEntity
  8
2
  6
CONTINUOUS
370
25
 62
7
100
AcDbLine
 10
7.874728340934504
 20
-32.31614566818691
 30
0.0
 11
8.165092511401761
 21
-32.02578149771965
 31
0.0
  0
LINE
  5
BF2
330
1F
100
AcDbEntity
  8
2
  6
CONTINUOUS
370
25
 62
7
100
AcDbLine
 10
7.521174950341232
 20
-32.24543499006825
 30
0.0
 11
7.63476242551185
 21
-32.13184751489763
 31
0.0
  0
LINE
  5
BF3
330
1F
100
AcDbEntity
  8
2
  6
CONTINUOUS
370
25
 62
7
100
AcDbLine
 10
7.420948452508791
 20
-32.17461030949824
 30
0.0
 11
7.484422678763188
 21
-32.23808453575264
 31
0.0
  0
LINE
  5
BF4
330
1F
100
AcDbEntity
  8
2
  6
CONTINUOUS
370
25
 62
7
100
AcDbLine
 10
7.774501843102064
 20
-32.10389963137959
 30
0.0
 11
8.0147527646531
 21
-32.34415055293062
 31
0.0
  0
LINE
  5
BF5
330
1F
100
AcDbEntity
  8
2
  6
CONTINUOUS
370
25
 62
7
100
AcDbLine
 10
8.128055233695338
 20
-32.03318895326093
 30
0.0
 11
8.545082850543013
 21
-32.45021657010861
 31
0.0
  0
LINE
  5
BF6
330
1F
100
AcDbEntity
  8
2
  6
CONTINUOUS
370
25
 62
7
100
AcDbLine
 10
8.481608624288615
 20
-31.96247827514228
 30
0.0
 11
9.075412936432928
 21
-32.55628258728659
 31
0.0
  0
LINE
  5
BF7
330
1F
100
AcDbEntity
  8
2
  6
CONTINUOUS
370
25
 62
7
100
AcDbLine
 10
8.83516201488189
 20
-31.89176759702362
 30
0.0
 11
9.60574302232284
 21
-32.66234860446457
 31
0.0
  0
LINE
  5
BF8
330
1F
100
AcDbEntity
  8
2
  6
CONTINUOUS
370
25
 62
7
100
AcDbLine
 10
9.188715405475163
 20
-31.82105691890497
 30
0.0
 11
10.13607310821275
 21
-32.76841462164256
 31
0.0
  0
LINE
  5
BF9
330
1F
100
AcDbEntity
  8
2
  6
CONTINUOUS
370
25
 62
7
100
AcDbLine
 10
9.542268796068438
 20
-31.75034624078631
 30
0.0
 11
10.66640319410267
 21
-32.87448063882054
 31
0.0
  0
LINE
  5
BFA
330
1F
100
AcDbEntity
  8
2
  6
CONTINUOUS
370
25
 62
7
100
AcDbLine
 10
9.895822186661713
 20
-31.67963556266766
 30
0.0
 11
11.19673327999258
 21
-32.98054665599852
 31
0.0
  0
LINE
  5
BFB
330
1F
100
AcDbEntity
  8
2
  6
CONTINUOUS
370
25
 62
7
100
AcDbLine
 10
10.24937557725499
 20
-31.608924884549
 30
0.0
 11
11.7270633658825
 21
-33.0866126731765
 31
0.0
  0
LINE
  5
BFC
330
1F
100
AcDbEntity
  8
2
  6
CONTINUOUS
370
25
 62
7
100
AcDbLine
 10
10.60292896784826
 20
-31.53821420643035
 30
0.0
 11
12.25739345177241
 21
-33.19267869035448
 31
0.0
  0
LINE
  5
BFD
330
1F
100
AcDbEntity
  8
2
  6
CONTINUOUS
370
25
 62
7
100
AcDbLine
 10
10.95648235844154
 20
-31.4675035283117
 30
0.0
 11
12.294
 21
-32.80502116987014
 31
0.0
  0
LINE
  5
BFE
330
1F
100
AcDbEntity
  8
2
  6
CONTINUOUS
370
25
 62
7
100
AcDbLine
 10
11.31003574903482
 20
-31.39679285019304
 30
0.0
 11
12.294
 21
-32.38075710115822
 31
0.0
  0
LINE
  5
BFF
330
1F
100
AcDbEntity
  8
2
  6
CONTINUOUS
370
25
 62
7
100
AcDbLine
 10
11.66358913962809
 20
-31.32608217207439
 30
0.0
 11
12.294
 21
-31.95649303244629
 31
0.0
  0
LINE
  5
C00
330
1F
100
AcDbEntity
  8
2
  6
CONTINUOUS
370
25
 62
7
100
AcDbLine
 10
12.01714253022137
 20
-31.25537149395573
 30
0.0
 11
12.294
 21
-31.53222896373436
 31
0.0
  0
TEXT
  5
C01
330
1F
100
AcDbEntity
  8
2
  6
CONTINUOUS
370
25
 62
7
100
AcDbText
 10
14.19816666666667
 20
-30.7
 30
0.0
 40
3.5
  1
1
 72
     1
 11
14.7815
 21
-30.7
 31
0.0
100
AcDbText
  0
LINE
  5
C02
330
1F
100
AcDbEntity
  8
2
  6
CONTINUOUS
370
25
 62
7
100
AcDbLine
 10
7.26471068
 20
-0.17071068
 30
0.0
 11
26.09395000317297
 21
-18.99995000317295
 31
0.0
  0
LINE
  5
C03
330
1F
100
AcDbEntity
  8
2
  6
CONTINUOUS
370
25
 62
7
100
AcDbLine
 10
26.09395000317297
 20
-18.99995000317295
 30
0.0
 11
36.01895000317298
 21
-18.99995000317295
 31
0.0
  0
LINE
  5
C04
330
1F
100
AcDbEntity
  8
2
  6
CONTINUOUS
370
25
 62
7
100
AcDbLine
 10
7.26471068
 20
-0.17071068
 30
0.0
 11
7.194000001881346
 21
-0.1000000018813452
 31
0.0
  0
LINE
  5
C05
330
1F
100
AcDbEntity
  8
2
  6
CONTINUOUS
370
25
 62
7
100
AcDbLine
 10
7.26471068
 20
-0.17071068
 30
0.0
 11
11.50735136711929
 21
-2.999137804746187
 31
0.0
  0
LINE
  5
C06
330
1F
100
AcDbEntity
  8
2
  6
CONTINUOUS
370
25
 62
7
100
AcDbLine
 10
11.50735136711929
 20
-2.999137804746187
 30
0.0
 11
10.09313780474619
 21
-4.413351367119283
 31
0.0
  0
LINE
  5
C07
330
1F
100
AcDbEntity
  8
2
  6
CONTINUOUS
370
25
 62
7
100
AcDbLine
 10
10.09313780474619
 20
-4.413351367119283
 30
0.0
 11
7.26471068
 21
-0.17071068
 31
0.0
  0
LINE
  5
C08
330
1F
100
AcDbEntity
  8
2
  6
CONTINUOUS
370
25
 62
7
100
AcDbLine
 10
10.07317535651523
 20
-4.383407694772838
 30
0.0
 11
11.47740769477284
 21
-2.979175356515226
 31
0.0
  0
LINE
  5
C09
330
1F
100
AcDbEntity
  8
2
  6
CONTINUOUS
370
25
 62
7
100
AcDbLine
 10
9.903469729030459
 20
-4.128849253545685
 30
0.0
 11
11.22284925354569
 21
-2.809469729030456
 31
0.0
  0
LINE
  5
C0A
330
1F
100
AcDbEntity
  8
2
  6
CONTINUOUS
370
25
 62
7
100
AcDbLine
 10
9.733764101545688
 20
-3.874290812318527
 30
0.0
 11
10.96829081231853
 21
-2.639764101545683
 31
0.0
  0
LINE
  5
C0B
330
1F
100
AcDbEntity
  8
2
  6
CONTINUOUS
370
25
 62
7
100
AcDbLine
 10
9.564058474060916
 20
-3.619732371091372
 30
0.0
 11
10.71373237109137
 21
-2.470058474060913
 31
0.0
  0
LINE
  5
C0C
330
1F
100
AcDbEntity
  8
2
  6
CONTINUOUS
370
25
 62
7
100
AcDbLine
 10
9.394352846576144
 20
-3.365173929864214
 30
0.0
 11
10.45917392986422
 21
-2.300352846576139
 31
0.0
  0
LINE
  5
C0D
330
1F
100
AcDbEntity
  8
2
  6
CONTINUOUS
370
25
 62
7
100
AcDbLine
 10
9.224647219091372
 20
-3.110615488637059
 30
0.0
 11
10.20461548863706
 21
-2.130647219091369
 31
0.0
  0
LINE
  5
C0E
330
1F
100
AcDbEntity
  8
2
  6
CONTINUOUS
370
25
 62
7
100
AcDbLine
 10
9.054941591606601
 20
-2.856057047409902
 30
0.0
 11
9.950057047409903
 21
-1.9609415916066
 31
0.0
  0
LINE
  5
C0F
330
1F
100
AcDbEntity
  8
2
  6
CONTINUOUS
370
25
 62
7
100
AcDbLine
 10
8.885235964121831
 20
-2.601498606182744
 30
0.0
 11
9.695498606182747
 21
-1.791235964121828
 31
0.0
  0
LINE
  5
C10
330
1F
100
AcDbEntity
  8
2
  6
CONTINUOUS
370
25
 62
7
100
AcDbLine
 10
8.715530336637059
 20
-2.346940164955589
 30
0.0
 11
9.44094016495559
 21
-1.621530336637058
 31
0.0
  0
LINE
  5
C11
330
1F
100
AcDbEntity
  8
2
  6
CONTINUOUS
370
25
 62
7
100
AcDbLine
 10
8.545824709152289
 20
-2.092381723728431
 30
0.0
 11
9.186381723728433
 21
-1.451824709152287
 31
0.0
  0
LINE
  5
C12
330
1F
100
AcDbEntity
  8
2
  6
CONTINUOUS
370
25
 62
7
100
AcDbLine
 10
8.376119081667516
 20
-1.837823282501276
 30
0.0
 11
8.931823282501277
 21
-1.282119081667515
 31
0.0
  0
LINE
  5
C13
330
1F
100
AcDbEntity
  8
2
  6
CONTINUOUS
370
25
 62
7
100
AcDbLine
 10
8.206413454182746
 20
-1.583264841274117
 30
0.0
 11
8.677264841274118
 21
-1.112413454182745
 31
0.0
  0
LINE
  5
C14
330
1F
100
AcDbEntity
  8
2
  6
CONTINUOUS
370
25
 62
7
100
AcDbLine
 10
8.036707826697974
 20
-1.328706400046961
 30
0.0
 11
8.42270640004696
 21
-0.9427078266979745
 31
0.0
  0
LINE
  5
C15
330
1F
100
AcDbEntity
  8
2
  6
CONTINUOUS
370
25
 62
7
100
AcDbLine
 10
7.867002199213204
 20
-1.074147958819804
 30
0.0
 11
8.168147958819805
 21
-0.7730021992132023
 31
0.0
  0
LINE
  5
C16
330
1F
100
AcDbEntity
  8
2
  6
CONTINUOUS
370
25
 62
7
100
AcDbLine
 10
7.697296571728432
 20
-0.8195895175926458
 30
0.0
 11
7.913589517592648
 21
-0.6032965717284302
 31
0.0
  0
LINE
  5
C17
330
1F
100
AcDbEntity
  8
2
  6
CONTINUOUS
370
25
 62
7
100
AcDbLine
 10
7.527590944243661
 20
-0.5650310763654893
 30
0.0
 11
7.659031076365491
 21
-0.433590944243659
 31
0.0
  0
LINE
  5
C18
330
1F
100
AcDbEntity
  8
2
  6
CONTINUOUS
370
25
 62
7
100
AcDbLine
 10
7.35788531675889
 20
-0.3104726351383338
 30
0.0
 11
7.404472635138334
 21
-0.2638853167588895
 31
0.0
  0
LINE
  5
C19
330
1F
100
AcDbEntity
  8
2
  6
CONTINUOUS
370
25
 62
7
100
AcDbLine
 10
9.593316756066006
 20
-3.663619794099002
 30
0.0
 11
10.21809306691624
 21
-4.288396104949237
 31
0.0
  0
LINE
  5
C1A
330
1F
100
AcDbEntity
  8
2
  6
CONTINUOUS
370
25
 62
7
100
AcDbLine
 10
8.744788618642147
 20
-2.390827587963216
 30
0.0
 11
10.4302251012722
 21
-4.076264070593272
 31
0.0
  0
LINE
  5
C1B
330
1F
100
AcDbEntity
  8
2
  6
CONTINUOUS
370
25
 62
7
100
AcDbLine
 10
7.896260481218288
 20
-1.11803538182743
 30
0.0
 11
10.64235713562817
 21
-3.864132036237308
 31
0.0
  0
LINE
  5
C1C
330
1F
100
AcDbEntity
  8
2
  6
CONTINUOUS
370
25
 62
7
100
AcDbLine
 10
7.59017818430836
 20
-0.3876890162055728
 30
0.0
 11
10.85448916998413
 21
-3.652000001881346
 31
0.0
  0
LINE
  5
C1D
330
1F
100
AcDbEntity
  8
2
  6
CONTINUOUS
370
25
 62
7
100
AcDbLine
 10
8.862970390444143
 20
-1.236217153629427
 30
0.0
 11
11.0666212043401
 21
-3.43986796752538
 31
0.0
  0
LINE
  5
C1E
330
1F
100
AcDbEntity
  8
2
  6
CONTINUOUS
370
25
 62
7
100
AcDbLine
 10
10.13576259657993
 20
-2.084745291053284
 30
0.0
 11
11.27875323869606
 21
-3.227735933169413
 31
0.0
  0
LINE
  5
C1F
330
1F
100
AcDbEntity
  8
2
  6
CONTINUOUS
370
25
 62
7
100
AcDbLine
 10
11.40855480271571
 20
-2.933273428477138
 30
0.0
 11
11.49088527305202
 21
-3.015603898813449
 31
0.0
  0
TEXT
  5
C20
330
1F
100
AcDbEntity
  8
2
  6
CONTINUOUS
370
25
 62
7
100
AcDbText
 10
28.43145000317297
 20
-17.49995000317295
 30
0.0
 40
3.5
  1
0.1
 72
     1
 11
31.05645000317297
 21
-17.49995000317295
 31
0.0
100
AcDbText
  0
LINE
  5
C21
330
1F
100
AcDbEntity
  8
SK1
  6
CONTINUOUS
370
50
 62
4
100
AcDbLine
 10
-0.01
 20
0.0
 30
0.0
 11
2.49
 21
0.0
 31
0.0
  0
LINE
  5
C22
330
1F
100
AcDbEntity
  8
SK1
  6
CONTINUOUS
370
50
 62
4
100
AcDbLine
 10
-0.01
 20
0.0
 30
0.0
 11
-0.01
 21
2.5
 31
0.0
  0
ARC
  5
C23
330
1F
100
AcDbEntity
  8
SK1
  6
CONTINUOUS
370
50
 62
4
100
AcDbCircle
 10
-0.01
 20
0.0
 30
0.0
 40
2.5
100
AcDbArc
 50
0.0
 51
90.0
  0
LINE
  5
C24
330
1F
100
AcDbEntity
  8
SK1
  6
CONTINUOUS
370
50
 62
4
100
AcDbLine
 10
-0.01
 20
0.0
 30
0.0
 11
-2.51
 21
0.0
 31
0.0
  0
ARC
  5
C25
330
1F
100
AcDbEntity
  8
SK1
  6
CONTINUOUS
370
50
 62
4
100
AcDbCircle
 10
-0.01
 20
0.0
 30
0.0
 40
2.5
100
AcDbArc
 50
180.0
 51
270.0
  0
LINE
  5
C26
330
1F
100
AcDbEntity
  8
SK1
  6
CONTINUOUS
370
50
 62
4
100
AcDbLine
 10
-0.01
 20
-2.5
 30
0.0
 11
-0.01
 21
0.0
 31
0.0
  0
ARC
  5
C27
330
1F
100
AcDbEntity
  8
SK1
  6
CONTINUOUS
370
50
 62
4
100
AcDbCircle
 10
-0.01
 20
0.0
 30
0.0
 40
2.5
100
AcDbArc
 50
270.0
 51
0.0
  0
ARC
  5
C28
330
1F
100
AcDbEntity
  8
SK1
  6
CONTINUOUS
370
50
 62
4
100
AcDbCircle
 10
-0.01
 20
0.0
 30
0.0
 40
2.5
100
AcDbArc
 50
90.0
 51
180.0
  0
LINE
  5
C29
330
1F
100
AcDbEntity
  8
SK1
  6
CONTINUOUS
370
50
 62
4
100
AcDbLine
 10
-0.32832627443191
 20
-2.479495909600069
 30
0.0
 11
-0.01
 21
-2.161169635168159
 31
0.0
  0
LINE
  5
C2A
330
1F
100
AcDbEntity
  8
SK1
  6
CONTINUOUS
370
50
 62
4
100
AcDbLine
 10
2.15116963516816
 20
0.0
 30
0.0
 11
2.469495909600069
 21
0.3183262744319091
 31
0.0
  0
LINE
  5
C2B
330
1F
100
AcDbEntity
  8
SK1
  6
CONTINUOUS
370
50
 62
4
100
AcDbLine
 10
-0.625281817185723
 20
-2.422898061760609
 30
0.0
 11
-0.01
 21
-1.807616244574886
 31
0.0
  0
LINE
  5
C2C
330
1F
100
AcDbEntity
  8
SK1
  6
CONTINUOUS
370
50
 62
4
100
AcDbLine
 10
1.797616244574887
 20
0.0
 30
0.0
 11
2.412898061760609
 21
0.6152818171857222
 31
0.0
  0
LINE
  5
C2D
330
1F
100
AcDbEntity
  8
SK1
  6
CONTINUOUS
370
50
 62
4
100
AcDbLine
 10
-0.8935965231639721
 20
-2.337659377145585
 30
0.0
 11
-0.01
 21
-1.454062853981614
 31
0.0
  0
LINE
  5
C2E
330
1F
100
AcDbEntity
  8
SK1
  6
CONTINUOUS
370
50
 62
4
100
AcDbLine
 10
1.444062853981614
 20
0.0
 30
0.0
 11
2.327659377145586
 21
0.8835965231639715
 31
0.0
  0
LINE
  5
C2F
330
1F
100
AcDbEntity
  8
SK1
  6
CONTINUOUS
370
50
 62
4
100
AcDbLine
 10
-1.138779664263143
 20
-2.229289127651483
 30
0.0
 11
-0.01
 21
-1.100509463388341
 31
0.0
  0
LINE
  5
C30
330
1F
100
AcDbEntity
  8
SK1
  6
CONTINUOUS
370
50
 62
4
100
AcDbLine
 10
1.090509463388341
 20
0.0
 30
0.0
 11
2.219289127651484
 21
1.128779664263142
 31
0.0
  0
LINE
  5
C31
330
1F
100
AcDbEntity
  8
SK1
  6
CONTINUOUS
370
50
 62
4
100
AcDbLine
 10
-1.364032791010379
 20
-2.100988863805446
 30
0.0
 11
-0.01
 21
-0.7469560727950677
 31
0.0
  0
LINE
  5
C32
330
1F
100
AcDbEntity
  8
SK1
  6
CONTINUOUS
370
50
 62
4
100
AcDbLine
 10
0.736956072795068
 20
0.0
 30
0.0
 11
2.090988863805447
 21
1.354032791010378
 31
0.0
  0
LINE
  5
C33
330
1F
100
AcDbEntity
  8
SK1
  6
CONTINUOUS
370
50
 62
4
100
AcDbLine
 10
-1.569387394659872
 20
-1.952790076861666
 30
0.0
 11
-0.01
 21
-0.3934026822017946
 31
0.0
  0
LINE
  5
C34
330
1F
100
AcDbEntity
  8
SK1
  6
CONTINUOUS
370
50
 62
4
100
AcDbLine
 10
0.3834026822017948
 20
0.0
 30
0.0
 11
1.942790076861667
 21
1.559387394659871
 31
0.0
  0
LINE
  5
C35
330
1F
100
AcDbEntity
  8
SK1
  6
CONTINUOUS
370
50
 62
4
100
AcDbLine
 10
-1.756970020883365
 20
-1.786819312491886
 30
0.0
 11
-0.01
 21
-0.0398492916085216
 31
0.0
  0
LINE
  5
C36
330
1F
100
AcDbEntity
  8
SK1
  6
CONTINUOUS
370
50
 62
4
100
AcDbLine
 10
0.0298492916085216
 20
0.0
 30
0.0
 11
1.776819312491887
 21
1.746970020883364
 31
0.0
  0
LINE
  5
C37
330
1F
100
AcDbEntity
  8
SK1
  6
CONTINUOUS
370
50
 62
4
100
AcDbLine
 10
-1.927371878232655
 20
-1.603667779247902
 30
0.0
 11
-0.3237040989847517
 21
0.0
 31
0.0
  0
LINE
  5
C38
330
1F
100
AcDbEntity
  8
SK1
  6
CONTINUOUS
370
50
 62
4
100
AcDbLine
 10
-0.01
 20
0.3137040989847515
 30
0.0
 11
1.593667779247903
 21
1.917371878232654
 31
0.0
  0
LINE
  5
C39
330
1F
100
AcDbEntity
  8
SK1
  6
CONTINUOUS
370
50
 62
4
100
AcDbLine
 10
-2.078741231122433
 20
-1.401483741544407
 30
0.0
 11
-0.6772574895780249
 21
0.0
 31
0.0
  0
LINE
  5
C3A
330
1F
100
AcDbEntity
  8
SK1
  6
CONTINUOUS
370
50
 62
4
100
AcDbLine
 10
-0.01
 20
0.6672574895780246
 30
0.0
 11
1.391483741544409
 21
2.068741231122432
 31
0.0
  0
LINE
  5
C3B
330
1F
100
AcDbEntity
  8
SK1
  6
CONTINUOUS
370
50
 62
4
100
AcDbLine
 10
-2.2123876557675
 20
-1.181576775596201
 30
0.0
 11
-1.030810880171298
 21
0.0
 31
0.0
  0
LINE
  5
C3C
330
1F
100
AcDbEntity
  8
SK1
  6
CONTINUOUS
370
50
 62
4
100
AcDbLine
 10
-0.01
 20
1.020810880171298
 30
0.0
 11
1.171576775596202
 21
2.202387655767499
 31
0.0
  0
LINE
  5
C3D
330
1F
100
AcDbEntity
  8
SK1
  6
CONTINUOUS
370
50
 62
4
100
AcDbLine
 10
-2.325450943493525
 20
-0.9410866727289533
 30
0.0
 11
-1.384364270764571
 21
0.0
 31
0.0
  0
LINE
  5
C3E
330
1F
100
AcDbEntity
  8
SK1
  6
CONTINUOUS
370
50
 62
4
100
AcDbLine
 10
-0.01
 20
1.374364270764571
 30
0.0
 11
0.9310866727289543
 21
2.315450943493524
 31
0.0
  0
LINE
  5
C3F
330
1F
100
AcDbEntity
  8
SK1
  6
CONTINUOUS
370
50
 62
4
100
AcDbLine
 10
-2.415290600131854
 20
-0.6773729387740097
 30
0.0
 11
-1.737917661357844
 21
0.0
 31
0.0
  0
LINE
  5
C40
330
1F
100
AcDbEntity
  8
SK1
  6
CONTINUOUS
370
50
 62
4
100
AcDbLine
 10
-0.01
 20
1.727917661357844
 30
0.0
 11
0.6673729387740106
 21
2.405290600131854
 31
0.0
  0
LINE
  5
C41
330
1F
100
AcDbEntity
  8
SK1
  6
CONTINUOUS
370
50
 62
4
100
AcDbLine
 10
-2.478598823056026
 20
-0.3871277711049084
 30
0.0
 11
-2.091471051951117
 21
0.0
 31
0.0
  0
LINE
  5
C42
330
1F
100
AcDbEntity
  8
SK1
  6
CONTINUOUS
370
50
 62
4
100
AcDbLine
 10
-0.01
 20
2.081471051951117
 30
0.0
 11
0.3771277711049085
 21
2.468598823056025
 31
0.0
  0
LINE
  5
C43
330
1F
100
AcDbEntity
  8
SK1
  6
CONTINUOUS
370
50
 62
4
100
AcDbLine
 10
-2.508020276172772
 20
-0.0629958336283822
 30
0.0
 11
-2.44502444254439
 21
0.0
 31
0.0
  0
LINE
  5
C44
330
1F
100
AcDbEntity
  8
SK1
  6
CONTINUOUS
370
50
 62
4
100
AcDbLine
 10
-0.01
 20
2.435024442544389
 30
0.0
 11
0.0529958336283828
 21
2.498020276172772
 31
0.0
  0
LINE
  5
C45
330
1F
100
AcDbEntity
  8
SK1
  6
CONTINUOUS
370
50
 62
4
100
AcDbLine
 10
-2.347336523620827
 20
-0.8844932833271533
 30
0.0
 11
-0.894493283327151
 21
-2.337336523620827
 31
0.0
  0
LINE
  5
C46
330
1F
100
AcDbEntity
  8
SK1
  6
CONTINUOUS
370
50
 62
4
100
AcDbLine
 10
-2.476237059966593
 20
-0.4020393563881135
 30
0.0
 11
-0.4120393563881111
 21
-2.466237059966594
 31
0.0
  0
LINE
  5
C47
330
1F
100
AcDbEntity
  8
SK1
  6
CONTINUOUS
370
50
 62
4
100
AcDbLine
 10
-2.509522297881595
 20
-0.0152007278798383
 30
0.0
 11
-0.0252007278798351
 21
-2.499522297881596
 31
0.0
  0
LINE
  5
C48
330
1F
100
AcDbEntity
  8
SK1
  6
CONTINUOUS
370
50
 62
4
100
AcDbLine
 10
-2.17116963516816
 20
0.0
 30
0.0
 11
-0.01
 21
-2.161169635168158
 31
0.0
  0
LINE
  5
C49
330
1F
100
AcDbEntity
  8
SK1
  6
CONTINUOUS
370
50
 62
4
100
AcDbLine
 10
-1.817616244574888
 20
0.0
 30
0.0
 11
-0.01
 21
-1.807616244574886
 31
0.0
  0
LINE
  5
C4A
330
1F
100
AcDbEntity
  8
SK1
  6
CONTINUOUS
370
50
 62
4
100
AcDbLine
 10
-1.464062853981615
 20
0.0
 30
0.0
 11
-0.01
 21
-1.454062853981613
 31
0.0
  0
LINE
  5
C4B
330
1F
100
AcDbEntity
  8
SK1
  6
CONTINUOUS
370
50
 62
4
100
AcDbLine
 10
-1.110509463388341
 20
0.0
 30
0.0
 11
-0.01
 21
-1.10050946338834
 31
0.0
  0
LINE
  5
C4C
330
1F
100
AcDbEntity
  8
SK1
  6
CONTINUOUS
370
50
 62
4
100
AcDbLine
 10
-0.7569560727950676
 20
0.0
 30
0.0
 11
-0.01
 21
-0.7469560727950668
 31
0.0
  0
LINE
  5
C4D
330
1F
100
AcDbEntity
  8
SK1
  6
CONTINUOUS
370
50
 62
4
100
AcDbLine
 10
-0.4034026822017942
 20
0.0
 30
0.0
 11
-0.01
 21
-0.3934026822017938
 31
0.0
  0
LINE
  5
C4E
330
1F
100
AcDbEntity
  8
SK1
  6
CONTINUOUS
370
50
 62
4
100
AcDbLine
 10
-0.0498492916085216
 20
0.0
 30
0.0
 11
-0.01
 21
-0.0398492916085216
 31
0.0
  0
LINE
  5
C4F
330
1F
100
AcDbEntity
  8
SK1
  6
CONTINUOUS
370
50
 62
4
100
AcDbLine
 10
-0.01
 20
0.3137040989847515
 30
0.0
 11
0.3037040989847518
 21
0.0
 31
0.0
  0
LINE
  5
C50
330
1F
100
AcDbEntity
  8
SK1
  6
CONTINUOUS
370
50
 62
4
100
AcDbLine
 10
-0.01
 20
0.6672574895780246
 30
0.0
 11
0.6572574895780253
 21
0.0
 31
0.0
  0
LINE
  5
C51
330
1F
100
AcDbEntity
  8
SK1
  6
CONTINUOUS
370
50
 62
4
100
AcDbLine
 10
-0.01
 20
1.020810880171298
 30
0.0
 11
1.010810880171299
 21
0.0
 31
0.0
  0
LINE
  5
C52
330
1F
100
AcDbEntity
  8
SK1
  6
CONTINUOUS
370
50
 62
4
100
AcDbLine
 10
-0.01
 20
1.37436427076457
 30
0.0
 11
1.364364270764571
 21
0.0
 31
0.0
  0
LINE
  5
C53
330
1F
100
AcDbEntity
  8
SK1
  6
CONTINUOUS
370
50
 62
4
100
AcDbLine
 10
-0.01
 20
1.727917661357843
 30
0.0
 11
1.717917661357845
 21
0.0
 31
0.0
  0
LINE
  5
C54
330
1F
100
AcDbEntity
  8
SK1
  6
CONTINUOUS
370
50
 62
4
100
AcDbLine
 10
-0.01
 20
2.081471051951116
 30
0.0
 11
2.071471051951118
 21
0.0
 31
0.0
  0
LINE
  5
C55
330
1F
100
AcDbEntity
  8
SK1
  6
CONTINUOUS
370
50
 62
4
100
AcDbLine
 10
-0.01
 20
2.435024442544389
 30
0.0
 11
2.425024442544392
 21
0.0
 31
0.0
  0
LINE
  5
C56
330
1F
100
AcDbEntity
  8
SK1
  6
CONTINUOUS
370
50
 62
4
100
AcDbLine
 10
0.2977647139123103
 20
2.480813119225352
 30
0.0
 11
2.470813119225352
 21
0.307764713912313
 31
0.0
  0
LINE
  5
C57
330
1F
100
AcDbEntity
  8
SK1
  6
CONTINUOUS
370
50
 62
4
100
AcDbLine
 10
0.7511924397506667
 20
2.380938783980268
 30
0.0
 11
2.370938783980268
 21
0.7611924397506691
 31
0.0
  0
LINE
  5
C58
330
1F
100
AcDbEntity
  8
SK1
  6
CONTINUOUS
370
50
 62
4
100
AcDbLine
 10
1.47586376213526
 20
2.009820852188948
 30
0.0
 11
1.999820852188946
 21
1.485863762135263
 31
0.0
  0
LINE
  5
C59
330
1F
100
AcDbEntity
  8
4
  6
LONGDASH_DASH
370
25
 62
2
100
AcDbLine
 10
-0.01
 20
0.0
 30
0.0
 11
7.294
 21
0.0
 31
0.0
  0
LINE
  5
C5A
330
1F
100
AcDbEntity
  8
SK4
  6
LONGDASH_DASH
370
25
 62
2
100
AcDbLine
 10
-48.706
 20
0.0
 30
0.0
 11
13.294
 21
0.0
 31
0.0
  0
LINE
  5
C5B
330
1F
100
AcDbEntity
  8
INFTOTAL
  6
CONTINUOUS
370
18
 62
9
100
AcDbLine
 10
-82.176611
 20
-37.40001100000001
 30
0.0
 11
54.22341100000001
 21
-37.40001100000001
 31
0.0
  0
LINE
  5
C5C
330
1F
100
AcDbEntity
  8
INFTOTAL
  6
CONTINUOUS
370
18
 62
9
100
AcDbLine
 10
54.22341100000001
 20
-37.40001100000001
 30
0.0
 11
54.22341100000001
 21
59.40001100000001
 31
0.0
  0
LINE
  5
C5D
330
1F
100
AcDbEntity
  8
INFTOTAL
  6
CONTINUOUS
370
18
 62
9
100
AcDbLine
 10
54.22341100000001
 20
59.40001100000001
 30
0.0
 11
-82.17661100000001
 21
59.40001100000001
 31
0.0
  0
LINE
  5
C5E
330
1F
100
AcDbEntity
  8
INFTOTAL
  6
CONTINUOUS
370
18
 62
9
100
AcDbLine
 10
-82.17661100000001
 20
59.40001100000001
 30
0.0
 11
-82.17661100000001
 21
-37.40001100000001
 31
0.0
  0
ENDSEC
  0
SECTION
  2
OBJECTS
  0
DICTIONARY
  5
C
330
0
100
AcDbDictionary
281
     1
  3
ACAD_GROUP
350
D
  3
ACAD_LAYOUT
350
1A
  3
ACAD_MATERIAL
350
3B
  3
ACAD_MLEADERSTYLE
350
C61
  3
ACAD_MLINESTYLE
350
17
  3
ACAD_PLOTSETTINGS
350
19
  3
ACAD_PLOTSTYLENAME
350
E
  3
ACAD_SCALELIST
350
40B
  3
ACAD_VISUALSTYLE
350
2A
  3
AcDbVariableDictionary
350
C5F
  0
DICTIONARY
  5
D
102
{ACAD_REACTORS
330
C
102
}
330
C
100
AcDbDictionary
281
     1
  0
DICTIONARY
  5
1A
102
{ACAD_REACTORS
330
C
102
}
330
C
100
AcDbDictionary
281
     1
  3
Layout1
350
1E
  3
Layout2
350
26
  3
Model
350
22
  0
DICTIONARY
  5
3B
102
{ACAD_REACTORS
330
C
102
}
330
C
100
AcDbDictionary
281
     1
  3
ByBlock
350
3D
  3
ByLayer
350
3C
  3
Global
350
3E
  0
DICTIONARY
  5
C61
102
{ACAD_REACTORS
330
C
102
}
330
C
100
AcDbDictionary
281
     1
  0
DICTIONARY
  5
17
102
{ACAD_REACTORS
330
C
102
}
330
C
100
AcDbDictionary
281
     1
  3
Standard
350
18
  0
DICTIONARY
  5
19
102
{ACAD_REACTORS
330
C
102
}
330
C
100
AcDbDictionary
281
     1
  0
ACDBDICTIONARYWDFLT
  5
E
102
{ACAD_REACTORS
330
C
102
}
330
C
100
AcDbDictionary
281
     1
  3
Normal
350
F
100
AcDbDictionaryWithDefault
340
F
  0
DICTIONARY
  5
40B
102
{ACAD_REACTORS
330
C
102
}
330
C
100
AcDbDictionary
281
     1
  3
A0
350
40C
  3
A1
350
40D
  3
A2
350
40E
  3
A3
350
40F
  3
A4
350
410
  3
A5
350
411
  3
A6
350
412
  3
A7
350
413
  3
A8
350
414
  3
A9
350
415
  3
B0
350
416
  3
B1
350
417
  3
B2
350
418
  3
B3
350
419
  3
B4
350
41A
  3
B5
350
41B
  3
B6
350
41C
  3
B7
350
41D
  3
B8
350
41E
  3
B9
350
41F
  3
C0
350
420
  3
C1
350
421
  3
C2
350
422
  3
C3
350
423
  3
C4
350
424
  3
C5
350
425
  3
C6
350
426
  3
C7
350
427
  3
C8
350
428
  3
C9
350
429
  3
D0
350
42A
  3
D1
350
42B
  3
D2
350
42C
  0
DICTIONARY
  5
2A
102
{ACAD_REACTORS
330
C
102
}
330
C
100
AcDbDictionary
281
     1
  3
2dWireframe
350
2F
  3
3D Hidden
350
31
  3
3dWireframe
350
30
  3
Basic
350
32
  3
Brighten
350
36
  3
ColorChange
350
3A
  3
Conceptual
350
34
  3
Dim
350
35
  3
Facepattern
350
39
  3
Flat
350
2B
  3
FlatWithEdges
350
2C
  3
Gouraud
350
2D
  3
GouraudWithEdges
350
2E
  3
Linepattern
350
38
  3
Realistic
350
33
  3
Thicken
350
37
  0
DICTIONARY
  5
C5F
102
{ACAD_REACTORS
330
C
102
}
330
C
100
AcDbDictionary
281
     1
  3
CANNOSCALE
350
C64
  3
DIMASSOC
350
C65
  3
HIDETEXT
350
C66
  3
PSOLHEIGHT
350
C63
  3
PSOLWIDTH
350
C62
  0
LAYOUT
  5
1E
102
{ACAD_REACTORS
330
1A
102
}
330
1A
100
AcDbPlotSettings
  1

  2
none_device
  4

  6

 40
0.0
 41
0.0
 42
0.0
 43
0.0
 44
0.0
 45
0.0
 46
0.0
 47
0.0
 48
0.0
 49
0.0
140
0.0
141
0.0
142
1.0
143
1.0
 70
   688
 72
     0
 73
     0
 74
     5
  7

 75
    16
147
1.0
148
0.0
149
0.0
100
AcDbLayout
  1
Layout1
 70
     1
 71
     1
 10
0.0
 20
0.0
 11
420.0
 21
297.0
 12
0.0
 22
0.0
 32
0.0
 14
1.000000000000000E+20
 24
1.000000000000000E+20
 34
1.000000000000000E+20
 15
-1.000000000000000E+20
 25
-1.000000000000000E+20
 35
-1.000000000000000E+20
146
0.0
 13
0.0
 23
0.0
 33
0.0
 16
1.0
 26
0.0
 36
0.0
 17
0.0
 27
1.0
 37
0.0
 76
     0
330
1B
  0
LAYOUT
  5
26
102
{ACAD_REACTORS
330
1A
102
}
330
1A
100
AcDbPlotSettings
  1

  2
none_device
  4

  6

 40
0.0
 41
0.0
 42
0.0
 43
0.0
 44
0.0
 45
0.0
 46
0.0
 47
0.0
 48
0.0
 49
0.0
140
0.0
141
0.0
142
1.0
143
1.0
 70
   688
 72
     0
 73
     0
 74
     5
  7

 75
    16
147
1.0
148
0.0
149
0.0
100
AcDbLayout
  1
Layout2
 70
     1
 71
     2
 10
0.0
 20
0.0
 11
0.0
 21
0.0
 12
0.0
 22
0.0
 32
0.0
 14
0.0
 24
0.0
 34
0.0
 15
0.0
 25
0.0
 35
0.0
146
0.0
 13
0.0
 23
0.0
 33
0.0
 16
1.0
 26
0.0
 36
0.0
 17
0.0
 27
1.0
 37
0.0
 76
     0
330
23
  0
LAYOUT
  5
22
102
{ACAD_REACTORS
330
1A
102
}
330
1A
100
AcDbPlotSettings
  1

  2
none_device
  4

  6

 40
0.0
 41
0.0
 42
0.0
 43
0.0
 44
0.0
 45
0.0
 46
0.0
 47
0.0
 48
0.0
 49
0.0
140
0.0
141
0.0
142
1.0
143
1.0
 70
  1712
 72
     0
 73
     0
 74
     0
  7

 75
     0
147
1.0
148
0.0
149
0.0
100
AcDbLayout
  1
Model
 70
     1
 71
     0
 10
0.0
 20
0.0
 11
420.0
 21
297.0
 12
0.0
 22
0.0
 32
0.0
 14
0.0
 24
0.0
 34
0.0
 15
25.0
 25
35.0
 35
0.0
146
0.0
 13
0.0
 23
0.0
 33
0.0
 16
1.0
 26
0.0
 36
0.0
 17
0.0
 27
1.0
 37
0.0
 76
     0
330
1F
331
29
  0
MATERIAL
  5
3D
102
{ACAD_REACTORS
330
3B
102
}
102
{ACAD_XDICTIONARY
360
C89
102
}
330
3B
100
AcDbMaterial
  1
ByBlock
  0
MATERIAL
  5
3C
102
{ACAD_REACTORS
330
3B
102
}
102
{ACAD_XDICTIONARY
360
C87
102
}
330
3B
100
AcDbMaterial
  1
ByLayer
  0
MATERIAL
  5
3E
102
{ACAD_REACTORS
330
3B
102
}
102
{ACAD_XDICTIONARY
360
C8B
102
}
330
3B
100
AcDbMaterial
  1
Global
  0
MLINESTYLE
  5
18
102
{ACAD_REACTORS
330
17
102
}
330
17
100
AcDbMlineStyle
  2
Standard
 70
     0
  3

 62
   256
 51
90.0
 52
90.0
 71
     2
 49
0.5
 62
   256
  6
BYLAYER
 49
-0.5
 62
   256
  6
BYLAYER
  0
ACDBPLACEHOLDER
  5
F
102
{ACAD_REACTORS
330
E
102
}
330
E
  0
SCALE
  5
40C
102
{ACAD_REACTORS
330
40B
102
}
330
40B
100
AcDbScale
 70
     0
300
1:1
140
1.0
141
1.0
290
     1
  0
SCALE
  5
40D
102
{ACAD_REACTORS
330
40B
102
}
330
40B
100
AcDbScale
 70
     0
300
1:2
140
1.0
141
2.0
290
     0
  0
SCALE
  5
40E
102
{ACAD_REACTORS
330
40B
102
}
330
40B
100
AcDbScale
 70
     0
300
1:4
140
1.0
141
4.0
290
     0
  0
SCALE
  5
40F
102
{ACAD_REACTORS
330
40B
102
}
330
40B
100
AcDbScale
 70
     0
300
1:5
140
1.0
141
5.0
290
     0
  0
SCALE
  5
410
102
{ACAD_REACTORS
330
40B
102
}
330
40B
100
AcDbScale
 70
     0
300
1:8
140
1.0
141
8.0
290
     0
  0
SCALE
  5
411
102
{ACAD_REACTORS
330
40B
102
}
330
40B
100
AcDbScale
 70
     0
300
1:10
140
1.0
141
10.0
290
     0
  0
SCALE
  5
412
102
{ACAD_REACTORS
330
40B
102
}
330
40B
100
AcDbScale
 70
     0
300
1:16
140
1.0
141
16.0
290
     0
  0
SCALE
  5
413
102
{ACAD_REACTORS
330
40B
102
}
330
40B
100
AcDbScale
 70
     0
300
1:20
140
1.0
141
20.0
290
     0
  0
SCALE
  5
414
102
{ACAD_REACTORS
330
40B
102
}
330
40B
100
AcDbScale
 70
     0
300
1:30
140
1.0
141
30.0
290
     0
  0
SCALE
  5
415
102
{ACAD_REACTORS
330
40B
102
}
330
40B
100
AcDbScale
 70
     0
300
1:40
140
1.0
141
40.0
290
     0
  0
SCALE
  5
416
102
{ACAD_REACTORS
330
40B
102
}
330
40B
100
AcDbScale
 70
     0
300
1:50
140
1.0
141
50.0
290
     0
  0
SCALE
  5
417
102
{ACAD_REACTORS
330
40B
102
}
330
40B
100
AcDbScale
 70
     0
300
1:100
140
1.0
141
100.0
290
     0
  0
SCALE
  5
418
102
{ACAD_REACTORS
330
40B
102
}
330
40B
100
AcDbScale
 70
     0
300
2:1
140
2.0
141
1.0
290
     0
  0
SCALE
  5
419
102
{ACAD_REACTORS
330
40B
102
}
330
40B
100
AcDbScale
 70
     0
300
4:1
140
4.0
141
1.0
290
     0
  0
SCALE
  5
41A
102
{ACAD_REACTORS
330
40B
102
}
330
40B
100
AcDbScale
 70
     0
300
8:1
140
8.0
141
1.0
290
     0
  0
SCALE
  5
41B
102
{ACAD_REACTORS
330
40B
102
}
330
40B
100
AcDbScale
 70
     0
300
10:1
140
10.0
141
1.0
290
     0
  0
SCALE
  5
41C
102
{ACAD_REACTORS
330
40B
102
}
330
40B
100
AcDbScale
 70
     0
300
100:1
140
100.0
141
1.0
290
     0
  0
SCALE
  5
41D
102
{ACAD_REACTORS
330
40B
102
}
330
40B
100
AcDbScale
 70
     0
300
1/128" = 1'-0"
140
0.0078125
141
12.0
290
     0
  0
SCALE
  5
41E
102
{ACAD_REACTORS
330
40B
102
}
330
40B
100
AcDbScale
 70
     0
300
1/64" = 1'-0"
140
0.015625
141
12.0
290
     0
  0
SCALE
  5
41F
102
{ACAD_REACTORS
330
40B
102
}
330
40B
100
AcDbScale
 70
     0
300
1/32" = 1'-0"
140
0.03125
141
12.0
290
     0
  0
SCALE
  5
420
102
{ACAD_REACTORS
330
40B
102
}
330
40B
100
AcDbScale
 70
     0
300
1/16" = 1'-0"
140
0.0625
141
12.0
290
     0
  0
SCALE
  5
421
102
{ACAD_REACTORS
330
40B
102
}
330
40B
100
AcDbScale
 70
     0
300
3/32" = 1'-0"
140
0.09375
141
12.0
290
     0
  0
SCALE
  5
422
102
{ACAD_REACTORS
330
40B
102
}
330
40B
100
AcDbScale
 70
     0
300
1/8" = 1'-0"
140
0.125
141
12.0
290
     0
  0
SCALE
  5
423
102
{ACAD_REACTORS
330
40B
102
}
330
40B
100
AcDbScale
 70
     0
300
3/16" = 1'-0"
140
0.1875
141
12.0
290
     0
  0
SCALE
  5
424
102
{ACAD_REACTORS
330
40B
102
}
330
40B
100
AcDbScale
 70
     0
300
1/4" = 1'-0"
140
0.25
141
12.0
290
     0
  0
SCALE
  5
425
102
{ACAD_REACTORS
330
40B
102
}
330
40B
100
AcDbScale
 70
     0
300
3/8" = 1'-0"
140
0.375
141
12.0
290
     0
  0
SCALE
  5
426
102
{ACAD_REACTORS
330
40B
102
}
330
40B
100
AcDbScale
 70
     0
300
1/2" = 1'-0"
140
0.5
141
12.0
290
     0
  0
SCALE
  5
427
102
{ACAD_REACTORS
330
40B
102
}
330
40B
100
AcDbScale
 70
     0
300
3/4" = 1'-0"
140
0.75
141
12.0
290
     0
  0
SCALE
  5
428
102
{ACAD_REACTORS
330
40B
102
}
330
40B
100
AcDbScale
 70
     0
300
1" = 1'-0"
140
1.0
141
12.0
290
     0
  0
SCALE
  5
429
102
{ACAD_REACTORS
330
40B
102
}
330
40B
100
AcDbScale
 70
     0
300
1-1/2" = 1'-0"
140
1.5
141
12.0
290
     0
  0
SCALE
  5
42A
102
{ACAD_REACTORS
330
40B
102
}
330
40B
100
AcDbScale
 70
     0
300
3" = 1'-0"
140
3.0
141
12.0
290
     0
  0
SCALE
  5
42B
102
{ACAD_REACTORS
330
40B
102
}
330
40B
100
AcDbScale
 70
     0
300
6" = 1'-0"
140
6.0
141
12.0
290
     0
  0
SCALE
  5
42C
102
{ACAD_REACTORS
330
40B
102
}
330
40B
100
AcDbScale
 70
     0
300
1'-0" = 1'-0"
140
12.0
141
12.0
290
     0
  0
VISUALSTYLE
  5
2F
102
{ACAD_REACTORS
330
2A
102
}
102
{ACAD_XDICTIONARY
360
C6F
102
}
330
2A
100
AcDbVisualStyle
  2
2dWireframe
 70
     4
 71
     0
 72
     2
 73
     0
 90
        0
 40
-0.6
 41
-30.0
 62
     5
 63
     7
 74
     1
 91
        4
 64
     7
 65
   257
 75
     1
175
     1
 42
1.0
 92
        0
 66
   257
 43
1.0
 76
     1
 77
     6
 78
     2
 67
     7
 79
     5
170
     0
171
     0
290
     0
174
     0
 93
        1
 44
0.0
173
     0
291
     0
 45
0.0
1001
ACAD
1000
AcDbSavedByObjectVersion
1070
     0
  0
VISUALSTYLE
  5
31
102
{ACAD_REACTORS
330
2A
102
}
102
{ACAD_XDICTIONARY
360
C73
102
}
330
2A
100
AcDbVisualStyle
  2
3D Hidden
 70
     6
 71
     1
 72
     2
 73
     2
 90
        0
 40
-0.6
 41
-30.0
 62
     5
 63
     7
 74
     2
 91
        2
 64
     7
 65
   257
 75
     2
175
     1
 42
40.0
 92
        0
 66
   257
 43
1.0
 76
     1
 77
     6
 78
     2
 67
     7
 79
     3
170
     0
171
     0
290
     0
174
     0
 93
        1
 44
0.0
173
     0
291
     0
 45
0.0
1001
ACAD
1000
AcDbSavedByObjectVersion
1070
     0
  0
VISUALSTYLE
  5
30
102
{ACAD_REACTORS
330
2A
102
}
102
{ACAD_XDICTIONARY
360
C71
102
}
330
2A
100
AcDbVisualStyle
  2
3dWireframe
 70
     5
 71
     0
 72
     2
 73
     0
 90
        0
 40
-0.6
 41
-30.0
 62
     5
 63
     7
 74
     1
 91
        4
 64
     7
 65
   257
 75
     1
175
     1
 42
1.0
 92
        0
 66
   257
 43
1.0
 76
     1
 77
     6
 78
     2
 67
     7
 79
     5
170
     0
171
     0
290
     0
174
     0
 93
        1
 44
0.0
173
     0
291
     0
 45
0.0
1001
ACAD
1000
AcDbSavedByObjectVersion
1070
     0
  0
VISUALSTYLE
  5
32
102
{ACAD_REACTORS
330
2A
102
}
102
{ACAD_XDICTIONARY
360
C75
102
}
330
2A
100
AcDbVisualStyle
  2
Basic
 70
     7
 71
     1
 72
     0
 73
     1
 90
        0
 40
-0.6
 41
-30.0
 62
     5
 63
     7
 74
     0
 91
        4
 64
     7
 65
   257
 75
     1
175
     1
 42
1.0
 92
        8
 66
     7
 43
1.0
 76
     1
 77
     6
 78
     2
 67
     7
 79
     5
170
     0
171
     0
290
     0
174
     0
 93
        1
 44
0.0
173
     0
291
     1
 45
0.0
1001
ACAD
1000
AcDbSavedByObjectVersion
1070
     0
  0
VISUALSTYLE
  5
36
102
{ACAD_REACTORS
330
2A
102
}
102
{ACAD_XDICTIONARY
360
C7D
102
}
330
2A
100
AcDbVisualStyle
  2
Brighten
 70
    12
 71
     2
 72
     2
 73
     0
 90
        0
 40
-0.6
 41
-30.0
 62
     5
 63
     7
 74
     1
 91
        4
 64
     7
 65
   257
 75
     1
175
     1
 42
1.0
 92
        8
 66
     7
 43
1.0
 76
     1
 77
     6
 78
     2
 67
     7
 79
     5
170
     0
171
     0
290
     0
174
     0
 93
        1
 44
50.0
173
     0
291
     1
 45
0.0
1001
ACAD
1000
AcDbSavedByObjectVersion
1070
     0
  0
VISUALSTYLE
  5
3A
102
{ACAD_REACTORS
330
2A
102
}
102
{ACAD_XDICTIONARY
360
C85
102
}
330
2A
100
AcDbVisualStyle
  2
ColorChange
 70
    16
 71
     2
 72
     2
 73
     3
 90
        0
 40
-0.6
 41
-30.0
 62
     5
 63
     8
 74
     1
 91
        4
 64
     7
 65
   257
 75
     1
175
     1
 42
1.0
 92
        8
 66
     8
 43
1.0
 76
     1
 77
     6
 78
     2
 67
     7
 79
     5
170
     0
171
     0
290
     0
174
     0
 93
        1
 44
0.0
173
     0
291
     1
 45
0.0
1001
ACAD
1000
AcDbSavedByObjectVersion
1070
     0
  0
VISUALSTYLE
  5
34
102
{ACAD_REACTORS
330
2A
102
}
102
{ACAD_XDICTIONARY
360
C79
102
}
330
2A
100
AcDbVisualStyle
  2
Conceptual
 70
     9
 71
     3
 72
     2
 73
     0
 90
        0
 40
-0.6
 41
-30.0
 62
     5
 63
     7
 74
     2
 91
        2
 64
     7
 65
   257
 75
     1
175
     1
 42
40.0
 92
        8
 66
     7
 43
1.0
 76
     1
 77
     6
 78
     2
 67
     7
 79
     3
170
     0
171
     0
290
     0
174
     0
 93
        1
 44
0.0
173
     0
291
     0
 45
0.0
1001
ACAD
1000
AcDbSavedByObjectVersion
1070
     0
  0
VISUALSTYLE
  5
35
102
{ACAD_REACTORS
330
2A
102
}
102
{ACAD_XDICTIONARY
360
C7B
102
}
330
2A
100
AcDbVisualStyle
  2
Dim
 70
    11
 71
     2
 72
     2
 73
     0
 90
        0
 40
-0.6
 41
-30.0
 62
     5
 63
     7
 74
     1
 91
        4
 64
     7
 65
   257
 75
     1
175
     1
 42
1.0
 92
        8
 66
     7
 43
1.0
 76
     1
 77
     6
 78
     2
 67
     7
 79
     5
170
     0
171
     0
290
     0
174
     0
 93
        1
 44
-50.0
173
     0
291
     1
 45
0.0
1001
ACAD
1000
AcDbSavedByObjectVersion
1070
     0
  0
VISUALSTYLE
  5
39
102
{ACAD_REACTORS
330
2A
102
}
102
{ACAD_XDICTIONARY
360
C83
102
}
330
2A
100
AcDbVisualStyle
  2
Facepattern
 70
    15
 71
     2
 72
     2
 73
     0
 90
        0
 40
-0.6
 41
-30.0
 62
     5
 63
     7
 74
     1
 91
        4
 64
     7
 65
   257
 75
     1
175
     1
 42
1.0
 92
        8
 66
     7
 43
1.0
 76
     1
 77
     6
 78
     2
 67
     7
 79
     5
170
     0
171
     0
290
     0
174
     0
 93
        1
 44
0.0
173
     0
291
     1
 45
0.0
1001
ACAD
1000
AcDbSavedByObjectVersion
1070
     0
  0
VISUALSTYLE
  5
2B
102
{ACAD_REACTORS
330
2A
102
}
102
{ACAD_XDICTIONARY
360
C67
102
}
330
2A
100
AcDbVisualStyle
  2
Flat
 70
     0
 71
     2
 72
     1
 73
     1
 90
        2
 40
-0.6
 41
30.0
 62
     5
 63
     7
 74
     0
 91
        4
 64
     7
 65
   257
 75
     1
175
     1
 42
1.0
 92
        8
 66
     7
 43
1.0
 76
     1
 77
     6
 78
     2
 67
     7
 79
     5
170
     0
171
     0
290
     0
174
     0
 93
       13
 44
0.0
173
     0
291
     1
 45
0.0
1001
ACAD
1000
AcDbSavedByObjectVersion
1070
     0
  0
VISUALSTYLE
  5
2C
102
{ACAD_REACTORS
330
2A
102
}
102
{ACAD_XDICTIONARY
360
C69
102
}
330
2A
100
AcDbVisualStyle
  2
FlatWithEdges
 70
     1
 71
     2
 72
     1
 73
     1
 90
        2
 40
-0.6
 41
30.0
 62
     5
 63
     7
 74
     1
 91
        4
 64
     7
 65
   257
 75
     1
175
     1
 42
1.0
 92
        0
 66
   257
 43
1.0
 76
     1
 77
     6
 78
     2
 67
     7
 79
     5
170
     0
171
     0
290
     0
174
     0
 93
       13
 44
0.0
173
     0
291
     1
 45
0.0
1001
ACAD
1000
AcDbSavedByObjectVersion
1070
     0
  0
VISUALSTYLE
  5
2D
102
{ACAD_REACTORS
330
2A
102
}
102
{ACAD_XDICTIONARY
360
C6B
102
}
330
2A
100
AcDbVisualStyle
  2
Gouraud
 70
     2
 71
     2
 72
     2
 73
     1
 90
        2
 40
-0.6
 41
30.0
 62
     5
 63
     7
 74
     0
 91
        4
 64
     7
 65
   257
 75
     1
175
     1
 42
1.0
 92
        0
 66
     7
 43
1.0
 76
     1
 77
     6
 78
     2
 67
     7
 79
     5
170
     0
171
     0
290
     0
174
     0
 93
       13
 44
0.0
173
     0
291
     1
 45
0.0
1001
ACAD
1000
AcDbSavedByObjectVersion
1070
     0
  0
VISUALSTYLE
  5
2E
102
{ACAD_REACTORS
330
2A
102
}
102
{ACAD_XDICTIONARY
360
C6D
102
}
330
2A
100
AcDbVisualStyle
  2
GouraudWithEdges
 70
     3
 71
     2
 72
     2
 73
     1
 90
        2
 40
-0.6
 41
30.0
 62
     5
 63
     7
 74
     1
 91
        4
 64
     7
 65
   257
 75
     1
175
     1
 42
1.0
 92
        0
 66
   257
 43
1.0
 76
     1
 77
     6
 78
     2
 67
     7
 79
     5
170
     0
171
     0
290
     0
174
     0
 93
       13
 44
0.0
173
     0
291
     1
 45
0.0
1001
ACAD
1000
AcDbSavedByObjectVersion
1070
     0
  0
VISUALSTYLE
  5
38
102
{ACAD_REACTORS
330
2A
102
}
102
{ACAD_XDICTIONARY
360
C81
102
}
330
2A
100
AcDbVisualStyle
  2
Linepattern
 70
    14
 71
     2
 72
     2
 73
     0
 90
        0
 40
-0.6
 41
-30.0
 62
     5
 63
     7
 74
     1
 91
        4
 64
     7
 65
   257
 75
     7
175
     7
 42
1.0
 92
        8
 66
     7
 43
1.0
 76
     1
 77
     6
 78
     2
 67
     7
 79
     5
170
     0
171
     0
290
     0
174
     0
 93
        1
 44
0.0
173
     0
291
     1
 45
0.0
1001
ACAD
1000
AcDbSavedByObjectVersion
1070
     0
  0
VISUALSTYLE
  5
33
102
{ACAD_REACTORS
330
2A
102
}
102
{ACAD_XDICTIONARY
360
C77
102
}
330
2A
100
AcDbVisualStyle
  2
Realistic
 70
     8
 71
     2
 72
     2
 73
     0
 90
        0
 40
-0.6
 41
-30.0
 62
     5
 63
     7
 74
     1
 91
        0
 64
     7
 65
   257
 75
     1
175
     1
 42
1.0
 92
        8
 66
     8
 43
1.0
 76
     1
 77
     6
 78
     2
 67
     7
 79
     5
170
     0
171
     0
290
     0
174
     0
 93
       13
 44
0.0
173
     0
291
     0
 45
0.0
1001
ACAD
1000
AcDbSavedByObjectVersion
1070
     0
  0
VISUALSTYLE
  5
37
102
{ACAD_REACTORS
330
2A
102
}
102
{ACAD_XDICTIONARY
360
C7F
102
}
330
2A
100
AcDbVisualStyle
  2
Thicken
 70
    13
 71
     2
 72
     2
 73
     0
 90
        0
 40
-0.6
 41
-30.0
 62
     5
 63
     7
 74
     1
 91
        4
 64
     7
 65
   257
 75
     1
175
     1
 42
1.0
 92
       12
 66
     7
 43
1.0
 76
     1
 77
     6
 78
     2
 67
     7
 79
     5
170
     0
171
     0
290
     0
174
     0
 93
        1
 44
0.0
173
     0
291
     1
 45
0.0
1001
ACAD
1000
AcDbSavedByObjectVersion
1070
     0
  0
DICTIONARYVAR
  5
C64
102
{ACAD_REACTORS
330
C5F
102
}
330
C5F
100
DictionaryVariables
280
     0
  1
1:1
  0
DICTIONARYVAR
  5
C65
102
{ACAD_REACTORS
330
C5F
102
}
330
C5F
100
DictionaryVariables
280
     0
  1
2
  0
DICTIONARYVAR
  5
C66
102
{ACAD_REACTORS
330
C5F
102
}
330
C5F
100
DictionaryVariables
280
     0
  1
1
  0
DICTIONARYVAR
  5
C63
102
{ACAD_REACTORS
330
C5F
102
}
330
C5F
100
DictionaryVariables
280
     0
  1
80.000000
  0
DICTIONARYVAR
  5
C62
102
{ACAD_REACTORS
330
C5F
102
}
330
C5F
100
DictionaryVariables
280
     0
  1
5.000000
  0
DICTIONARY
  5
C89
330
3D
100
AcDbDictionary
280
     1
281
     1
  3
ACAD_XREC_ROUNDTRIP
360
C8A
  0
DICTIONARY
  5
C87
330
3C
100
AcDbDictionary
280
     1
281
     1
  3
ACAD_XREC_ROUNDTRIP
360
C88
  0
DICTIONARY
  5
C8B
330
3E
100
AcDbDictionary
280
     1
281
     1
  3
ACAD_XREC_ROUNDTRIP
360
C8C
  0
DICTIONARY
  5
C6F
330
2F
100
AcDbDictionary
280
     1
281
     1
  3
ACAD_XREC_ROUNDTRIP
360
C70
  0
DICTIONARY
  5
C73
330
31
100
AcDbDictionary
280
     1
281
     1
  3
ACAD_XREC_ROUNDTRIP
360
C74
  0
DICTIONARY
  5
C71
330
30
100
AcDbDictionary
280
     1
281
     1
  3
ACAD_XREC_ROUNDTRIP
360
C72
  0
DICTIONARY
  5
C75
330
32
100
AcDbDictionary
280
     1
281
     1
  3
ACAD_XREC_ROUNDTRIP
360
C76
  0
DICTIONARY
  5
C7D
330
36
100
AcDbDictionary
280
     1
281
     1
  3
ACAD_XREC_ROUNDTRIP
360
C7E
  0
DICTIONARY
  5
C85
330
3A
100
AcDbDictionary
280
     1
281
     1
  3
ACAD_XREC_ROUNDTRIP
360
C86
  0
DICTIONARY
  5
C79
330
34
100
AcDbDictionary
280
     1
281
     1
  3
ACAD_XREC_ROUNDTRIP
360
C7A
  0
DICTIONARY
  5
C7B
330
35
100
AcDbDictionary
280
     1
281
     1
  3
ACAD_XREC_ROUNDTRIP
360
C7C
  0
DICTIONARY
  5
C83
330
39
100
AcDbDictionary
280
     1
281
     1
  3
ACAD_XREC_ROUNDTRIP
360
C84
  0
DICTIONARY
  5
C67
330
2B
100
AcDbDictionary
280
     1
281
     1
  3
ACAD_XREC_ROUNDTRIP
360
C68
  0
DICTIONARY
  5
C69
330
2C
100
AcDbDictionary
280
     1
281
     1
  3
ACAD_XREC_ROUNDTRIP
360
C6A
  0
DICTIONARY
  5
C6B
330
2D
100
AcDbDictionary
280
     1
281
     1
  3
ACAD_XREC_ROUNDTRIP
360
C6C
  0
DICTIONARY
  5
C6D
330
2E
100
AcDbDictionary
280
     1
281
     1
  3
ACAD_XREC_ROUNDTRIP
360
C6E
  0
DICTIONARY
  5
C81
330
38
100
AcDbDictionary
280
     1
281
     1
  3
ACAD_XREC_ROUNDTRIP
360
C82
  0
DICTIONARY
  5
C77
330
33
100
AcDbDictionary
280
     1
281
     1
  3
ACAD_XREC_ROUNDTRIP
360
C78
  0
DICTIONARY
  5
C7F
330
37
100
AcDbDictionary
280
     1
281
     1
  3
ACAD_XREC_ROUNDTRIP
360
C80
  0
XRECORD
  5
C8A
102
{ACAD_REACTORS
330
C89
102
}
330
C89
100
AcDbXrecord
280
     1
102
MATERIAL
148
0.0
149
0.0
149
0.0
 93
        0
 94
      127
282
     0
 72
     1
 77
     1
171
     1
175
     1
179
     1
273
     0
  0
XRECORD
  5
C88
102
{ACAD_REACTORS
330
C87
102
}
330
C87
100
AcDbXrecord
280
     1
102
MATERIAL
148
0.0
149
0.0
149
0.0
 93
        0
 94
      127
282
     0
 72
     1
 77
     1
171
     1
175
     1
179
     1
273
     0
  0
XRECORD
  5
C8C
102
{ACAD_REACTORS
330
C8B
102
}
330
C8B
100
AcDbXrecord
280
     1
102
MATERIAL
148
0.0
149
0.0
149
0.0
 93
        0
 94
      127
282
     0
 72
     1
 77
     1
171
     1
175
     1
179
     1
273
     0
  0
XRECORD
  5
C70
102
{ACAD_REACTORS
330
C6F
102
}
330
C6F
100
AcDbXrecord
280
     1
102
RTVSPropertyOp0
 70
     1
102
RTVSPropertyOp1
 70
     1
102
RTVSPropertyOp2
 70
     1
102
RTVSPropertyOp3
 70
     1
102
RTVSPropertyOp4
 70
     1
102
RTVSPropertyOp5
 70
     1
102
RTVSPropertyOp6
 70
     1
102
RTVSPropertyOp7
 70
     1
102
RTVSPropertyOp8
 70
     1
102
RTVSPropertyOp9
 70
     1
102
RTVSPropertyOp10
 70
     1
102
RTVSPropertyOp11
 70
     1
102
RTVSPropertyOp12
 70
     1
102
RTVSPropertyOp13
 70
     1
102
RTVSPropertyOp14
 70
     1
102
RTVSPropertyOp15
 70
     1
102
RTVSPropertyOp16
 70
     1
102
RTVSPropertyOp17
 70
     1
102
RTVSPropertyOp18
 70
     1
102
RTVSPropertyOp19
 70
     1
102
RTVSPropertyOp20
 70
     1
102
RTVSPropertyOp21
 70
     1
102
RTVSPropertyOp22
 70
     1
102
RTVSPropertyOp23
 70
     1
102
RTVSPropertyOp24
 70
     1
102
RTVSPropertyOp25
 70
     1
102
RTVSPropertyOp26
 70
     1
102
RTVSPropertyOp27
 70
     1
  0
XRECORD
  5
C74
102
{ACAD_REACTORS
330
C73
102
}
330
C73
100
AcDbXrecord
280
     1
102
RTVSPropertyOp0
 70
     1
102
RTVSPropertyOp1
 70
     1
102
RTVSPropertyOp2
 70
     1
102
RTVSPropertyOp3
 70
     1
102
RTVSPropertyOp4
 70
     1
102
RTVSPropertyOp5
 70
     1
102
RTVSPropertyOp6
 70
     1
102
RTVSPropertyOp7
 70
     1
102
RTVSPropertyOp8
 70
     1
102
RTVSPropertyOp9
 70
     1
102
RTVSPropertyOp10
 70
     1
102
RTVSPropertyOp11
 70
     1
102
RTVSPropertyOp12
 70
     1
102
RTVSPropertyOp13
 70
     1
102
RTVSPropertyOp14
 70
     1
102
RTVSPropertyOp15
 70
     1
102
RTVSPropertyOp16
 70
     1
102
RTVSPropertyOp17
 70
     1
102
RTVSPropertyOp18
 70
     1
102
RTVSPropertyOp19
 70
     1
102
RTVSPropertyOp20
 70
     1
102
RTVSPropertyOp21
 70
     1
102
RTVSPropertyOp22
 70
     1
102
RTVSPropertyOp23
 70
     1
102
RTVSPropertyOp24
 70
     1
102
RTVSPropertyOp25
 70
     1
102
RTVSPropertyOp26
 70
     1
102
RTVSPropertyOp27
 70
     1
  0
XRECORD
  5
C72
102
{ACAD_REACTORS
330
C71
102
}
330
C71
100
AcDbXrecord
280
     1
102
RTVSPropertyOp0
 70
     1
102
RTVSPropertyOp1
 70
     1
102
RTVSPropertyOp2
 70
     1
102
RTVSPropertyOp3
 70
     1
102
RTVSPropertyOp4
 70
     1
102
RTVSPropertyOp5
 70
     1
102
RTVSPropertyOp6
 70
     1
102
RTVSPropertyOp7
 70
     1
102
RTVSPropertyOp8
 70
     1
102
RTVSPropertyOp9
 70
     1
102
RTVSPropertyOp10
 70
     1
102
RTVSPropertyOp11
 70
     1
102
RTVSPropertyOp12
 70
     1
102
RTVSPropertyOp13
 70
     1
102
RTVSPropertyOp14
 70
     1
102
RTVSPropertyOp15
 70
     1
102
RTVSPropertyOp16
 70
     1
102
RTVSPropertyOp17
 70
     1
102
RTVSPropertyOp18
 70
     1
102
RTVSPropertyOp19
 70
     1
102
RTVSPropertyOp20
 70
     1
102
RTVSPropertyOp21
 70
     1
102
RTVSPropertyOp22
 70
     1
102
RTVSPropertyOp23
 70
     1
102
RTVSPropertyOp24
 70
     1
102
RTVSPropertyOp25
 70
     1
102
RTVSPropertyOp26
 70
     1
102
RTVSPropertyOp27
 70
     1
  0
XRECORD
  5
C76
102
{ACAD_REACTORS
330
C75
102
}
330
C75
100
AcDbXrecord
280
     1
102
RTVSPropertyOp0
 70
     1
102
RTVSPropertyOp1
 70
     1
102
RTVSPropertyOp2
 70
     1
102
RTVSPropertyOp3
 70
     1
102
RTVSPropertyOp4
 70
     1
102
RTVSPropertyOp5
 70
     1
102
RTVSPropertyOp6
 70
     1
102
RTVSPropertyOp7
 70
     1
102
RTVSPropertyOp8
 70
     1
102
RTVSPropertyOp9
 70
     1
102
RTVSPropertyOp10
 70
     1
102
RTVSPropertyOp11
 70
     1
102
RTVSPropertyOp12
 70
     1
102
RTVSPropertyOp13
 70
     1
102
RTVSPropertyOp14
 70
     1
102
RTVSPropertyOp15
 70
     1
102
RTVSPropertyOp16
 70
     1
102
RTVSPropertyOp17
 70
     1
102
RTVSPropertyOp18
 70
     1
102
RTVSPropertyOp19
 70
     1
102
RTVSPropertyOp20
 70
     1
102
RTVSPropertyOp21
 70
     1
102
RTVSPropertyOp22
 70
     1
102
RTVSPropertyOp23
 70
     1
102
RTVSPropertyOp24
 70
     1
102
RTVSPropertyOp25
 70
     1
102
RTVSPropertyOp26
 70
     1
102
RTVSPropertyOp27
 70
     1
  0
XRECORD
  5
C7E
102
{ACAD_REACTORS
330
C7D
102
}
330
C7D
100
AcDbXrecord
280
     1
102
RTVSPropertyOp0
 70
     1
102
RTVSPropertyOp1
 70
     1
102
RTVSPropertyOp2
 70
     1
102
RTVSPropertyOp3
 70
     1
102
RTVSPropertyOp4
 70
     1
102
RTVSPropertyOp5
 70
     1
102
RTVSPropertyOp6
 70
     1
102
RTVSPropertyOp7
 70
     1
102
RTVSPropertyOp8
 70
     1
102
RTVSPropertyOp9
 70
     1
102
RTVSPropertyOp10
 70
     1
102
RTVSPropertyOp11
 70
     1
102
RTVSPropertyOp12
 70
     1
102
RTVSPropertyOp13
 70
     1
102
RTVSPropertyOp14
 70
     1
102
RTVSPropertyOp15
 70
     1
102
RTVSPropertyOp16
 70
     1
102
RTVSPropertyOp17
 70
     1
102
RTVSPropertyOp18
 70
     1
102
RTVSPropertyOp19
 70
     1
102
RTVSPropertyOp20
 70
     1
102
RTVSPropertyOp21
 70
     1
102
RTVSPropertyOp22
 70
     1
102
RTVSPropertyOp23
 70
     1
102
RTVSPropertyOp24
 70
     1
102
RTVSPropertyOp25
 70
     1
102
RTVSPropertyOp26
 70
     1
102
RTVSPropertyOp27
 70
     1
  0
XRECORD
  5
C86
102
{ACAD_REACTORS
330
C85
102
}
330
C85
100
AcDbXrecord
280
     1
102
RTVSPropertyOp0
 70
     1
102
RTVSPropertyOp1
 70
     1
102
RTVSPropertyOp2
 70
     1
102
RTVSPropertyOp3
 70
     1
102
RTVSPropertyOp4
 70
     1
102
RTVSPropertyOp5
 70
     1
102
RTVSPropertyOp6
 70
     1
102
RTVSPropertyOp7
 70
     1
102
RTVSPropertyOp8
 70
     1
102
RTVSPropertyOp9
 70
     1
102
RTVSPropertyOp10
 70
     1
102
RTVSPropertyOp11
 70
     1
102
RTVSPropertyOp12
 70
     1
102
RTVSPropertyOp13
 70
     1
102
RTVSPropertyOp14
 70
     1
102
RTVSPropertyOp15
 70
     1
102
RTVSPropertyOp16
 70
     1
102
RTVSPropertyOp17
 70
     1
102
RTVSPropertyOp18
 70
     1
102
RTVSPropertyOp19
 70
     1
102
RTVSPropertyOp20
 70
     1
102
RTVSPropertyOp21
 70
     1
102
RTVSPropertyOp22
 70
     1
102
RTVSPropertyOp23
 70
     1
102
RTVSPropertyOp24
 70
     1
102
RTVSPropertyOp25
 70
     1
102
RTVSPropertyOp26
 70
     1
102
RTVSPropertyOp27
 70
     1
  0
XRECORD
  5
C7A
102
{ACAD_REACTORS
330
C79
102
}
330
C79
100
AcDbXrecord
280
     1
102
RTVSPropertyOp0
 70
     1
102
RTVSPropertyOp1
 70
     1
102
RTVSPropertyOp2
 70
     1
102
RTVSPropertyOp3
 70
     1
102
RTVSPropertyOp4
 70
     1
102
RTVSPropertyOp5
 70
     1
102
RTVSPropertyOp6
 70
     1
102
RTVSPropertyOp7
 70
     1
102
RTVSPropertyOp8
 70
     1
102
RTVSPropertyOp9
 70
     1
102
RTVSPropertyOp10
 70
     1
102
RTVSPropertyOp11
 70
     1
102
RTVSPropertyOp12
 70
     1
102
RTVSPropertyOp13
 70
     1
102
RTVSPropertyOp14
 70
     1
102
RTVSPropertyOp15
 70
     1
102
RTVSPropertyOp16
 70
     1
102
RTVSPropertyOp17
 70
     1
102
RTVSPropertyOp18
 70
     1
102
RTVSPropertyOp19
 70
     1
102
RTVSPropertyOp20
 70
     1
102
RTVSPropertyOp21
 70
     1
102
RTVSPropertyOp22
 70
     1
102
RTVSPropertyOp23
 70
     1
102
RTVSPropertyOp24
 70
     1
102
RTVSPropertyOp25
 70
     1
102
RTVSPropertyOp26
 70
     1
102
RTVSPropertyOp27
 70
     1
  0
XRECORD
  5
C7C
102
{ACAD_REACTORS
330
C7B
102
}
330
C7B
100
AcDbXrecord
280
     1
102
RTVSPropertyOp0
 70
     1
102
RTVSPropertyOp1
 70
     1
102
RTVSPropertyOp2
 70
     1
102
RTVSPropertyOp3
 70
     1
102
RTVSPropertyOp4
 70
     1
102
RTVSPropertyOp5
 70
     1
102
RTVSPropertyOp6
 70
     1
102
RTVSPropertyOp7
 70
     1
102
RTVSPropertyOp8
 70
     1
102
RTVSPropertyOp9
 70
     1
102
RTVSPropertyOp10
 70
     1
102
RTVSPropertyOp11
 70
     1
102
RTVSPropertyOp12
 70
     1
102
RTVSPropertyOp13
 70
     1
102
RTVSPropertyOp14
 70
     1
102
RTVSPropertyOp15
 70
     1
102
RTVSPropertyOp16
 70
     1
102
RTVSPropertyOp17
 70
     1
102
RTVSPropertyOp18
 70
     1
102
RTVSPropertyOp19
 70
     1
102
RTVSPropertyOp20
 70
     1
102
RTVSPropertyOp21
 70
     1
102
RTVSPropertyOp22
 70
     1
102
RTVSPropertyOp23
 70
     1
102
RTVSPropertyOp24
 70
     1
102
RTVSPropertyOp25
 70
     1
102
RTVSPropertyOp26
 70
     1
102
RTVSPropertyOp27
 70
     1
  0
XRECORD
  5
C84
102
{ACAD_REACTORS
330
C83
102
}
330
C83
100
AcDbXrecord
280
     1
102
RTVSPropertyOp0
 70
     1
102
RTVSPropertyOp1
 70
     1
102
RTVSPropertyOp2
 70
     1
102
RTVSPropertyOp3
 70
     1
102
RTVSPropertyOp4
 70
     1
102
RTVSPropertyOp5
 70
     1
102
RTVSPropertyOp6
 70
     1
102
RTVSPropertyOp7
 70
     1
102
RTVSPropertyOp8
 70
     1
102
RTVSPropertyOp9
 70
     1
102
RTVSPropertyOp10
 70
     1
102
RTVSPropertyOp11
 70
     1
102
RTVSPropertyOp12
 70
     1
102
RTVSPropertyOp13
 70
     1
102
RTVSPropertyOp14
 70
     1
102
RTVSPropertyOp15
 70
     1
102
RTVSPropertyOp16
 70
     1
102
RTVSPropertyOp17
 70
     1
102
RTVSPropertyOp18
 70
     1
102
RTVSPropertyOp19
 70
     1
102
RTVSPropertyOp20
 70
     1
102
RTVSPropertyOp21
 70
     1
102
RTVSPropertyOp22
 70
     1
102
RTVSPropertyOp23
 70
     1
102
RTVSPropertyOp24
 70
     1
102
RTVSPropertyOp25
 70
     1
102
RTVSPropertyOp26
 70
     1
102
RTVSPropertyOp27
 70
     1
  0
XRECORD
  5
C68
102
{ACAD_REACTORS
330
C67
102
}
330
C67
100
AcDbXrecord
280
     1
102
RTVSPropertyOp0
 70
     1
102
RTVSPropertyOp1
 70
     1
102
RTVSPropertyOp2
 70
     1
102
RTVSPropertyOp3
 70
     1
102
RTVSPropertyOp4
 70
     1
102
RTVSPropertyOp5
 70
     1
102
RTVSPropertyOp6
 70
     1
102
RTVSPropertyOp7
 70
     1
102
RTVSPropertyOp8
 70
     1
102
RTVSPropertyOp9
 70
     1
102
RTVSPropertyOp10
 70
     1
102
RTVSPropertyOp11
 70
     1
102
RTVSPropertyOp12
 70
     1
102
RTVSPropertyOp13
 70
     1
102
RTVSPropertyOp14
 70
     1
102
RTVSPropertyOp15
 70
     1
102
RTVSPropertyOp16
 70
     1
102
RTVSPropertyOp17
 70
     1
102
RTVSPropertyOp18
 70
     1
102
RTVSPropertyOp19
 70
     1
102
RTVSPropertyOp20
 70
     1
102
RTVSPropertyOp21
 70
     1
102
RTVSPropertyOp22
 70
     1
102
RTVSPropertyOp23
 70
     1
102
RTVSPropertyOp24
 70
     1
102
RTVSPropertyOp25
 70
     1
102
RTVSPropertyOp26
 70
     1
102
RTVSPropertyOp27
 70
     1
  0
XRECORD
  5
C6A
102
{ACAD_REACTORS
330
C69
102
}
330
C69
100
AcDbXrecord
280
     1
102
RTVSPropertyOp0
 70
     1
102
RTVSPropertyOp1
 70
     1
102
RTVSPropertyOp2
 70
     1
102
RTVSPropertyOp3
 70
     1
102
RTVSPropertyOp4
 70
     1
102
RTVSPropertyOp5
 70
     1
102
RTVSPropertyOp6
 70
     1
102
RTVSPropertyOp7
 70
     1
102
RTVSPropertyOp8
 70
     1
102
RTVSPropertyOp9
 70
     1
102
RTVSPropertyOp10
 70
     1
102
RTVSPropertyOp11
 70
     1
102
RTVSPropertyOp12
 70
     1
102
RTVSPropertyOp13
 70
     1
102
RTVSPropertyOp14
 70
     1
102
RTVSPropertyOp15
 70
     1
102
RTVSPropertyOp16
 70
     1
102
RTVSPropertyOp17
 70
     1
102
RTVSPropertyOp18
 70
     1
102
RTVSPropertyOp19
 70
     1
102
RTVSPropertyOp20
 70
     1
102
RTVSPropertyOp21
 70
     1
102
RTVSPropertyOp22
 70
     1
102
RTVSPropertyOp23
 70
     1
102
RTVSPropertyOp24
 70
     1
102
RTVSPropertyOp25
 70
     1
102
RTVSPropertyOp26
 70
     1
102
RTVSPropertyOp27
 70
     1
  0
XRECORD
  5
C6C
102
{ACAD_REACTORS
330
C6B
102
}
330
C6B
100
AcDbXrecord
280
     1
102
RTVSPropertyOp0
 70
     1
102
RTVSPropertyOp1
 70
     1
102
RTVSPropertyOp2
 70
     1
102
RTVSPropertyOp3
 70
     1
102
RTVSPropertyOp4
 70
     1
102
RTVSPropertyOp5
 70
     1
102
RTVSPropertyOp6
 70
     1
102
RTVSPropertyOp7
 70
     1
102
RTVSPropertyOp8
 70
     1
102
RTVSPropertyOp9
 70
     1
102
RTVSPropertyOp10
 70
     1
102
RTVSPropertyOp11
 70
     1
102
RTVSPropertyOp12
 70
     1
102
RTVSPropertyOp13
 70
     1
102
RTVSPropertyOp14
 70
     1
102
RTVSPropertyOp15
 70
     1
102
RTVSPropertyOp16
 70
     1
102
RTVSPropertyOp17
 70
     1
102
RTVSPropertyOp18
 70
     1
102
RTVSPropertyOp19
 70
     1
102
RTVSPropertyOp20
 70
     1
102
RTVSPropertyOp21
 70
     1
102
RTVSPropertyOp22
 70
     1
102
RTVSPropertyOp23
 70
     1
102
RTVSPropertyOp24
 70
     1
102
RTVSPropertyOp25
 70
     1
102
RTVSPropertyOp26
 70
     1
102
RTVSPropertyOp27
 70
     1
  0
XRECORD
  5
C6E
102
{ACAD_REACTORS
330
C6D
102
}
330
C6D
100
AcDbXrecord
280
     1
102
RTVSPropertyOp0
 70
     1
102
RTVSPropertyOp1
 70
     1
102
RTVSPropertyOp2
 70
     1
102
RTVSPropertyOp3
 70
     1
102
RTVSPropertyOp4
 70
     1
102
RTVSPropertyOp5
 70
     1
102
RTVSPropertyOp6
 70
     1
102
RTVSPropertyOp7
 70
     1
102
RTVSPropertyOp8
 70
     1
102
RTVSPropertyOp9
 70
     1
102
RTVSPropertyOp10
 70
     1
102
RTVSPropertyOp11
 70
     1
102
RTVSPropertyOp12
 70
     1
102
RTVSPropertyOp13
 70
     1
102
RTVSPropertyOp14
 70
     1
102
RTVSPropertyOp15
 70
     1
102
RTVSPropertyOp16
 70
     1
102
RTVSPropertyOp17
 70
     1
102
RTVSPropertyOp18
 70
     1
102
RTVSPropertyOp19
 70
     1
102
RTVSPropertyOp20
 70
     1
102
RTVSPropertyOp21
 70
     1
102
RTVSPropertyOp22
 70
     1
102
RTVSPropertyOp23
 70
     1
102
RTVSPropertyOp24
 70
     1
102
RTVSPropertyOp25
 70
     1
102
RTVSPropertyOp26
 70
     1
102
RTVSPropertyOp27
 70
     1
  0
XRECORD
  5
C82
102
{ACAD_REACTORS
330
C81
102
}
330
C81
100
AcDbXrecord
280
     1
102
RTVSPropertyOp0
 70
     1
102
RTVSPropertyOp1
 70
     1
102
RTVSPropertyOp2
 70
     1
102
RTVSPropertyOp3
 70
     1
102
RTVSPropertyOp4
 70
     1
102
RTVSPropertyOp5
 70
     1
102
RTVSPropertyOp6
 70
     1
102
RTVSPropertyOp7
 70
     1
102
RTVSPropertyOp8
 70
     1
102
RTVSPropertyOp9
 70
     1
102
RTVSPropertyOp10
 70
     1
102
RTVSPropertyOp11
 70
     1
102
RTVSPropertyOp12
 70
     1
102
RTVSPropertyOp13
 70
     1
102
RTVSPropertyOp14
 70
     1
102
RTVSPropertyOp15
 70
     1
102
RTVSPropertyOp16
 70
     1
102
RTVSPropertyOp17
 70
     1
102
RTVSPropertyOp18
 70
     1
102
RTVSPropertyOp19
 70
     1
102
RTVSPropertyOp20
 70
     1
102
RTVSPropertyOp21
 70
     1
102
RTVSPropertyOp22
 70
     1
102
RTVSPropertyOp23
 70
     1
102
RTVSPropertyOp24
 70
     1
102
RTVSPropertyOp25
 70
     1
102
RTVSPropertyOp26
 70
     1
102
RTVSPropertyOp27
 70
     1
  0
XRECORD
  5
C78
102
{ACAD_REACTORS
330
C77
102
}
330
C77
100
AcDbXrecord
280
     1
102
RTVSPropertyOp0
 70
     1
102
RTVSPropertyOp1
 70
     1
102
RTVSPropertyOp2
 70
     1
102
RTVSPropertyOp3
 70
     1
102
RTVSPropertyOp4
 70
     1
102
RTVSPropertyOp5
 70
     1
102
RTVSPropertyOp6
 70
     1
102
RTVSPropertyOp7
 70
     1
102
RTVSPropertyOp8
 70
     1
102
RTVSPropertyOp9
 70
     1
102
RTVSPropertyOp10
 70
     1
102
RTVSPropertyOp11
 70
     1
102
RTVSPropertyOp12
 70
     1
102
RTVSPropertyOp13
 70
     1
102
RTVSPropertyOp14
 70
     1
102
RTVSPropertyOp15
 70
     1
102
RTVSPropertyOp16
 70
     1
102
RTVSPropertyOp17
 70
     1
102
RTVSPropertyOp18
 70
     1
102
RTVSPropertyOp19
 70
     1
102
RTVSPropertyOp20
 70
     1
102
RTVSPropertyOp21
 70
     1
102
RTVSPropertyOp22
 70
     1
102
RTVSPropertyOp23
 70
     1
102
RTVSPropertyOp24
 70
     1
102
RTVSPropertyOp25
 70
     1
102
RTVSPropertyOp26
 70
     1
102
RTVSPropertyOp27
 70
     1
  0
XRECORD
  5
C80
102
{ACAD_REACTORS
330
C7F
102
}
330
C7F
100
AcDbXrecord
280
     1
102
RTVSPropertyOp0
 70
     1
102
RTVSPropertyOp1
 70
     1
102
RTVSPropertyOp2
 70
     1
102
RTVSPropertyOp3
 70
     1
102
RTVSPropertyOp4
 70
     1
102
RTVSPropertyOp5
 70
     1
102
RTVSPropertyOp6
 70
     1
102
RTVSPropertyOp7
 70
     1
102
RTVSPropertyOp8
 70
     1
102
RTVSPropertyOp9
 70
     1
102
RTVSPropertyOp10
 70
     1
102
RTVSPropertyOp11
 70
     1
102
RTVSPropertyOp12
 70
     1
102
RTVSPropertyOp13
 70
     1
102
RTVSPropertyOp14
 70
     1
102
RTVSPropertyOp15
 70
     1
102
RTVSPropertyOp16
 70
     1
102
RTVSPropertyOp17
 70
     1
102
RTVSPropertyOp18
 70
     1
102
RTVSPropertyOp19
 70
     1
102
RTVSPropertyOp20
 70
     1
102
RTVSPropertyOp21
 70
     1
102
RTVSPropertyOp22
 70
     1
102
RTVSPropertyOp23
 70
     1
102
RTVSPropertyOp24
 70
     1
102
RTVSPropertyOp25
 70
     1
102
RTVSPropertyOp26
 70
     1
102
RTVSPropertyOp27
 70
     1
  0
ENDSEC
  0
EOF
