ISO-10303-21;
HEADER;
FILE_DESCRIPTION(('no description'),'unknown implementation level');
FILE_NAME('HFB4060-0900-Huellk.stp','  ',('CIMSOURCE GmbH'),('CADClick - KiM GmbH - www.kimweb.de'),'unknown preprocess','ACIS','unknown authorization');
FILE_SCHEMA(('automotive_design'));
ENDSEC;
DATA;
#1=MECHANICAL_DESIGN_GEOMETRIC_PRESENTATION_REPRESENTATION(' ',(#10,#11,#12,#13,#14,#15,#16,#17,#18,#19,#20,#21,#22,#23,#24,#25,#26,#27,#28,#29,#30,#31,#32,#33,#34,#35,#36,#37,#38,#39,#40,#41,#42,#43,#44,#45,#46,#47),#6);
#2=PRODUCT_DEFINITION_CONTEXT('',#48,'design');
#3=APPLICATION_PROTOCOL_DEFINITION('INTERNATIONAL STANDARD','automotive_design',1994,#48);
#4=PRODUCT_CATEGORY_RELATIONSHIP('NONE','NONE',#49,#50);
#5=SHAPE_DEFINITION_REPRESENTATION(#51,#52);
#6= (GEOMETRIC_REPRESENTATION_CONTEXT(3)GLOBAL_UNCERTAINTY_ASSIGNED_CONTEXT((#55))GLOBAL_UNIT_ASSIGNED_CONTEXT((#57,#58,#59))REPRESENTATION_CONTEXT('NONE','WORKSPACE'));
#10=STYLED_ITEM('',(#61),#62);
#11=STYLED_ITEM('',(#63),#64);
#12=STYLED_ITEM('',(#65),#66);
#13=STYLED_ITEM('',(#67),#68);
#14=STYLED_ITEM('',(#69),#70);
#15=STYLED_ITEM('',(#71),#72);
#16=STYLED_ITEM('',(#73),#74);
#17=STYLED_ITEM('',(#75),#76);
#18=STYLED_ITEM('',(#77),#78);
#19=STYLED_ITEM('',(#79),#80);
#20=STYLED_ITEM('',(#81),#82);
#21=STYLED_ITEM('',(#83),#84);
#22=STYLED_ITEM('',(#85),#86);
#23=STYLED_ITEM('',(#87),#88);
#24=STYLED_ITEM('',(#89),#90);
#25=STYLED_ITEM('',(#91),#92);
#26=STYLED_ITEM('',(#93),#94);
#27=STYLED_ITEM('',(#95),#96);
#28=STYLED_ITEM('',(#97),#98);
#29=STYLED_ITEM('',(#99),#100);
#30=STYLED_ITEM('',(#101),#102);
#31=STYLED_ITEM('',(#103),#104);
#32=STYLED_ITEM('',(#105),#106);
#33=STYLED_ITEM('',(#107),#108);
#34=STYLED_ITEM('',(#109),#110);
#35=STYLED_ITEM('',(#111),#112);
#36=STYLED_ITEM('',(#113),#114);
#37=STYLED_ITEM('',(#115),#116);
#38=STYLED_ITEM('',(#117),#118);
#39=STYLED_ITEM('',(#119),#120);
#40=STYLED_ITEM('',(#121),#122);
#41=STYLED_ITEM('',(#123),#124);
#42=STYLED_ITEM('',(#125),#126);
#43=STYLED_ITEM('',(#127),#128);
#44=STYLED_ITEM('',(#129),#130);
#45=STYLED_ITEM('',(#131),#132);
#46=STYLED_ITEM('',(#133),#134);
#47=STYLED_ITEM('',(#135),#136);
#48=APPLICATION_CONTEXT(' ');
#49=PRODUCT_CATEGORY('part','NONE');
#50=PRODUCT_RELATED_PRODUCT_CATEGORY('detail',' ',(#137));
#51=PRODUCT_DEFINITION_SHAPE('NONE','NONE',#138);
#52=ADVANCED_BREP_SHAPE_REPRESENTATION('1',(#108,#139),#6);
#55=UNCERTAINTY_MEASURE_WITH_UNIT(LENGTH_MEASURE(1.0E-006),#57,'','');
#57= (CONVERSION_BASED_UNIT('MILLIMETRE',#142)LENGTH_UNIT()NAMED_UNIT(#145));
#58= (NAMED_UNIT(#147)PLANE_ANGLE_UNIT()SI_UNIT($,.RADIAN.));
#59= (NAMED_UNIT(#147)SOLID_ANGLE_UNIT()SI_UNIT($,.STERADIAN.));
#61=PRESENTATION_STYLE_ASSIGNMENT((#153));
#62=ADVANCED_FACE('',(#154),#155,.T.);
#63=PRESENTATION_STYLE_ASSIGNMENT((#156));
#64=VERTEX_POINT('',#157);
#65=PRESENTATION_STYLE_ASSIGNMENT((#158));
#66=VERTEX_POINT('',#159);
#67=PRESENTATION_STYLE_ASSIGNMENT((#160));
#68=EDGE_CURVE('',#78,#66,#161,.T.);
#69=PRESENTATION_STYLE_ASSIGNMENT((#162));
#70=ADVANCED_FACE('',(#163,#164),#165,.T.);
#71=PRESENTATION_STYLE_ASSIGNMENT((#166));
#72=VERTEX_POINT('',#167);
#73=PRESENTATION_STYLE_ASSIGNMENT((#168));
#74=EDGE_CURVE('',#66,#64,#169,.T.);
#75=PRESENTATION_STYLE_ASSIGNMENT((#170));
#76=ADVANCED_FACE('',(#171),#172,.T.);
#77=PRESENTATION_STYLE_ASSIGNMENT((#173));
#78=VERTEX_POINT('',#174);
#79=PRESENTATION_STYLE_ASSIGNMENT((#175));
#80=EDGE_CURVE('',#110,#136,#176,.T.);
#81=PRESENTATION_STYLE_ASSIGNMENT((#177));
#82=EDGE_CURVE('',#104,#114,#178,.T.);
#83=PRESENTATION_STYLE_ASSIGNMENT((#179));
#84=EDGE_CURVE('',#104,#122,#180,.T.);
#85=PRESENTATION_STYLE_ASSIGNMENT((#181));
#86=EDGE_CURVE('',#64,#122,#182,.T.);
#87=PRESENTATION_STYLE_ASSIGNMENT((#183));
#88=EDGE_CURVE('',#122,#104,#184,.T.);
#89=PRESENTATION_STYLE_ASSIGNMENT((#185));
#90=EDGE_CURVE('',#72,#136,#186,.T.);
#91=PRESENTATION_STYLE_ASSIGNMENT((#187));
#92=EDGE_CURVE('',#136,#110,#188,.T.);
#93=PRESENTATION_STYLE_ASSIGNMENT((#189));
#94=ADVANCED_FACE('',(#190),#191,.T.);
#95=PRESENTATION_STYLE_ASSIGNMENT((#192));
#96=EDGE_CURVE('',#114,#64,#193,.T.);
#97=PRESENTATION_STYLE_ASSIGNMENT((#194));
#98=ADVANCED_FACE('',(#195),#196,.T.);
#99=PRESENTATION_STYLE_ASSIGNMENT((#197));
#100=ADVANCED_FACE('',(#198),#199,.T.);
#101=PRESENTATION_STYLE_ASSIGNMENT((#200));
#102=EDGE_CURVE('',#72,#126,#201,.T.);
#103=PRESENTATION_STYLE_ASSIGNMENT((#202));
#104=VERTEX_POINT('',#203);
#105=PRESENTATION_STYLE_ASSIGNMENT((#204));
#106=EDGE_CURVE('',#126,#72,#205,.T.);
#107=PRESENTATION_STYLE_ASSIGNMENT((#206));
#108=MANIFOLD_SOLID_BREP('1',#207);
#109=PRESENTATION_STYLE_ASSIGNMENT((#208));
#110=VERTEX_POINT('',#209);
#111=PRESENTATION_STYLE_ASSIGNMENT((#210));
#112=ADVANCED_FACE('',(#211),#212,.T.);
#113=PRESENTATION_STYLE_ASSIGNMENT((#213));
#114=VERTEX_POINT('',#214);
#115=PRESENTATION_STYLE_ASSIGNMENT((#215));
#116=EDGE_CURVE('',#114,#78,#216,.T.);
#117=PRESENTATION_STYLE_ASSIGNMENT((#217));
#118=EDGE_CURVE('',#66,#78,#218,.T.);
#119=PRESENTATION_STYLE_ASSIGNMENT((#219));
#120=ADVANCED_FACE('',(#220),#221,.T.);
#121=PRESENTATION_STYLE_ASSIGNMENT((#222));
#122=VERTEX_POINT('',#223);
#123=PRESENTATION_STYLE_ASSIGNMENT((#224));
#124=ADVANCED_FACE('',(#225),#226,.T.);
#125=PRESENTATION_STYLE_ASSIGNMENT((#227));
#126=VERTEX_POINT('',#228);
#127=PRESENTATION_STYLE_ASSIGNMENT((#229));
#128=EDGE_CURVE('',#110,#126,#230,.T.);
#129=PRESENTATION_STYLE_ASSIGNMENT((#231));
#130=ADVANCED_FACE('',(#232),#233,.T.);
#131=PRESENTATION_STYLE_ASSIGNMENT((#234));
#132=EDGE_CURVE('',#110,#136,#235,.T.);
#133=PRESENTATION_STYLE_ASSIGNMENT((#236));
#134=EDGE_CURVE('',#64,#114,#237,.T.);
#135=PRESENTATION_STYLE_ASSIGNMENT((#238));
#136=VERTEX_POINT('',#239);
#137=PRODUCT('1','1','PART-1-DESC',(#240));
#138=PRODUCT_DEFINITION('NONE','NONE',#241,#2);
#139=AXIS2_PLACEMENT_3D('',#242,#243,#244);
#142=LENGTH_MEASURE_WITH_UNIT(LENGTH_MEASURE(1.0),#245);
#145=DIMENSIONAL_EXPONENTS(1.0,0.0,0.0,0.0,0.0,0.0,0.0);
#147=DIMENSIONAL_EXPONENTS(0.0,0.0,0.0,0.0,0.0,0.0,0.0);
#153=SURFACE_STYLE_USAGE(.BOTH.,#246);
#154=FACE_OUTER_BOUND('',#247,.T.);
#155=CYLINDRICAL_SURFACE('',#248,3.0);
#156=POINT_STYLE(' ',#249,POSITIVE_LENGTH_MEASURE(1.0E-006),#250);
#157=CARTESIAN_POINT('',(3.67381906146713E-016,-3.0,-0.400000000000006));
#158=POINT_STYLE(' ',#251,POSITIVE_LENGTH_MEASURE(1.0E-006),#252);
#159=CARTESIAN_POINT('',(3.67381906146713E-016,-3.0,-71.0));
#160=CURVE_STYLE('',#253,POSITIVE_LENGTH_MEASURE(1.0E-006),#254);
#161=CIRCLE('',#255,3.0);
#162=SURFACE_STYLE_USAGE(.BOTH.,#256);
#163=FACE_OUTER_BOUND('',#257,.T.);
#164=FACE_BOUND('',#258,.T.);
#165=PLANE('',#259);
#166=POINT_STYLE(' ',#260,POSITIVE_LENGTH_MEASURE(1.0E-006),#261);
#167=CARTESIAN_POINT('',(0.0,2.9999,-71.0));
#168=CURVE_STYLE('',#262,POSITIVE_LENGTH_MEASURE(1.0E-006),#263);
#169=LINE('',#264,#265);
#170=SURFACE_STYLE_USAGE(.BOTH.,#266);
#171=FACE_OUTER_BOUND('',#267,.T.);
#172=SPHERICAL_SURFACE('',#268,3.00000000000001);
#173=POINT_STYLE(' ',#269,POSITIVE_LENGTH_MEASURE(1.0E-006),#270);
#174=CARTESIAN_POINT('',(0.0,3.0,-71.0));
#175=CURVE_STYLE('',#271,POSITIVE_LENGTH_MEASURE(1.0E-006),#272);
#176=CIRCLE('',#273,3.00000000000001);
#177=CURVE_STYLE('',#274,POSITIVE_LENGTH_MEASURE(1.0E-006),#275);
#178=LINE('',#276,#277);
#179=CURVE_STYLE('',#278,POSITIVE_LENGTH_MEASURE(1.0E-006),#279);
#180=CIRCLE('',#280,2.6);
#181=CURVE_STYLE('',#281,POSITIVE_LENGTH_MEASURE(1.0E-006),#282);
#182=LINE('',#283,#284);
#183=CURVE_STYLE('',#285,POSITIVE_LENGTH_MEASURE(1.0E-006),#286);
#184=CIRCLE('',#287,2.6);
#185=CURVE_STYLE('',#288,POSITIVE_LENGTH_MEASURE(1.0E-006),#289);
#186=LINE('',#290,#291);
#187=CURVE_STYLE('',#292,POSITIVE_LENGTH_MEASURE(1.0E-006),#293);
#188=CIRCLE('',#294,3.0);
#189=SURFACE_STYLE_USAGE(.BOTH.,#295);
#190=FACE_OUTER_BOUND('',#296,.T.);
#191=CONICAL_SURFACE('',#297,2.8,0.785398163397441);
#192=CURVE_STYLE('',#298,POSITIVE_LENGTH_MEASURE(1.0E-006),#299);
#193=CIRCLE('',#300,3.0);
#194=SURFACE_STYLE_USAGE(.BOTH.,#301);
#195=FACE_OUTER_BOUND('',#302,.T.);
#196=CONICAL_SURFACE('',#303,2.99995,1.66666666652326E-005);
#197=SURFACE_STYLE_USAGE(.BOTH.,#304);
#198=FACE_OUTER_BOUND('',#305,.T.);
#199=PLANE('',#306);
#200=CURVE_STYLE('',#307,POSITIVE_LENGTH_MEASURE(1.0E-006),#308);
#201=CIRCLE('',#309,2.9999);
#202=POINT_STYLE(' ',#310,POSITIVE_LENGTH_MEASURE(1.0E-006),#311);
#203=CARTESIAN_POINT('',(0.0,2.6,0.0));
#204=CURVE_STYLE('',#312,POSITIVE_LENGTH_MEASURE(1.0E-006),#313);
#205=CIRCLE('',#314,2.9999);
#206=SURFACE_STYLE_USAGE(.BOTH.,#315);
#207=CLOSED_SHELL('',(#76,#98,#62,#94,#70,#100,#124,#130,#112,#120));
#208=POINT_STYLE(' ',#316,POSITIVE_LENGTH_MEASURE(1.0E-006),#317);
#209=CARTESIAN_POINT('',(3.67381906146713E-016,-3.0,-77.0));
#210=SURFACE_STYLE_USAGE(.BOTH.,#318);
#211=FACE_OUTER_BOUND('',#319,.T.);
#212=CONICAL_SURFACE('',#320,2.99995,1.66666666652326E-005);
#213=POINT_STYLE(' ',#321,POSITIVE_LENGTH_MEASURE(1.0E-006),#322);
#214=CARTESIAN_POINT('',(0.0,3.0,-0.400000000000006));
#215=CURVE_STYLE('',#323,POSITIVE_LENGTH_MEASURE(1.0E-006),#324);
#216=LINE('',#325,#326);
#217=CURVE_STYLE('',#327,POSITIVE_LENGTH_MEASURE(1.0E-006),#328);
#218=CIRCLE('',#329,3.0);
#219=SURFACE_STYLE_USAGE(.BOTH.,#330);
#220=FACE_OUTER_BOUND('',#331,.T.);
#221=SPHERICAL_SURFACE('',#332,3.00000000000001);
#222=POINT_STYLE(' ',#333,POSITIVE_LENGTH_MEASURE(1.0E-006),#334);
#223=CARTESIAN_POINT('',(3.18397651993818E-016,-2.6,0.0));
#224=SURFACE_STYLE_USAGE(.BOTH.,#335);
#225=FACE_OUTER_BOUND('',#336,.T.);
#226=CONICAL_SURFACE('',#337,2.8,0.785398163397441);
#227=POINT_STYLE(' ',#338,POSITIVE_LENGTH_MEASURE(1.0E-006),#339);
#228=CARTESIAN_POINT('',(3.67369660083175E-016,-2.9999,-71.0));
#229=CURVE_STYLE('',#340,POSITIVE_LENGTH_MEASURE(1.0E-006),#341);
#230=LINE('',#342,#343);
#231=SURFACE_STYLE_USAGE(.BOTH.,#344);
#232=FACE_OUTER_BOUND('',#345,.T.);
#233=CYLINDRICAL_SURFACE('',#346,3.0);
#234=CURVE_STYLE('',#347,POSITIVE_LENGTH_MEASURE(1.0E-006),#348);
#235=CIRCLE('',#349,3.0);
#236=CURVE_STYLE('',#350,POSITIVE_LENGTH_MEASURE(1.0E-006),#351);
#237=CIRCLE('',#352,3.0);
#238=POINT_STYLE(' ',#353,POSITIVE_LENGTH_MEASURE(1.0E-006),#354);
#239=CARTESIAN_POINT('',(0.0,3.0,-77.0));
#240=PRODUCT_CONTEXT('',#48,'mechanical');
#241=PRODUCT_DEFINITION_FORMATION_WITH_SPECIFIED_SOURCE(' ','NONE',#137,.NOT_KNOWN.);
#242=CARTESIAN_POINT('',(0.0,0.0,0.0));
#243=DIRECTION('',(0.0,0.0,1.0));
#244=DIRECTION('',(1.0,0.0,0.0));
#245= (NAMED_UNIT(#145)LENGTH_UNIT()SI_UNIT(.MILLI.,.METRE.));
#246=SURFACE_SIDE_STYLE('',(#356));
#247=EDGE_LOOP('',(#357,#358,#359,#360));
#248=AXIS2_PLACEMENT_3D('',#361,#362,#363);
#249=PRE_DEFINED_MARKER('');
#250=COLOUR_RGB('',0.498039215803146,0.498039215803146,0.498039215803146);
#251=PRE_DEFINED_MARKER('');
#252=COLOUR_RGB('',0.498039215803146,0.498039215803146,0.498039215803146);
#253=DRAUGHTING_PRE_DEFINED_CURVE_FONT('continuous');
#254=COLOUR_RGB('',0.498039215803146,0.498039215803146,0.498039215803146);
#255=AXIS2_PLACEMENT_3D('',#364,#365,#366);
#256=SURFACE_SIDE_STYLE('',(#367));
#257=EDGE_LOOP('',(#368,#369));
#258=EDGE_LOOP('',(#370,#371));
#259=AXIS2_PLACEMENT_3D('',#372,#373,#374);
#260=PRE_DEFINED_MARKER('');
#261=COLOUR_RGB('',0.800000011920929,0.800000011920929,0.800000011920929);
#262=DRAUGHTING_PRE_DEFINED_CURVE_FONT('continuous');
#263=COLOUR_RGB('',0.498039215803146,0.498039215803146,0.498039215803146);
#264=CARTESIAN_POINT('',(3.67381906146713E-016,-3.0,-35.7));
#265=VECTOR('',#375,1.0);
#266=SURFACE_SIDE_STYLE('',(#376));
#267=EDGE_LOOP('',(#377,#378));
#268=AXIS2_PLACEMENT_3D('',#379,#380,#381);
#269=PRE_DEFINED_MARKER('');
#270=COLOUR_RGB('',0.498039215803146,0.498039215803146,0.498039215803146);
#271=DRAUGHTING_PRE_DEFINED_CURVE_FONT('continuous');
#272=COLOUR_RGB('',0.800000011920929,0.800000011920929,0.800000011920929);
#273=AXIS2_PLACEMENT_3D('',#382,#383,#384);
#274=DRAUGHTING_PRE_DEFINED_CURVE_FONT('continuous');
#275=COLOUR_RGB('',0.498039215803146,0.498039215803146,0.498039215803146);
#276=CARTESIAN_POINT('',(-3.42889779070266E-016,2.8,-0.200000000000003));
#277=VECTOR('',#385,1.0);
#278=DRAUGHTING_PRE_DEFINED_CURVE_FONT('continuous');
#279=COLOUR_RGB('',0.498039215803146,0.498039215803146,0.498039215803146);
#280=AXIS2_PLACEMENT_3D('',#386,#387,#388);
#281=DRAUGHTING_PRE_DEFINED_CURVE_FONT('continuous');
#282=COLOUR_RGB('',0.498039215803146,0.498039215803146,0.498039215803146);
#283=CARTESIAN_POINT('',(3.42889779070266E-016,-2.8,-0.200000000000003));
#284=VECTOR('',#389,1.0);
#285=DRAUGHTING_PRE_DEFINED_CURVE_FONT('continuous');
#286=COLOUR_RGB('',0.498039215803146,0.498039215803146,0.498039215803146);
#287=AXIS2_PLACEMENT_3D('',#390,#391,#392);
#288=DRAUGHTING_PRE_DEFINED_CURVE_FONT('continuous');
#289=COLOUR_RGB('',0.800000011920929,0.800000011920929,0.800000011920929);
#290=CARTESIAN_POINT('',(-3.67375783114944E-016,2.99995,-74.0));
#291=VECTOR('',#393,1.0);
#292=DRAUGHTING_PRE_DEFINED_CURVE_FONT('continuous');
#293=COLOUR_RGB('',0.800000011920929,0.800000011920929,0.800000011920929);
#294=AXIS2_PLACEMENT_3D('',#394,#395,#396);
#295=SURFACE_SIDE_STYLE('',(#397));
#296=EDGE_LOOP('',(#398,#399,#400,#401));
#297=AXIS2_PLACEMENT_3D('',#402,#403,#404);
#298=DRAUGHTING_PRE_DEFINED_CURVE_FONT('continuous');
#299=COLOUR_RGB('',0.498039215803146,0.498039215803146,0.498039215803146);
#300=AXIS2_PLACEMENT_3D('',#405,#406,#407);
#301=SURFACE_SIDE_STYLE('',(#408));
#302=EDGE_LOOP('',(#409,#410,#411,#412));
#303=AXIS2_PLACEMENT_3D('',#413,#414,#415);
#304=SURFACE_SIDE_STYLE('',(#416));
#305=EDGE_LOOP('',(#417,#418));
#306=AXIS2_PLACEMENT_3D('',#419,#420,#421);
#307=DRAUGHTING_PRE_DEFINED_CURVE_FONT('continuous');
#308=COLOUR_RGB('',0.800000011920929,0.800000011920929,0.800000011920929);
#309=AXIS2_PLACEMENT_3D('',#422,#423,#424);
#310=PRE_DEFINED_MARKER('');
#311=COLOUR_RGB('',0.498039215803146,0.498039215803146,0.498039215803146);
#312=DRAUGHTING_PRE_DEFINED_CURVE_FONT('continuous');
#313=COLOUR_RGB('',0.800000011920929,0.800000011920929,0.800000011920929);
#314=AXIS2_PLACEMENT_3D('',#425,#426,#427);
#315=SURFACE_SIDE_STYLE('',(#428));
#316=PRE_DEFINED_MARKER('');
#317=COLOUR_RGB('',0.800000011920929,0.800000011920929,0.800000011920929);
#318=SURFACE_SIDE_STYLE('',(#429));
#319=EDGE_LOOP('',(#430,#431,#432,#433));
#320=AXIS2_PLACEMENT_3D('',#434,#435,#436);
#321=PRE_DEFINED_MARKER('');
#322=COLOUR_RGB('',0.498039215803146,0.498039215803146,0.498039215803146);
#323=DRAUGHTING_PRE_DEFINED_CURVE_FONT('continuous');
#324=COLOUR_RGB('',0.498039215803146,0.498039215803146,0.498039215803146);
#325=CARTESIAN_POINT('',(-3.67381906146713E-016,3.0,-35.7));
#326=VECTOR('',#437,1.0);
#327=DRAUGHTING_PRE_DEFINED_CURVE_FONT('continuous');
#328=COLOUR_RGB('',0.498039215803146,0.498039215803146,0.498039215803146);
#329=AXIS2_PLACEMENT_3D('',#438,#439,#440);
#330=SURFACE_SIDE_STYLE('',(#441));
#331=EDGE_LOOP('',(#442,#443));
#332=AXIS2_PLACEMENT_3D('',#444,#445,#446);
#333=PRE_DEFINED_MARKER('');
#334=COLOUR_RGB('',0.498039215803146,0.498039215803146,0.498039215803146);
#335=SURFACE_SIDE_STYLE('',(#447));
#336=EDGE_LOOP('',(#448,#449,#450,#451));
#337=AXIS2_PLACEMENT_3D('',#452,#453,#454);
#338=PRE_DEFINED_MARKER('');
#339=COLOUR_RGB('',0.800000011920929,0.800000011920929,0.800000011920929);
#340=DRAUGHTING_PRE_DEFINED_CURVE_FONT('continuous');
#341=COLOUR_RGB('',0.800000011920929,0.800000011920929,0.800000011920929);
#342=CARTESIAN_POINT('',(3.67375783114944E-016,-2.99995,-74.0));
#343=VECTOR('',#455,1.0);
#344=SURFACE_SIDE_STYLE('',(#456));
#345=EDGE_LOOP('',(#457,#458,#459,#460));
#346=AXIS2_PLACEMENT_3D('',#461,#462,#463);
#347=DRAUGHTING_PRE_DEFINED_CURVE_FONT('continuous');
#348=COLOUR_RGB('',0.800000011920929,0.800000011920929,0.800000011920929);
#349=AXIS2_PLACEMENT_3D('',#464,#465,#466);
#350=DRAUGHTING_PRE_DEFINED_CURVE_FONT('continuous');
#351=COLOUR_RGB('',0.498039215803146,0.498039215803146,0.498039215803146);
#352=AXIS2_PLACEMENT_3D('',#467,#468,#469);
#353=PRE_DEFINED_MARKER('');
#354=COLOUR_RGB('',0.800000011920929,0.800000011920929,0.800000011920929);
#356=SURFACE_STYLE_FILL_AREA(#470);
#357=ORIENTED_EDGE('',*,*,#116,.F.);
#358=ORIENTED_EDGE('',*,*,#96,.T.);
#359=ORIENTED_EDGE('',*,*,#74,.F.);
#360=ORIENTED_EDGE('',*,*,#68,.F.);
#361=CARTESIAN_POINT('',(0.0,0.0,-35.7));
#362=DIRECTION('',(-0.0,-0.0,1.0));
#363=DIRECTION('',(0.0,1.0,0.0));
#364=CARTESIAN_POINT('',(0.0,0.0,-71.0));
#365=DIRECTION('',(0.0,0.0,-1.0));
#366=DIRECTION('',(0.0,1.0,0.0));
#367=SURFACE_STYLE_FILL_AREA(#471);
#368=ORIENTED_EDGE('',*,*,#68,.T.);
#369=ORIENTED_EDGE('',*,*,#118,.T.);
#370=ORIENTED_EDGE('',*,*,#102,.F.);
#371=ORIENTED_EDGE('',*,*,#106,.F.);
#372=CARTESIAN_POINT('',(0.0,1.5,-71.0));
#373=DIRECTION('',(0.0,0.0,-1.0));
#374=DIRECTION('',(0.0,1.0,0.0));
#375=DIRECTION('',(-0.0,-0.0,1.0));
#376=SURFACE_STYLE_FILL_AREA(#472);
#377=ORIENTED_EDGE('',*,*,#80,.F.);
#378=ORIENTED_EDGE('',*,*,#132,.T.);
#379=CARTESIAN_POINT('',(0.0,0.0,-77.0));
#380=DIRECTION('',(0.0,1.0,0.0));
#381=DIRECTION('',(0.0,0.0,-1.0));
#382=CARTESIAN_POINT('',(0.0,0.0,-77.0));
#383=DIRECTION('',(1.0,0.0,1.22460635382238E-016));
#384=DIRECTION('',(-1.22460635382238E-016,0.0,1.0));
#385=DIRECTION('',(-8.65927457071929E-017,0.707106781186542,-0.707106781186553));
#386=CARTESIAN_POINT('',(0.0,0.0,0.0));
#387=DIRECTION('',(0.0,0.0,-1.0));
#388=DIRECTION('',(0.0,1.0,0.0));
#389=DIRECTION('',(-8.65927457071929E-017,0.707106781186542,0.707106781186553));
#390=CARTESIAN_POINT('',(0.0,0.0,0.0));
#391=DIRECTION('',(0.0,0.0,-1.0));
#392=DIRECTION('',(0.0,1.0,0.0));
#393=DIRECTION('',(-2.04101058943386E-021,1.6666666664461E-005,-0.999999999861111));
#394=CARTESIAN_POINT('',(0.0,0.0,-77.0));
#395=DIRECTION('',(0.0,0.0,-1.0));
#396=DIRECTION('',(0.0,1.0,0.0));
#397=SURFACE_STYLE_FILL_AREA(#473);
#398=ORIENTED_EDGE('',*,*,#82,.F.);
#399=ORIENTED_EDGE('',*,*,#84,.T.);
#400=ORIENTED_EDGE('',*,*,#86,.F.);
#401=ORIENTED_EDGE('',*,*,#96,.F.);
#402=CARTESIAN_POINT('',(0.0,0.0,-0.200000000000003));
#403=DIRECTION('',(0.0,-0.0,-1.0));
#404=DIRECTION('',(0.0,1.0,0.0));
#405=CARTESIAN_POINT('',(0.0,0.0,-0.400000000000006));
#406=DIRECTION('',(0.0,0.0,-1.0));
#407=DIRECTION('',(0.0,1.0,0.0));
#408=SURFACE_STYLE_FILL_AREA(#474);
#409=ORIENTED_EDGE('',*,*,#90,.F.);
#410=ORIENTED_EDGE('',*,*,#102,.T.);
#411=ORIENTED_EDGE('',*,*,#128,.F.);
#412=ORIENTED_EDGE('',*,*,#92,.F.);
#413=CARTESIAN_POINT('',(0.0,0.0,-74.0));
#414=DIRECTION('',(0.0,-0.0,-1.0));
#415=DIRECTION('',(0.0,1.0,0.0));
#416=SURFACE_STYLE_FILL_AREA(#475);
#417=ORIENTED_EDGE('',*,*,#84,.F.);
#418=ORIENTED_EDGE('',*,*,#88,.F.);
#419=CARTESIAN_POINT('',(0.0,1.3,0.0));
#420=DIRECTION('',(-0.0,0.0,1.0));
#421=DIRECTION('',(0.0,-1.0,0.0));
#422=CARTESIAN_POINT('',(0.0,0.0,-71.0));
#423=DIRECTION('',(0.0,0.0,-1.0));
#424=DIRECTION('',(0.0,1.0,0.0));
#425=CARTESIAN_POINT('',(0.0,0.0,-71.0));
#426=DIRECTION('',(0.0,0.0,-1.0));
#427=DIRECTION('',(0.0,1.0,0.0));
#428=SURFACE_STYLE_FILL_AREA(#476);
#429=SURFACE_STYLE_FILL_AREA(#477);
#430=ORIENTED_EDGE('',*,*,#90,.T.);
#431=ORIENTED_EDGE('',*,*,#132,.F.);
#432=ORIENTED_EDGE('',*,*,#128,.T.);
#433=ORIENTED_EDGE('',*,*,#106,.T.);
#434=CARTESIAN_POINT('',(0.0,0.0,-74.0));
#435=DIRECTION('',(0.0,-0.0,-1.0));
#436=DIRECTION('',(0.0,1.0,0.0));
#437=DIRECTION('',(0.0,0.0,-1.0));
#438=CARTESIAN_POINT('',(0.0,0.0,-71.0));
#439=DIRECTION('',(0.0,0.0,-1.0));
#440=DIRECTION('',(0.0,1.0,0.0));
#441=SURFACE_STYLE_FILL_AREA(#478);
#442=ORIENTED_EDGE('',*,*,#80,.T.);
#443=ORIENTED_EDGE('',*,*,#92,.T.);
#444=CARTESIAN_POINT('',(0.0,0.0,-77.0));
#445=DIRECTION('',(0.0,1.0,0.0));
#446=DIRECTION('',(0.0,0.0,-1.0));
#447=SURFACE_STYLE_FILL_AREA(#479);
#448=ORIENTED_EDGE('',*,*,#82,.T.);
#449=ORIENTED_EDGE('',*,*,#134,.F.);
#450=ORIENTED_EDGE('',*,*,#86,.T.);
#451=ORIENTED_EDGE('',*,*,#88,.T.);
#452=CARTESIAN_POINT('',(0.0,0.0,-0.200000000000003));
#453=DIRECTION('',(0.0,-0.0,-1.0));
#454=DIRECTION('',(0.0,1.0,0.0));
#455=DIRECTION('',(-2.04101058943386E-021,1.6666666664461E-005,0.999999999861111));
#456=SURFACE_STYLE_FILL_AREA(#480);
#457=ORIENTED_EDGE('',*,*,#116,.T.);
#458=ORIENTED_EDGE('',*,*,#118,.F.);
#459=ORIENTED_EDGE('',*,*,#74,.T.);
#460=ORIENTED_EDGE('',*,*,#134,.T.);
#461=CARTESIAN_POINT('',(0.0,0.0,-35.7));
#462=DIRECTION('',(-0.0,-0.0,1.0));
#463=DIRECTION('',(0.0,1.0,0.0));
#464=CARTESIAN_POINT('',(0.0,0.0,-77.0));
#465=DIRECTION('',(0.0,0.0,-1.0));
#466=DIRECTION('',(0.0,1.0,0.0));
#467=CARTESIAN_POINT('',(0.0,0.0,-0.400000000000006));
#468=DIRECTION('',(0.0,0.0,-1.0));
#469=DIRECTION('',(0.0,1.0,0.0));
#470=FILL_AREA_STYLE('',(#481));
#471=FILL_AREA_STYLE('',(#482));
#472=FILL_AREA_STYLE('',(#483));
#473=FILL_AREA_STYLE('',(#484));
#474=FILL_AREA_STYLE('',(#485));
#475=FILL_AREA_STYLE('',(#486));
#476=FILL_AREA_STYLE('',(#487));
#477=FILL_AREA_STYLE('',(#488));
#478=FILL_AREA_STYLE('',(#489));
#479=FILL_AREA_STYLE('',(#490));
#480=FILL_AREA_STYLE('',(#491));
#481=FILL_AREA_STYLE_COLOUR('',#492);
#482=FILL_AREA_STYLE_COLOUR('',#493);
#483=FILL_AREA_STYLE_COLOUR('',#494);
#484=FILL_AREA_STYLE_COLOUR('',#495);
#485=FILL_AREA_STYLE_COLOUR('',#496);
#486=FILL_AREA_STYLE_COLOUR('',#497);
#487=FILL_AREA_STYLE_COLOUR('',#498);
#488=FILL_AREA_STYLE_COLOUR('',#499);
#489=FILL_AREA_STYLE_COLOUR('',#500);
#490=FILL_AREA_STYLE_COLOUR('',#501);
#491=FILL_AREA_STYLE_COLOUR('',#502);
#492=COLOUR_RGB('',0.498039215803146,0.498039215803146,0.498039215803146);
#493=COLOUR_RGB('',0.498039215803146,0.498039215803146,0.498039215803146);
#494=COLOUR_RGB('',0.800000011920929,0.800000011920929,0.800000011920929);
#495=COLOUR_RGB('',0.498039215803146,0.498039215803146,0.498039215803146);
#496=COLOUR_RGB('',0.800000011920929,0.800000011920929,0.800000011920929);
#497=COLOUR_RGB('',0.498039215803146,0.498039215803146,0.498039215803146);
#498=COLOUR_RGB('',0.800000011920929,0.800000011920929,0.800000011920929);
#499=COLOUR_RGB('',0.800000011920929,0.800000011920929,0.800000011920929);
#500=COLOUR_RGB('',0.800000011920929,0.800000011920929,0.800000011920929);
#501=COLOUR_RGB('',0.498039215803146,0.498039215803146,0.498039215803146);
#502=COLOUR_RGB('',0.498039215803146,0.498039215803146,0.498039215803146);
#503=AXIS2_PLACEMENT_3D('PCS',#504,#505,#506);
#504=CARTESIAN_POINT('',(0.0,0.0,0.0));
#505=DIRECTION('',(0.0,0.0,1.0));
#506=DIRECTION('',(1.0,0.0,0.0));
#507=AXIS2_PLACEMENT_3D('CIP',#508,#509,#510);
#508=CARTESIAN_POINT('',(0.0,0.0,-80.0));
#509=DIRECTION('',(0.0,0.0,1.0));
#510=DIRECTION('',(1.0,0.0,0.0));
#511=AXIS2_PLACEMENT_3D('CRP',#512,#513,#514);
#512=CARTESIAN_POINT('',(-3.0,0.0,-80.0));
#513=DIRECTION('',(0.0,0.0,1.0));
#514=DIRECTION('',(1.0,0.0,0.0));
#515=AXIS2_PLACEMENT_3D('MCS',#516,#517,#518);
#516=CARTESIAN_POINT('',(0.0,0.0,-71.0));
#517=DIRECTION('',(0.0,0.0,1.0));
#518=DIRECTION('',(1.0,0.0,0.0));
#519=CONSTRUCTIVE_GEOMETRY_REPRESENTATION_RELATIONSHIP('coordinate systems',$,#52,#520);
#520=CONSTRUCTIVE_GEOMETRY_REPRESENTATION('coordinate systems',(#503,#507,#511,#515),#6);
ENDSEC;
END-ISO-10303-21;
