ISO-10303-21;
HEADER;
FILE_DESCRIPTION(('no description'),'unknown implementation level');
FILE_NAME('HFB4120-1800-Huellk.stp','  ',('CIMSOURCE GmbH'),('CADClick - KiM GmbH - www.kimweb.de'),'unknown preprocess','ACIS','unknown authorization');
FILE_SCHEMA(('automotive_design'));
ENDSEC;
DATA;
#1=MECHANICAL_DESIGN_GEOMETRIC_PRESENTATION_REPRESENTATION(' ',(#10,#11,#12,#13,#14,#15,#16,#17,#18,#19,#20,#21,#22,#23,#24,#25,#26,#27,#28,#29,#30,#31,#32,#33,#34,#35,#36,#37,#38,#39,#40,#41,#42,#43,#44,#45,#46,#47),#6);
#2=PRODUCT_DEFINITION_CONTEXT('',#48,'design');
#3=APPLICATION_PROTOCOL_DEFINITION('INTERNATIONAL STANDARD','automotive_design',1994,#48);
#4=PRODUCT_CATEGORY_RELATIONSHIP('NONE','NONE',#49,#50);
#5=SHAPE_DEFINITION_REPRESENTATION(#51,#52);
#6= (GEOMETRIC_REPRESENTATION_CONTEXT(3)GLOBAL_UNCERTAINTY_ASSIGNED_CONTEXT((#55))GLOBAL_UNIT_ASSIGNED_CONTEXT((#57,#58,#59))REPRESENTATION_CONTEXT('NONE','WORKSPACE'));
#10=STYLED_ITEM('',(#61),#62);
#11=STYLED_ITEM('',(#63),#64);
#12=STYLED_ITEM('',(#65),#66);
#13=STYLED_ITEM('',(#67),#68);
#14=STYLED_ITEM('',(#69),#70);
#15=STYLED_ITEM('',(#71),#72);
#16=STYLED_ITEM('',(#73),#74);
#17=STYLED_ITEM('',(#75),#76);
#18=STYLED_ITEM('',(#77),#78);
#19=STYLED_ITEM('',(#79),#80);
#20=STYLED_ITEM('',(#81),#82);
#21=STYLED_ITEM('',(#83),#84);
#22=STYLED_ITEM('',(#85),#86);
#23=STYLED_ITEM('',(#87),#88);
#24=STYLED_ITEM('',(#89),#90);
#25=STYLED_ITEM('',(#91),#92);
#26=STYLED_ITEM('',(#93),#94);
#27=STYLED_ITEM('',(#95),#96);
#28=STYLED_ITEM('',(#97),#98);
#29=STYLED_ITEM('',(#99),#100);
#30=STYLED_ITEM('',(#101),#102);
#31=STYLED_ITEM('',(#103),#104);
#32=STYLED_ITEM('',(#105),#106);
#33=STYLED_ITEM('',(#107),#108);
#34=STYLED_ITEM('',(#109),#110);
#35=STYLED_ITEM('',(#111),#112);
#36=STYLED_ITEM('',(#113),#114);
#37=STYLED_ITEM('',(#115),#116);
#38=STYLED_ITEM('',(#117),#118);
#39=STYLED_ITEM('',(#119),#120);
#40=STYLED_ITEM('',(#121),#122);
#41=STYLED_ITEM('',(#123),#124);
#42=STYLED_ITEM('',(#125),#126);
#43=STYLED_ITEM('',(#127),#128);
#44=STYLED_ITEM('',(#129),#130);
#45=STYLED_ITEM('',(#131),#132);
#46=STYLED_ITEM('',(#133),#134);
#47=STYLED_ITEM('',(#135),#136);
#48=APPLICATION_CONTEXT(' ');
#49=PRODUCT_CATEGORY('part','NONE');
#50=PRODUCT_RELATED_PRODUCT_CATEGORY('detail',' ',(#137));
#51=PRODUCT_DEFINITION_SHAPE('NONE','NONE',#138);
#52=ADVANCED_BREP_SHAPE_REPRESENTATION('1',(#134,#139),#6);
#55=UNCERTAINTY_MEASURE_WITH_UNIT(LENGTH_MEASURE(1.0E-006),#57,'','');
#57= (CONVERSION_BASED_UNIT('MILLIMETRE',#142)LENGTH_UNIT()NAMED_UNIT(#145));
#58= (NAMED_UNIT(#147)PLANE_ANGLE_UNIT()SI_UNIT($,.RADIAN.));
#59= (NAMED_UNIT(#147)SOLID_ANGLE_UNIT()SI_UNIT($,.STERADIAN.));
#61=PRESENTATION_STYLE_ASSIGNMENT((#153));
#62=ADVANCED_FACE('',(#154,#155),#156,.T.);
#63=PRESENTATION_STYLE_ASSIGNMENT((#157));
#64=EDGE_CURVE('',#110,#78,#158,.T.);
#65=PRESENTATION_STYLE_ASSIGNMENT((#159));
#66=EDGE_CURVE('',#124,#136,#160,.T.);
#67=PRESENTATION_STYLE_ASSIGNMENT((#161));
#68=EDGE_CURVE('',#118,#76,#162,.T.);
#69=PRESENTATION_STYLE_ASSIGNMENT((#163));
#70=VERTEX_POINT('',#164);
#71=PRESENTATION_STYLE_ASSIGNMENT((#165));
#72=EDGE_CURVE('',#122,#80,#166,.T.);
#73=PRESENTATION_STYLE_ASSIGNMENT((#167));
#74=EDGE_CURVE('',#118,#136,#168,.T.);
#75=PRESENTATION_STYLE_ASSIGNMENT((#169));
#76=VERTEX_POINT('',#170);
#77=PRESENTATION_STYLE_ASSIGNMENT((#171));
#78=VERTEX_POINT('',#172);
#79=PRESENTATION_STYLE_ASSIGNMENT((#173));
#80=VERTEX_POINT('',#174);
#81=PRESENTATION_STYLE_ASSIGNMENT((#175));
#82=EDGE_CURVE('',#100,#70,#176,.T.);
#83=PRESENTATION_STYLE_ASSIGNMENT((#177));
#84=ADVANCED_FACE('',(#178),#179,.T.);
#85=PRESENTATION_STYLE_ASSIGNMENT((#180));
#86=ADVANCED_FACE('',(#181),#182,.T.);
#87=PRESENTATION_STYLE_ASSIGNMENT((#183));
#88=ADVANCED_FACE('',(#184),#185,.T.);
#89=PRESENTATION_STYLE_ASSIGNMENT((#186));
#90=ADVANCED_FACE('',(#187),#188,.T.);
#91=PRESENTATION_STYLE_ASSIGNMENT((#189));
#92=ADVANCED_FACE('',(#190),#191,.T.);
#93=PRESENTATION_STYLE_ASSIGNMENT((#192));
#94=ADVANCED_FACE('',(#193),#194,.T.);
#95=PRESENTATION_STYLE_ASSIGNMENT((#195));
#96=EDGE_CURVE('',#110,#80,#196,.T.);
#97=PRESENTATION_STYLE_ASSIGNMENT((#197));
#98=EDGE_CURVE('',#78,#110,#198,.T.);
#99=PRESENTATION_STYLE_ASSIGNMENT((#199));
#100=VERTEX_POINT('',#200);
#101=PRESENTATION_STYLE_ASSIGNMENT((#201));
#102=ADVANCED_FACE('',(#202),#203,.T.);
#103=PRESENTATION_STYLE_ASSIGNMENT((#204));
#104=EDGE_CURVE('',#100,#124,#205,.T.);
#105=PRESENTATION_STYLE_ASSIGNMENT((#206));
#106=ADVANCED_FACE('',(#207),#208,.T.);
#107=PRESENTATION_STYLE_ASSIGNMENT((#209));
#108=EDGE_CURVE('',#80,#122,#210,.T.);
#109=PRESENTATION_STYLE_ASSIGNMENT((#211));
#110=VERTEX_POINT('',#212);
#111=PRESENTATION_STYLE_ASSIGNMENT((#213));
#112=EDGE_CURVE('',#122,#78,#214,.T.);
#113=PRESENTATION_STYLE_ASSIGNMENT((#215));
#114=EDGE_CURVE('',#76,#70,#216,.T.);
#115=PRESENTATION_STYLE_ASSIGNMENT((#217));
#116=EDGE_CURVE('',#110,#78,#218,.T.);
#117=PRESENTATION_STYLE_ASSIGNMENT((#219));
#118=VERTEX_POINT('',#220);
#119=PRESENTATION_STYLE_ASSIGNMENT((#221));
#120=ADVANCED_FACE('',(#222),#223,.T.);
#121=PRESENTATION_STYLE_ASSIGNMENT((#224));
#122=VERTEX_POINT('',#225);
#123=PRESENTATION_STYLE_ASSIGNMENT((#226));
#124=VERTEX_POINT('',#227);
#125=PRESENTATION_STYLE_ASSIGNMENT((#228));
#126=EDGE_CURVE('',#70,#100,#229,.T.);
#127=PRESENTATION_STYLE_ASSIGNMENT((#230));
#128=EDGE_CURVE('',#136,#118,#231,.T.);
#129=PRESENTATION_STYLE_ASSIGNMENT((#232));
#130=EDGE_CURVE('',#76,#124,#233,.T.);
#131=PRESENTATION_STYLE_ASSIGNMENT((#234));
#132=EDGE_CURVE('',#124,#76,#235,.T.);
#133=PRESENTATION_STYLE_ASSIGNMENT((#236));
#134=MANIFOLD_SOLID_BREP('1',#237);
#135=PRESENTATION_STYLE_ASSIGNMENT((#238));
#136=VERTEX_POINT('',#239);
#137=PRODUCT('1','1','PART-1-DESC',(#240));
#138=PRODUCT_DEFINITION('NONE','NONE',#241,#2);
#139=AXIS2_PLACEMENT_3D('',#242,#243,#244);
#142=LENGTH_MEASURE_WITH_UNIT(LENGTH_MEASURE(1.0),#245);
#145=DIMENSIONAL_EXPONENTS(1.0,0.0,0.0,0.0,0.0,0.0,0.0);
#147=DIMENSIONAL_EXPONENTS(0.0,0.0,0.0,0.0,0.0,0.0,0.0);
#153=SURFACE_STYLE_USAGE(.BOTH.,#246);
#154=FACE_OUTER_BOUND('',#247,.T.);
#155=FACE_BOUND('',#248,.T.);
#156=PLANE('',#249);
#157=CURVE_STYLE('',#250,POSITIVE_LENGTH_MEASURE(1.0E-006),#251);
#158=CIRCLE('',#252,6.0);
#159=CURVE_STYLE('',#253,POSITIVE_LENGTH_MEASURE(1.0E-006),#254);
#160=LINE('',#255,#256);
#161=CURVE_STYLE('',#257,POSITIVE_LENGTH_MEASURE(1.0E-006),#258);
#162=LINE('',#259,#260);
#163=POINT_STYLE(' ',#261,POSITIVE_LENGTH_MEASURE(1.0E-006),#262);
#164=CARTESIAN_POINT('',(6.61287431064084E-016,-5.4,0.0));
#165=CURVE_STYLE('',#263,POSITIVE_LENGTH_MEASURE(1.0E-006),#264);
#166=CIRCLE('',#265,5.9999);
#167=CURVE_STYLE('',#266,POSITIVE_LENGTH_MEASURE(1.0E-006),#267);
#168=CIRCLE('',#268,6.0);
#169=POINT_STYLE(' ',#269,POSITIVE_LENGTH_MEASURE(1.0E-006),#270);
#170=CARTESIAN_POINT('',(7.34763812293426E-016,-6.0,-0.599999999999994));
#171=POINT_STYLE(' ',#271,POSITIVE_LENGTH_MEASURE(1.0E-006),#272);
#172=CARTESIAN_POINT('',(0.0,6.0,-104.0));
#173=POINT_STYLE(' ',#273,POSITIVE_LENGTH_MEASURE(1.0E-006),#274);
#174=CARTESIAN_POINT('',(7.34751566229888E-016,-5.9999,-92.0));
#175=CURVE_STYLE('',#275,POSITIVE_LENGTH_MEASURE(1.0E-006),#276);
#176=CIRCLE('',#277,5.4);
#177=SURFACE_STYLE_USAGE(.BOTH.,#278);
#178=FACE_OUTER_BOUND('',#279,.T.);
#179=CONICAL_SURFACE('',#280,5.99995,8.33333333319503E-006);
#180=SURFACE_STYLE_USAGE(.BOTH.,#281);
#181=FACE_OUTER_BOUND('',#282,.T.);
#182=CYLINDRICAL_SURFACE('',#283,6.0);
#183=SURFACE_STYLE_USAGE(.BOTH.,#284);
#184=FACE_OUTER_BOUND('',#285,.T.);
#185=CONICAL_SURFACE('',#286,5.7,0.785398163397453);
#186=SURFACE_STYLE_USAGE(.BOTH.,#287);
#187=FACE_OUTER_BOUND('',#288,.T.);
#188=PLANE('',#289);
#189=SURFACE_STYLE_USAGE(.BOTH.,#290);
#190=FACE_OUTER_BOUND('',#291,.T.);
#191=SPHERICAL_SURFACE('',#292,6.00000000000001);
#192=SURFACE_STYLE_USAGE(.BOTH.,#293);
#193=FACE_OUTER_BOUND('',#294,.T.);
#194=CYLINDRICAL_SURFACE('',#295,6.0);
#195=CURVE_STYLE('',#296,POSITIVE_LENGTH_MEASURE(1.0E-006),#297);
#196=LINE('',#298,#299);
#197=CURVE_STYLE('',#300,POSITIVE_LENGTH_MEASURE(1.0E-006),#301);
#198=CIRCLE('',#302,6.0);
#199=POINT_STYLE(' ',#303,POSITIVE_LENGTH_MEASURE(1.0E-006),#304);
#200=CARTESIAN_POINT('',(0.0,5.4,0.0));
#201=SURFACE_STYLE_USAGE(.BOTH.,#305);
#202=FACE_OUTER_BOUND('',#306,.T.);
#203=CONICAL_SURFACE('',#307,5.99995,8.33333333319503E-006);
#204=CURVE_STYLE('',#308,POSITIVE_LENGTH_MEASURE(1.0E-006),#309);
#205=LINE('',#310,#311);
#206=SURFACE_STYLE_USAGE(.BOTH.,#312);
#207=FACE_OUTER_BOUND('',#313,.T.);
#208=CONICAL_SURFACE('',#314,5.7,0.785398163397453);
#209=CURVE_STYLE('',#315,POSITIVE_LENGTH_MEASURE(1.0E-006),#316);
#210=CIRCLE('',#317,5.9999);
#211=POINT_STYLE(' ',#318,POSITIVE_LENGTH_MEASURE(1.0E-006),#319);
#212=CARTESIAN_POINT('',(7.34763812293426E-016,-6.0,-104.0));
#213=CURVE_STYLE('',#320,POSITIVE_LENGTH_MEASURE(1.0E-006),#321);
#214=LINE('',#322,#323);
#215=CURVE_STYLE('',#324,POSITIVE_LENGTH_MEASURE(1.0E-006),#325);
#216=LINE('',#326,#327);
#217=CURVE_STYLE('',#328,POSITIVE_LENGTH_MEASURE(1.0E-006),#329);
#218=CIRCLE('',#330,6.00000000000001);
#219=POINT_STYLE(' ',#331,POSITIVE_LENGTH_MEASURE(1.0E-006),#332);
#220=CARTESIAN_POINT('',(7.34763812293426E-016,-6.0,-92.0));
#221=SURFACE_STYLE_USAGE(.BOTH.,#333);
#222=FACE_OUTER_BOUND('',#334,.T.);
#223=SPHERICAL_SURFACE('',#335,6.00000000000001);
#224=POINT_STYLE(' ',#336,POSITIVE_LENGTH_MEASURE(1.0E-006),#337);
#225=CARTESIAN_POINT('',(0.0,5.9999,-92.0));
#226=POINT_STYLE(' ',#338,POSITIVE_LENGTH_MEASURE(1.0E-006),#339);
#227=CARTESIAN_POINT('',(0.0,6.0,-0.599999999999994));
#228=CURVE_STYLE('',#340,POSITIVE_LENGTH_MEASURE(1.0E-006),#341);
#229=CIRCLE('',#342,5.4);
#230=CURVE_STYLE('',#343,POSITIVE_LENGTH_MEASURE(1.0E-006),#344);
#231=CIRCLE('',#345,6.0);
#232=CURVE_STYLE('',#346,POSITIVE_LENGTH_MEASURE(1.0E-006),#347);
#233=CIRCLE('',#348,6.0);
#234=CURVE_STYLE('',#349,POSITIVE_LENGTH_MEASURE(1.0E-006),#350);
#235=CIRCLE('',#351,6.0);
#236=SURFACE_STYLE_USAGE(.BOTH.,#352);
#237=CLOSED_SHELL('',(#120,#102,#86,#88,#62,#90,#106,#94,#84,#92));
#238=POINT_STYLE(' ',#353,POSITIVE_LENGTH_MEASURE(1.0E-006),#354);
#239=CARTESIAN_POINT('',(0.0,6.0,-92.0));
#240=PRODUCT_CONTEXT('',#48,'mechanical');
#241=PRODUCT_DEFINITION_FORMATION_WITH_SPECIFIED_SOURCE(' ','NONE',#137,.NOT_KNOWN.);
#242=CARTESIAN_POINT('',(0.0,0.0,0.0));
#243=DIRECTION('',(0.0,0.0,1.0));
#244=DIRECTION('',(1.0,0.0,0.0));
#245= (NAMED_UNIT(#145)LENGTH_UNIT()SI_UNIT(.MILLI.,.METRE.));
#246=SURFACE_SIDE_STYLE('',(#356));
#247=EDGE_LOOP('',(#357,#358));
#248=EDGE_LOOP('',(#359,#360));
#249=AXIS2_PLACEMENT_3D('',#361,#362,#363);
#250=DRAUGHTING_PRE_DEFINED_CURVE_FONT('continuous');
#251=COLOUR_RGB('',0.800000011920929,0.800000011920929,0.800000011920929);
#252=AXIS2_PLACEMENT_3D('',#364,#365,#366);
#253=DRAUGHTING_PRE_DEFINED_CURVE_FONT('continuous');
#254=COLOUR_RGB('',0.498039215803146,0.498039215803146,0.498039215803146);
#255=CARTESIAN_POINT('',(-7.34763812293426E-016,6.0,-46.3));
#256=VECTOR('',#367,1.0);
#257=DRAUGHTING_PRE_DEFINED_CURVE_FONT('continuous');
#258=COLOUR_RGB('',0.498039215803146,0.498039215803146,0.498039215803146);
#259=CARTESIAN_POINT('',(7.34763812293426E-016,-6.0,-46.3));
#260=VECTOR('',#368,1.0);
#261=PRE_DEFINED_MARKER('');
#262=COLOUR_RGB('',0.498039215803146,0.498039215803146,0.498039215803146);
#263=DRAUGHTING_PRE_DEFINED_CURVE_FONT('continuous');
#264=COLOUR_RGB('',0.800000011920929,0.800000011920929,0.800000011920929);
#265=AXIS2_PLACEMENT_3D('',#369,#370,#371);
#266=DRAUGHTING_PRE_DEFINED_CURVE_FONT('continuous');
#267=COLOUR_RGB('',0.498039215803146,0.498039215803146,0.498039215803146);
#268=AXIS2_PLACEMENT_3D('',#372,#373,#374);
#269=PRE_DEFINED_MARKER('');
#270=COLOUR_RGB('',0.498039215803146,0.498039215803146,0.498039215803146);
#271=PRE_DEFINED_MARKER('');
#272=COLOUR_RGB('',0.800000011920929,0.800000011920929,0.800000011920929);
#273=PRE_DEFINED_MARKER('');
#274=COLOUR_RGB('',0.800000011920929,0.800000011920929,0.800000011920929);
#275=DRAUGHTING_PRE_DEFINED_CURVE_FONT('continuous');
#276=COLOUR_RGB('',0.498039215803146,0.498039215803146,0.498039215803146);
#277=AXIS2_PLACEMENT_3D('',#375,#376,#377);
#278=SURFACE_SIDE_STYLE('',(#378));
#279=EDGE_LOOP('',(#379,#380,#381,#382));
#280=AXIS2_PLACEMENT_3D('',#383,#384,#385);
#281=SURFACE_SIDE_STYLE('',(#386));
#282=EDGE_LOOP('',(#387,#388,#389,#390));
#283=AXIS2_PLACEMENT_3D('',#391,#392,#393);
#284=SURFACE_SIDE_STYLE('',(#394));
#285=EDGE_LOOP('',(#395,#396,#397,#398));
#286=AXIS2_PLACEMENT_3D('',#399,#400,#401);
#287=SURFACE_SIDE_STYLE('',(#402));
#288=EDGE_LOOP('',(#403,#404));
#289=AXIS2_PLACEMENT_3D('',#405,#406,#407);
#290=SURFACE_SIDE_STYLE('',(#408));
#291=EDGE_LOOP('',(#409,#410));
#292=AXIS2_PLACEMENT_3D('',#411,#412,#413);
#293=SURFACE_SIDE_STYLE('',(#414));
#294=EDGE_LOOP('',(#415,#416,#417,#418));
#295=AXIS2_PLACEMENT_3D('',#419,#420,#421);
#296=DRAUGHTING_PRE_DEFINED_CURVE_FONT('continuous');
#297=COLOUR_RGB('',0.800000011920929,0.800000011920929,0.800000011920929);
#298=CARTESIAN_POINT('',(7.34757689261657E-016,-5.99995,-98.0));
#299=VECTOR('',#422,1.0);
#300=DRAUGHTING_PRE_DEFINED_CURVE_FONT('continuous');
#301=COLOUR_RGB('',0.800000011920929,0.800000011920929,0.800000011920929);
#302=AXIS2_PLACEMENT_3D('',#423,#424,#425);
#303=PRE_DEFINED_MARKER('');
#304=COLOUR_RGB('',0.498039215803146,0.498039215803146,0.498039215803146);
#305=SURFACE_SIDE_STYLE('',(#426));
#306=EDGE_LOOP('',(#427,#428,#429,#430));
#307=AXIS2_PLACEMENT_3D('',#431,#432,#433);
#308=DRAUGHTING_PRE_DEFINED_CURVE_FONT('continuous');
#309=COLOUR_RGB('',0.498039215803146,0.498039215803146,0.498039215803146);
#310=CARTESIAN_POINT('',(-6.98025621678755E-016,5.7,-0.299999999999997));
#311=VECTOR('',#434,1.0);
#312=SURFACE_SIDE_STYLE('',(#435));
#313=EDGE_LOOP('',(#436,#437,#438,#439));
#314=AXIS2_PLACEMENT_3D('',#440,#441,#442);
#315=DRAUGHTING_PRE_DEFINED_CURVE_FONT('continuous');
#316=COLOUR_RGB('',0.800000011920929,0.800000011920929,0.800000011920929);
#317=AXIS2_PLACEMENT_3D('',#443,#444,#445);
#318=PRE_DEFINED_MARKER('');
#319=COLOUR_RGB('',0.800000011920929,0.800000011920929,0.800000011920929);
#320=DRAUGHTING_PRE_DEFINED_CURVE_FONT('continuous');
#321=COLOUR_RGB('',0.800000011920929,0.800000011920929,0.800000011920929);
#322=CARTESIAN_POINT('',(-7.34757689261657E-016,5.99995,-98.0));
#323=VECTOR('',#446,1.0);
#324=DRAUGHTING_PRE_DEFINED_CURVE_FONT('continuous');
#325=COLOUR_RGB('',0.498039215803146,0.498039215803146,0.498039215803146);
#326=CARTESIAN_POINT('',(6.98025621678755E-016,-5.7,-0.299999999999997));
#327=VECTOR('',#447,1.0);
#328=DRAUGHTING_PRE_DEFINED_CURVE_FONT('continuous');
#329=COLOUR_RGB('',0.800000011920929,0.800000011920929,0.800000011920929);
#330=AXIS2_PLACEMENT_3D('',#448,#449,#450);
#331=PRE_DEFINED_MARKER('');
#332=COLOUR_RGB('',0.498039215803146,0.498039215803146,0.498039215803146);
#333=SURFACE_SIDE_STYLE('',(#451));
#334=EDGE_LOOP('',(#452,#453));
#335=AXIS2_PLACEMENT_3D('',#454,#455,#456);
#336=PRE_DEFINED_MARKER('');
#337=COLOUR_RGB('',0.800000011920929,0.800000011920929,0.800000011920929);
#338=PRE_DEFINED_MARKER('');
#339=COLOUR_RGB('',0.498039215803146,0.498039215803146,0.498039215803146);
#340=DRAUGHTING_PRE_DEFINED_CURVE_FONT('continuous');
#341=COLOUR_RGB('',0.498039215803146,0.498039215803146,0.498039215803146);
#342=AXIS2_PLACEMENT_3D('',#457,#458,#459);
#343=DRAUGHTING_PRE_DEFINED_CURVE_FONT('continuous');
#344=COLOUR_RGB('',0.498039215803146,0.498039215803146,0.498039215803146);
#345=AXIS2_PLACEMENT_3D('',#460,#461,#462);
#346=DRAUGHTING_PRE_DEFINED_CURVE_FONT('continuous');
#347=COLOUR_RGB('',0.498039215803146,0.498039215803146,0.498039215803146);
#348=AXIS2_PLACEMENT_3D('',#463,#464,#465);
#349=DRAUGHTING_PRE_DEFINED_CURVE_FONT('continuous');
#350=COLOUR_RGB('',0.498039215803146,0.498039215803146,0.498039215803146);
#351=AXIS2_PLACEMENT_3D('',#466,#467,#468);
#352=SURFACE_SIDE_STYLE('',(#469));
#353=PRE_DEFINED_MARKER('');
#354=COLOUR_RGB('',0.498039215803146,0.498039215803146,0.498039215803146);
#356=SURFACE_STYLE_FILL_AREA(#470);
#357=ORIENTED_EDGE('',*,*,#128,.T.);
#358=ORIENTED_EDGE('',*,*,#74,.T.);
#359=ORIENTED_EDGE('',*,*,#72,.F.);
#360=ORIENTED_EDGE('',*,*,#108,.F.);
#361=CARTESIAN_POINT('',(0.0,3.0,-92.0));
#362=DIRECTION('',(0.0,0.0,-1.0));
#363=DIRECTION('',(0.0,1.0,0.0));
#364=CARTESIAN_POINT('',(0.0,0.0,-104.0));
#365=DIRECTION('',(0.0,0.0,-1.0));
#366=DIRECTION('',(0.0,1.0,0.0));
#367=DIRECTION('',(0.0,0.0,-1.0));
#368=DIRECTION('',(-0.0,-0.0,1.0));
#369=CARTESIAN_POINT('',(0.0,0.0,-92.0));
#370=DIRECTION('',(0.0,0.0,-1.0));
#371=DIRECTION('',(0.0,1.0,0.0));
#372=CARTESIAN_POINT('',(0.0,0.0,-92.0));
#373=DIRECTION('',(0.0,0.0,-1.0));
#374=DIRECTION('',(0.0,1.0,0.0));
#375=CARTESIAN_POINT('',(0.0,0.0,0.0));
#376=DIRECTION('',(0.0,0.0,-1.0));
#377=DIRECTION('',(0.0,1.0,0.0));
#378=SURFACE_STYLE_FILL_AREA(#471);
#379=ORIENTED_EDGE('',*,*,#112,.T.);
#380=ORIENTED_EDGE('',*,*,#64,.F.);
#381=ORIENTED_EDGE('',*,*,#96,.T.);
#382=ORIENTED_EDGE('',*,*,#108,.T.);
#383=CARTESIAN_POINT('',(0.0,0.0,-98.0));
#384=DIRECTION('',(0.0,-0.0,-1.0));
#385=DIRECTION('',(0.0,1.0,0.0));
#386=SURFACE_STYLE_FILL_AREA(#472);
#387=ORIENTED_EDGE('',*,*,#66,.F.);
#388=ORIENTED_EDGE('',*,*,#132,.T.);
#389=ORIENTED_EDGE('',*,*,#68,.F.);
#390=ORIENTED_EDGE('',*,*,#128,.F.);
#391=CARTESIAN_POINT('',(0.0,0.0,-46.3));
#392=DIRECTION('',(-0.0,-0.0,1.0));
#393=DIRECTION('',(0.0,1.0,0.0));
#394=SURFACE_STYLE_FILL_AREA(#473);
#395=ORIENTED_EDGE('',*,*,#104,.F.);
#396=ORIENTED_EDGE('',*,*,#82,.T.);
#397=ORIENTED_EDGE('',*,*,#114,.F.);
#398=ORIENTED_EDGE('',*,*,#132,.F.);
#399=CARTESIAN_POINT('',(0.0,0.0,-0.299999999999997));
#400=DIRECTION('',(0.0,-0.0,-1.0));
#401=DIRECTION('',(0.0,1.0,0.0));
#402=SURFACE_STYLE_FILL_AREA(#474);
#403=ORIENTED_EDGE('',*,*,#82,.F.);
#404=ORIENTED_EDGE('',*,*,#126,.F.);
#405=CARTESIAN_POINT('',(0.0,2.7,0.0));
#406=DIRECTION('',(-0.0,0.0,1.0));
#407=DIRECTION('',(0.0,-1.0,0.0));
#408=SURFACE_STYLE_FILL_AREA(#475);
#409=ORIENTED_EDGE('',*,*,#116,.T.);
#410=ORIENTED_EDGE('',*,*,#98,.T.);
#411=CARTESIAN_POINT('',(0.0,0.0,-104.0));
#412=DIRECTION('',(0.0,1.0,0.0));
#413=DIRECTION('',(0.0,0.0,-1.0));
#414=SURFACE_STYLE_FILL_AREA(#476);
#415=ORIENTED_EDGE('',*,*,#66,.T.);
#416=ORIENTED_EDGE('',*,*,#74,.F.);
#417=ORIENTED_EDGE('',*,*,#68,.T.);
#418=ORIENTED_EDGE('',*,*,#130,.T.);
#419=CARTESIAN_POINT('',(0.0,0.0,-46.3));
#420=DIRECTION('',(-0.0,-0.0,1.0));
#421=DIRECTION('',(0.0,1.0,0.0));
#422=DIRECTION('',(-1.02050529482323E-021,8.33333333309857E-006,0.999999999965278));
#423=CARTESIAN_POINT('',(0.0,0.0,-104.0));
#424=DIRECTION('',(0.0,0.0,-1.0));
#425=DIRECTION('',(0.0,1.0,0.0));
#426=SURFACE_STYLE_FILL_AREA(#477);
#427=ORIENTED_EDGE('',*,*,#112,.F.);
#428=ORIENTED_EDGE('',*,*,#72,.T.);
#429=ORIENTED_EDGE('',*,*,#96,.F.);
#430=ORIENTED_EDGE('',*,*,#98,.F.);
#431=CARTESIAN_POINT('',(0.0,0.0,-98.0));
#432=DIRECTION('',(0.0,-0.0,-1.0));
#433=DIRECTION('',(0.0,1.0,0.0));
#434=DIRECTION('',(-8.65927457071939E-017,0.707106781186551,-0.707106781186544));
#435=SURFACE_STYLE_FILL_AREA(#478);
#436=ORIENTED_EDGE('',*,*,#104,.T.);
#437=ORIENTED_EDGE('',*,*,#130,.F.);
#438=ORIENTED_EDGE('',*,*,#114,.T.);
#439=ORIENTED_EDGE('',*,*,#126,.T.);
#440=CARTESIAN_POINT('',(0.0,0.0,-0.299999999999997));
#441=DIRECTION('',(0.0,-0.0,-1.0));
#442=DIRECTION('',(0.0,1.0,0.0));
#443=CARTESIAN_POINT('',(0.0,0.0,-92.0));
#444=DIRECTION('',(0.0,0.0,-1.0));
#445=DIRECTION('',(0.0,1.0,0.0));
#446=DIRECTION('',(-1.02050529482323E-021,8.33333333309857E-006,-0.999999999965278));
#447=DIRECTION('',(-8.65927457071939E-017,0.707106781186551,0.707106781186544));
#448=CARTESIAN_POINT('',(0.0,0.0,-104.0));
#449=DIRECTION('',(1.0,0.0,1.22460635382238E-016));
#450=DIRECTION('',(-1.22460635382238E-016,0.0,1.0));
#451=SURFACE_STYLE_FILL_AREA(#479);
#452=ORIENTED_EDGE('',*,*,#116,.F.);
#453=ORIENTED_EDGE('',*,*,#64,.T.);
#454=CARTESIAN_POINT('',(0.0,0.0,-104.0));
#455=DIRECTION('',(0.0,1.0,0.0));
#456=DIRECTION('',(0.0,0.0,-1.0));
#457=CARTESIAN_POINT('',(0.0,0.0,0.0));
#458=DIRECTION('',(0.0,0.0,-1.0));
#459=DIRECTION('',(0.0,1.0,0.0));
#460=CARTESIAN_POINT('',(0.0,0.0,-92.0));
#461=DIRECTION('',(0.0,0.0,-1.0));
#462=DIRECTION('',(0.0,1.0,0.0));
#463=CARTESIAN_POINT('',(0.0,0.0,-0.599999999999994));
#464=DIRECTION('',(0.0,0.0,-1.0));
#465=DIRECTION('',(0.0,1.0,0.0));
#466=CARTESIAN_POINT('',(0.0,0.0,-0.599999999999994));
#467=DIRECTION('',(0.0,0.0,-1.0));
#468=DIRECTION('',(0.0,1.0,0.0));
#469=SURFACE_STYLE_FILL_AREA(#480);
#470=FILL_AREA_STYLE('',(#481));
#471=FILL_AREA_STYLE('',(#482));
#472=FILL_AREA_STYLE('',(#483));
#473=FILL_AREA_STYLE('',(#484));
#474=FILL_AREA_STYLE('',(#485));
#475=FILL_AREA_STYLE('',(#486));
#476=FILL_AREA_STYLE('',(#487));
#477=FILL_AREA_STYLE('',(#488));
#478=FILL_AREA_STYLE('',(#489));
#479=FILL_AREA_STYLE('',(#490));
#480=FILL_AREA_STYLE('',(#491));
#481=FILL_AREA_STYLE_COLOUR('',#492);
#482=FILL_AREA_STYLE_COLOUR('',#493);
#483=FILL_AREA_STYLE_COLOUR('',#494);
#484=FILL_AREA_STYLE_COLOUR('',#495);
#485=FILL_AREA_STYLE_COLOUR('',#496);
#486=FILL_AREA_STYLE_COLOUR('',#497);
#487=FILL_AREA_STYLE_COLOUR('',#498);
#488=FILL_AREA_STYLE_COLOUR('',#499);
#489=FILL_AREA_STYLE_COLOUR('',#500);
#490=FILL_AREA_STYLE_COLOUR('',#501);
#491=FILL_AREA_STYLE_COLOUR('',#502);
#492=COLOUR_RGB('',0.498039215803146,0.498039215803146,0.498039215803146);
#493=COLOUR_RGB('',0.800000011920929,0.800000011920929,0.800000011920929);
#494=COLOUR_RGB('',0.498039215803146,0.498039215803146,0.498039215803146);
#495=COLOUR_RGB('',0.498039215803146,0.498039215803146,0.498039215803146);
#496=COLOUR_RGB('',0.498039215803146,0.498039215803146,0.498039215803146);
#497=COLOUR_RGB('',0.800000011920929,0.800000011920929,0.800000011920929);
#498=COLOUR_RGB('',0.498039215803146,0.498039215803146,0.498039215803146);
#499=COLOUR_RGB('',0.800000011920929,0.800000011920929,0.800000011920929);
#500=COLOUR_RGB('',0.498039215803146,0.498039215803146,0.498039215803146);
#501=COLOUR_RGB('',0.800000011920929,0.800000011920929,0.800000011920929);
#502=COLOUR_RGB('',0.800000011920929,0.800000011920929,0.800000011920929);
#503=AXIS2_PLACEMENT_3D('PCS',#504,#505,#506);
#504=CARTESIAN_POINT('',(0.0,0.0,0.0));
#505=DIRECTION('',(0.0,0.0,1.0));
#506=DIRECTION('',(1.0,0.0,0.0));
#507=AXIS2_PLACEMENT_3D('CIP',#508,#509,#510);
#508=CARTESIAN_POINT('',(0.0,0.0,-110.0));
#509=DIRECTION('',(0.0,0.0,1.0));
#510=DIRECTION('',(1.0,0.0,0.0));
#511=AXIS2_PLACEMENT_3D('CRP',#512,#513,#514);
#512=CARTESIAN_POINT('',(-6.0,0.0,-110.0));
#513=DIRECTION('',(0.0,0.0,1.0));
#514=DIRECTION('',(1.0,0.0,0.0));
#515=AXIS2_PLACEMENT_3D('MCS',#516,#517,#518);
#516=CARTESIAN_POINT('',(0.0,0.0,-92.0));
#517=DIRECTION('',(0.0,0.0,1.0));
#518=DIRECTION('',(1.0,0.0,0.0));
#519=CONSTRUCTIVE_GEOMETRY_REPRESENTATION_RELATIONSHIP('coordinate systems',$,#52,#520);
#520=CONSTRUCTIVE_GEOMETRY_REPRESENTATION('coordinate systems',(#503,#507,#511,#515),#6);
ENDSEC;
END-ISO-10303-21;
