0
SECTION
2
HEADER
9
$ACADVER
1
AC1015
9
$ACADMAINTVER
70
20
9
$DWGCODEPAGE
3
ANSI_1252
9
$INSBASE
10
0.0
20
0.0
30
0.0
9
$EXTMIN
10
-150.000000000000
20
-105.000000000000
30
0.0
9
$EXTMAX
10
150.000000000000
20
105.000000000000
30
0.0
9
$LIMMIN
10
0.0
20
0.0
9
$LIMMAX
10
12.0
20
9.0
9
$ORTHOMODE
70
0
9
$REGENMODE
70
1
9
$FILLMODE
70
1
9
$QTEXTMODE
70
0
9
$MIRRTEXT
70
1
9
$LTSCALE
40
1.0
9
$ATTMODE
70
1
9
$TEXTSIZE
40
0.2
9
$TRACEWID
40
0.05
9
$TEXTSTYLE
7
Standard
9
$CLAYER
8
0
9
$CELTYPE
6
ByLayer
9
$CECOLOR
62
256
9
$CELTSCALE
40
1.0
9
$DISPSILH
70
0
9
$DIMSCALE
40
1.0
9
$DIMASZ
40
2.5
9
$DIMEXO
40
0.625
9
$DIMDLI
40
0.38
9
$DIMRND
40
0.0
9
$DIMDLE
40
0.0
9
$DIMEXE
40
1.25
9
$DIMTP
40
0.0
9
$DIMTM
40
0.000000001
9
$DIMTXT
40
2.5
9
$DIMCEN
40
0.09
9
$DIMTSZ
40
0.0
9
$DIMTOL
70
1
9
$DIMLIM
70
0
9
$DIMTIH
70
0
9
$DIMTOH
70
0
9
$DIMSE1
70
0
9
$DIMSE2
70
0
9
$DIMTAD
70
1
9
$DIMZIN
70
0
9
$DIMBLK
1
VDDIM_DEFAULT
9
$DIMASO
70
1
9
$DIMSHO
70
1
9
$DIMPOST
1

9
$DIMAPOST
1

9
$DIMALT
70
0
9
$DIMALTD
70
2
9
$DIMALTF
40
25.4
9
$DIMLFAC
40
1.00000000000000
9
$DIMTOFL
70
0
9
$DIMTVP
40
0.0
9
$DIMTIX
70
0
9
$DIMSOXD
70
0
9
$DIMSAH
70
0
9
$DIMBLK1
1

9
$DIMBLK2
1

9
$DIMSTYLE
2
BEM-ISBE
9
$DIMCLRD
70
0
9
$DIMCLRE
70
0
9
$DIMCLRT
70
0
9
$DIMTFAC
40
0.5
9
$DIMGAP
40
0.625
9
$DIMJUST
70
0
9
$DIMSD1
70
0
9
$DIMSD2
70
0
9
$DIMTOLJ
70
1
9
$DIMTZIN
70
0
9
$DIMALTZ
70
0
9
$DIMALTTZ
70
0
9
$DIMUPT
70
0
9
$DIMDEC
70
3
9
$DIMTDEC
70
3
9
$DIMALTU
70
2
9
$DIMALTTD
70
2
9
$DIMTXSTY
7
Standard
9
$DIMAUNIT
70
0
9
$DIMADEC
70
3
9
$DIMALTRND
40
0.0
9
$DIMAZIN
70
0
9
$DIMDSEP
70
46
9
$DIMATFIT
70
3
9
$DIMFRAC
70
0
9
$DIMLDRBLK
1

9
$DIMLUNIT
70
2
9
$DIMLWD
70
-2
9
$DIMLWE
70
-2
9
$DIMTMOVE
70
0
9
$LUNITS
70
2
9
$LUPREC
70
4
9
$SKETCHINC
40
0.1
9
$FILLETRAD
40
0.5
9
$AUNITS
70
0
9
$AUPREC
70
0
9
$MENU
1
.
9
$ELEVATION
40
0.0
9
$PELEVATION
40
0.0
9
$THICKNESS
40
0.0
9
$LIMCHECK
70
0
9
$CHAMFERA
40
0.5
9
$CHAMFERB
40
0.5
9
$CHAMFERC
40
1.0
9
$CHAMFERD
40
0.0
9
$SKPOLY
70
0
9
$TDCREATE
40
0.0
9
$TDUCREATE
40
0.0
9
$TDUPDATE
40
0.0
9
$TDUUPDATE
40
0.0
9
$TDINDWG
40
0.0
9
$TDUSRTIMER
40
0.0
9
$USRTIMER
70
1
9
$ANGBASE
50
0.0
9
$ANGDIR
70
0
9
$PDMODE
70
0
9
$PDSIZE
40
0.0
9
$PLINEWID
40
0.0
9
$SPLFRAME
70
0
9
$SPLINETYPE
70
6
9
$SPLINESEGS
70
8
9
$HANDSEED
5
10AB
9
$SURFTAB1
70
6
9
$SURFTAB2
70
6
9
$SURFTYPE
70
6
9
$SURFU
70
6
9
$SURFV
70
6
9
$UCSBASE
2

9
$UCSNAME
2

9
$UCSORG
10
0.0
20
0.0
30
0.0
9
$UCSXDIR
10
1.0
20
0.0
30
0.0
9
$UCSYDIR
10
0.0
20
1.0
30
0.0
9
$UCSORTHOREF
2

9
$UCSORTHOVIEW
70
0
9
$UCSORGTOP
10
0.0
20
0.0
30
0.0
9
$UCSORGBOTTOM
10
0.0
20
0.0
30
0.0
9
$UCSORGLEFT
10
0.0
20
0.0
30
0.0
9
$UCSORGRIGHT
10
0.0
20
0.0
30
0.0
9
$UCSORGFRONT
10
0.0
20
0.0
30
0.0
9
$UCSORGBACK
10
0.0
20
0.0
30
0.0
9
$PUCSBASE
2

9
$PUCSNAME
2

9
$PUCSORG
10
0.0
20
0.0
30
0.0
9
$PUCSXDIR
10
1.0
20
0.0
30
0.0
9
$PUCSYDIR
10
0.0
20
1.0
30
0.0
9
$PUCSORTHOREF
2

9
$PUCSORTHOVIEW
70
0
9
$PUCSORGTOP
10
0.0
20
0.0
30
0.0
9
$PUCSORGBOTTOM
10
0.0
20
0.0
30
0.0
9
$PUCSORGLEFT
10
0.0
20
0.0
30
0.0
9
$PUCSORGRIGHT
10
0.0
20
0.0
30
0.0
9
$PUCSORGFRONT
10
0.0
20
0.0
30
0.0
9
$PUCSORGBACK
10
0.0
20
0.0
30
0.0
9
$USERI1
70
0
9
$USERI2
70
0
9
$USERI3
70
0
9
$USERI4
70
0
9
$USERI5
70
0
9
$USERR1
40
0.0
9
$USERR2
40
0.0
9
$USERR3
40
0.0
9
$USERR4
40
0.0
9
$USERR5
40
0.0
9
$WORLDVIEW
70
1
9
$SHADEDGE
70
3
9
$SHADEDIF
70
70
9
$TILEMODE
70
1
9
$MAXACTVP
70
64
9
$PINSBASE
10
0.0
20
0.0
30
0.0
9
$PLIMCHECK
70
0
9
$PEXTMIN
10
1.000000000000000E+20
20
1.000000000000000E+20
30
1.000000000000000E+20
9
$PEXTMAX
10
-1.000000000000000E+20
20
-1.000000000000000E+20
30
-1.000000000000000E+20
9
$PLIMMIN
10
0.0
20
0.0
9
$PLIMMAX
10
12.0
20
9.0
9
$UNITMODE
70
0
9
$VISRETAIN
70
1
9
$PLINEGEN
70
0
9
$PSLTSCALE
70
1
9
$TREEDEPTH
70
3020
9
$CMLSTYLE
2
Standard
9
$CMLJUST
70
0
9
$CMLSCALE
40
1.0
9
$PROXYGRAPHICS
70
1
9
$MEASUREMENT
70
0
9
$CELWEIGHT
370
-1
9
$ENDCAPS
280
0
9
$JOINSTYLE
280
0
9
$LWDISPLAY
290
0
9
$INSUNITS
70
4
9
$HYPERLINKBASE
1

9
$STYLESHEET
1

9
$XEDIT
290
1
9
$CEPSNTYPE
380
0
9
$PSTYLEMODE
290
0
9
$FINGERPRINTGUID
2
{FAEB1C30-E019-11D5-929B-00C0DF256EC4}
9
$VERSIONGUID
2
{04C5C4E4-4947-4D90-8812-D401569E61F7}
9
$EXTNAMES
290
1
9
$PSVPSCALE
40
0.0
9
$OLESTARTUP
290
0
0
ENDSEC
0
SECTION
2
CLASSES
0
CLASS
1
ACDBDICTIONARYWDFLT
2
AcDbDictionaryWithDefault
3
ObjectDBX Classes
90
0
280
0
281
0
0
CLASS
1
ACDBPLACEHOLDER
2
AcDbPlaceHolder
3
ObjectDBX Classes
90
0
280
0
281
0
0
CLASS
1
LAYOUT
2
AcDbLayout
3
ObjectDBX Classes
90
0
280
0
281
0
0
CLASS
1
MATERIAL
2
AcDbMaterial
3
ObjectDBX Classes
90
1153
280
0
281
0
0
CLASS
1
VISUALSTYLE
2
AcDbVisualStyle
3
ObjectDBX Classes
90
4095
280
0
281
0
0
CLASS
1
TABLESTYLE
2
AcDbTableStyle
3
ObjectDBX Classes
90
4095
280
0
281
0
0
CLASS
1
SCALE
2
AcDbScale
3
ObjectDBX Classes
90
1153
280
0
281
0
0
CLASS
1
MLEADERSTYLE
2
AcDbMLeaderStyle
3
ACDB_MLEADERSTYLE_CLASS
90
4095
280
0
281
0
0
CLASS
1
DICTIONARYVAR
2
AcDbDictionaryVar
3
ObjectDBX Classes
90
0
280
0
281
0
0
CLASS
1
CELLSTYLEMAP
2
AcDbCellStyleMap
3
ObjectDBX Classes
90
1152
280
0
281
0
0
ENDSEC
0
SECTION
2
TABLES
0
TABLE
2
VPORT
5
24A
330
0
100
AcDbSymbolTable
70
1
0
VPORT
5
26B
330
24A
100
AcDbSymbolTableRecord
100
AcDbViewportTableRecord
2
*Active
70
0
10
0.0
20
0.0
11
1.0
21
1.0
12
0.00000000000000
22
0.00000000000000
13
0.0
23
0.0
14
10.0
24
10.0
15
10.0
25
10.0
16
0.0
26
0.0
36
1.0
17
0.0
27
0.0
37
0.0
40
210.000000000000
41
1.42857142857143
42
1.0
43
0.0
44
0.0
50
0.0
51
0.0000000000007958
71
0
72
100
73
1
74
3
75
0
76
0
77
0
78
1
281
0
65
1
110
0.0
120
0.0
130
0.0
111
1.0
121
0.0
131
0.0
112
0.0
122
1.0
132
0.0
79
0
146
0.0
0
ENDTAB
0
TABLE
2
LTYPE
5
247
330
0
100
AcDbSymbolTable
70
25
0
LTYPE
5
256
330
247
100
AcDbSymbolTableRecord
100
AcDbLinetypeTableRecord
2
ByBlock
70
0
3

72
65
73
0
40
0.0
0
LTYPE
5
257
330
247
100
AcDbSymbolTableRecord
100
AcDbLinetypeTableRecord
2
ByLayer
70
0
3

72
65
73
0
40
0.0
0
LTYPE
5
258
330
247
100
AcDbSymbolTableRecord
100
AcDbLinetypeTableRecord
2
Continuous
70
0
3
Solid line
72
65
73
0
40
0.0
0
LTYPE
5
273
330
247
100
AcDbSymbolTableRecord
100
AcDbLinetypeTableRecord
2
CENTER
70
0
3
Center ____ _ ____ _ ____ _ ____ _ ____ _ ____
72
65
73
4
40
2.0
49
1.25
74
0
49
-0.25
74
0
49
0.25
74
0
49
-0.25
74
0
0
LTYPE
5
274
330
247
100
AcDbSymbolTableRecord
100
AcDbLinetypeTableRecord
2
DASHDOT
70
0
3
Dashdot __ . __ . __ . __ . __ . __ . __ . __
72
65
73
4
40
1.0
49
0.5
74
0
49
-0.25
74
0
49
0.0
74
0
49
-0.25
74
0
0
LTYPE
5
275
330
247
100
AcDbSymbolTableRecord
100
AcDbLinetypeTableRecord
2
DASHED
70
0
3
Dashed __ __ __ __ __ __ __ __ __ __ __ __ __ _
72
65
73
2
40
0.75
49
0.5
74
0
49
-0.25
74
0
0
LTYPE
5
276
330
247
100
AcDbSymbolTableRecord
100
AcDbLinetypeTableRecord
2
HIDDEN
70
0
3
Hidden __ __ __ __ __ __ __ __ __ __ __ __ __ __
72
65
73
2
40
0.375
49
0.25
74
0
49
-0.125
74
0
0
LTYPE
5
277
330
247
100
AcDbSymbolTableRecord
100
AcDbLinetypeTableRecord
2
HIDDEN2
70
0
3
Hidden2 _ _ _ _ _ _ _ _ _ _ _ _ _ _ _ _ _
72
65
73
2
40
0.1875
49
0.125
74
0
49
-0.0625
74
0
0
LTYPE
5
278
330
247
100
AcDbSymbolTableRecord
100
AcDbLinetypeTableRecord
2
BORDER
70
0
3
Border __ __ . __ __ . __ __ . __ __ . __ __ .
72
65
73
6
40
1.75
49
0.5
74
0
49
-0.25
74
0
49
0.5
74
0
49
-0.25
74
0
49
0.0
74
0
49
-0.25
74
0
0
LTYPE
5
279
330
247
100
AcDbSymbolTableRecord
100
AcDbLinetypeTableRecord
2
BORDER2
70
0
3
Border2 __.__.__.__.__.__.__.__.__.__.__.
72
65
73
6
40
0.875
49
0.25
74
0
49
-0.125
74
0
49
0.25
74
0
49
-0.125
74
0
49
0.0
74
0
49
-0.125
74
0
0
LTYPE
5
27A
330
247
100
AcDbSymbolTableRecord
100
AcDbLinetypeTableRecord
2
BORDERX2
70
0
3
Borderx2  ____  ____  .  ____  ____  .  ___
72
65
73
6
40
3.5
49
1.0
74
0
49
-0.5
74
0
49
1.0
74
0
49
-0.5
74
0
49
0.0
74
0
49
-0.5
74
0
0
LTYPE
5
27B
330
247
100
AcDbSymbolTableRecord
100
AcDbLinetypeTableRecord
2
CENTER2
70
0
3
Center2  ___ _ ___ _ ___ _ ___ _ ___ _ ___
72
65
73
4
40
1.125
49
0.75
74
0
49
-0.125
74
0
49
0.125
74
0
49
-0.125
74
0
0
LTYPE
5
27C
330
247
100
AcDbSymbolTableRecord
100
AcDbLinetypeTableRecord
2
CENTERX2
70
0
3
Centerx2  ________  __  ________  __  _____
72
65
73
4
40
4.0
49
2.5
74
0
49
-0.5
74
0
49
0.5
74
0
49
-0.5
74
0
0
LTYPE
5
27D
330
247
100
AcDbSymbolTableRecord
100
AcDbLinetypeTableRecord
2
DASHDOT2
70
0
3
Dashdot2  _._._._._._._._._._._._._._._.
72
65
73
4
40
0.5
49
0.25
74
0
49
-0.125
74
0
49
0.0
74
0
49
-0.125
74
0
0
LTYPE
5
27E
330
247
100
AcDbSymbolTableRecord
100
AcDbLinetypeTableRecord
2
DASHDOTX2
70
0
3
Dashdotx2 ____  .  ____  .  ____  .  ___
72
65
73
4
40
2.0
49
1.0
74
0
49
-0.5
74
0
49
0.0
74
0
49
-0.5
74
0
0
LTYPE
5
27F
330
247
100
AcDbSymbolTableRecord
100
AcDbLinetypeTableRecord
2
DASHED2
70
0
3
Dashed2 _ _ _ _ _ _ _ _ _ _ _ _ _ _ _ _ _
72
65
73
2
40
0.375
49
0.25
74
0
49
-0.125
74
0
0
LTYPE
5
280
330
247
100
AcDbSymbolTableRecord
100
AcDbLinetypeTableRecord
2
DASHEDX2
70
0
3
Dashedx2 ____  ____  ____  ____  ____  ___
72
65
73
2
40
1.5
49
1.0
74
0
49
-0.5
74
0
0
LTYPE
5
281
330
247
100
AcDbSymbolTableRecord
100
AcDbLinetypeTableRecord
2
DIVIDE
70
0
3
Divide ____ . . ____ . . ____ . . ____ . . ____
72
65
73
6
40
1.25
49
0.5
74
0
49
-0.25
74
0
49
0.0
74
0
49
-0.25
74
0
49
0.0
74
0
49
-0.25
74
0
0
LTYPE
5
282
330
247
100
AcDbSymbolTableRecord
100
AcDbLinetypeTableRecord
2
DIVIDE2
70
0
3
Divide2 __..__..__..__..__..__..__..__.._
72
65
73
6
40
0.625
49
0.25
74
0
49
-0.125
74
0
49
0.0
74
0
49
-0.125
74
0
49
0.0
74
0
49
-0.125
74
0
0
LTYPE
5
283
330
247
100
AcDbSymbolTableRecord
100
AcDbLinetypeTableRecord
2
DIVIDEX2
70
0
3
Dividex2 ________  .  .  ________  .  .  _
72
65
73
6
40
2.5
49
1.0
74
0
49
-0.5
74
0
49
0.0
74
0
49
-0.5
74
0
49
0.0
74
0
49
-0.5
74
0
0
LTYPE
5
284
330
247
100
AcDbSymbolTableRecord
100
AcDbLinetypeTableRecord
2
DOT
70
0
3
Dot . . . . . . . . . . . . . . . . . . . . . . . .
72
65
73
2
40
0.25
49
0.0
74
0
49
-0.25
74
0
0
LTYPE
5
285
330
247
100
AcDbSymbolTableRecord
100
AcDbLinetypeTableRecord
2
DOT2
70
0
3
Dot2 ........................................
72
65
73
2
40
0.125
49
0.0
74
0
49
-0.125
74
0
0
LTYPE
5
286
330
247
100
AcDbSymbolTableRecord
100
AcDbLinetypeTableRecord
2
DOTX2
70
0
3
Dotx2 .  .  .  .  .  .  .  .  .  .  .  .  .  .
72
65
73
2
40
0.5
49
0.0
74
0
49
-0.5
74
0
0
LTYPE
5
287
330
247
100
AcDbSymbolTableRecord
100
AcDbLinetypeTableRecord
2
HIDDENX2
70
0
3
Hiddenx2 ____ ____ ____ ____ ____ ____ ____
72
65
73
2
40
0.75
49
0.5
74
0
49
-0.25
74
0
0
LTYPE
5
288
330
247
100
AcDbSymbolTableRecord
100
AcDbLinetypeTableRecord
2
PHANTOM
70
0
3
Phantom ______  __  __  ______  __  __  ______
72
65
73
6
40
2.5
49
1.25
74
0
49
-0.25
74
0
49
0.25
74
0
49
-0.25
74
0
49
0.25
74
0
49
-0.25
74
0
0
LTYPE
5
289
330
247
100
AcDbSymbolTableRecord
100
AcDbLinetypeTableRecord
2
PHANTOM2
70
0
3
Phantom2 ___ _ _ ___ _ _ ___ _ _ ___ _ _
72
65
73
6
40
1.25
49
0.625
74
0
49
-0.125
74
0
49
0.125
74
0
49
-0.125
74
0
49
0.125
74
0
49
-0.125
74
0
0
LTYPE
5
28A
330
247
100
AcDbSymbolTableRecord
100
AcDbLinetypeTableRecord
2
PHANTOMX2
70
0
3
Phantomx2 ____________    ____    ____   _
72
65
73
6
40
5.0
49
2.5
74
0
49
-0.5
74
0
49
0.5
74
0
49
-0.5
74
0
49
0.5
74
0
49
-0.5
74
0
0
ENDTAB
0
TABLE
2
LAYER
5
244
330
0
100
AcDbSymbolTable
70
6
0
LAYER
5
252
330
244
100
AcDbSymbolTableRecord
100
AcDbLayerTableRecord
2
0
70
0
62
7
6
Continuous
370
0
390
251
0
LAYER
5
23F
330
244
100
AcDbSymbolTableRecord
100
AcDbLayerTableRecord
2
Bemassung
70
0
 62
   7
6
Continuous
370
0
390
251
0
LAYER
5
240
330
244
100
AcDbSymbolTableRecord
100
AcDbLayerTableRecord
2
Rahmen
70
0
 62
   7
6
Continuous
370
0
390
251
0
LAYER
5
241
330
244
100
AcDbSymbolTableRecord
100
AcDbLayerTableRecord
2
Geo
70
0
 62
   7
6
Continuous
370
0
390
251
0
LAYER
5
33A
330
244
100
AcDbSymbolTableRecord
100
AcDbLayerTableRecord
2
Defpoints
70
0
62
7
6
Continuous
290
0
370
-3
390
251
0
LAYER
5
57E
330
244
100
AcDbSymbolTableRecord
100
AcDbLayerTableRecord
2
Text
70
0
 62
   7
6
Continuous
370
0
390
251
1001
AcAecLayerStandard
1000

1000

0
ENDTAB
0
TABLE
2
STYLE
5
245
330
0
100
AcDbSymbolTable
70
2
0
STYLE
5
253
330
245
100
AcDbSymbolTableRecord
100
AcDbTextStyleTableRecord
2
Standard
70
0
40
0.0
41
1.0
50
0.0
71
0
42
0.2
3
Arial
4

1001
ACAD
1000
Arial
1071
0
0
STYLE
5
132
330
245
100
AcDbSymbolTableRecord
100
AcDbTextStyleTableRecord
2
Beschriftung
70
0
40
0.0
41
1.0
50
0.0
71
0
42
0.2
3
Arial
4

1001
ACAD
1000
Arial
1071
0
1001
AcadAnnotative
1000
AnnotativeData
1070
1
1070
1
0
ENDTAB
0
TABLE
2
VIEW
5
248
330
0
100
AcDbSymbolTable
70
0
0
ENDTAB
0
TABLE
2
UCS
5
249
330
0
100
AcDbSymbolTable
70
0
0
ENDTAB
0
TABLE
2
APPID
5
24B
330
0
100
AcDbSymbolTable
70
13
0
APPID
5
254
330
24B
100
AcDbSymbolTableRecord
100
AcDbRegAppTableRecord
2
ACAD
70
0
0
APPID
5
26C
330
24B
100
AcDbSymbolTableRecord
100
AcDbRegAppTableRecord
2
VD_INVISIBLE_NOT_FOR_READ
70
0
0
APPID
5
26D
330
24B
100
AcDbSymbolTableRecord
100
AcDbRegAppTableRecord
2
VD_TEMPHATCH
70
0
0
APPID
5
26E
330
24B
100
AcDbSymbolTableRecord
100
AcDbRegAppTableRecord
2
VDEXTRAPARAM
70
0
0
APPID
5
26F
330
24B
100
AcDbSymbolTableRecord
100
AcDbRegAppTableRecord
2
PE_URL
70
0
0
APPID
5
270
330
24B
100
AcDbSymbolTableRecord
100
AcDbRegAppTableRecord
2
VD_UNKNOWN
70
0
0
APPID
5
28F
330
24B
100
AcDbSymbolTableRecord
100
AcDbRegAppTableRecord
2
AcadAnnotative
70
0
0
APPID
5
290
330
24B
100
AcDbSymbolTableRecord
100
AcDbRegAppTableRecord
2
ACAD_DSTYLE_DIMJAG
70
0
0
APPID
5
291
330
24B
100
AcDbSymbolTableRecord
100
AcDbRegAppTableRecord
2
ACAD_DSTYLE_DIMTALN
70
0
0
APPID
5
293
330
24B
100
AcDbSymbolTableRecord
100
AcDbRegAppTableRecord
2
ACAD_PSEXT
70
0
0
APPID
5
42A
330
24B
100
AcDbSymbolTableRecord
100
AcDbRegAppTableRecord
2
ACAD_MLEADERVER
70
0
0
APPID
5
532
330
24B
100
AcDbSymbolTableRecord
100
AcDbRegAppTableRecord
2
ACAD_EXEMPT_FROM_CAD_STANDARDS
70
0
0
APPID
5
57F
330
24B
100
AcDbSymbolTableRecord
100
AcDbRegAppTableRecord
2
AcAecLayerStandard
70
0
0
ENDTAB
0
TABLE
2
DIMSTYLE
5
24C
330
0
100
AcDbSymbolTable
70
3
100
AcDbDimStyleTable
71
2
340
27
340
269
0
DIMSTYLE
105
269
330
24C
100
AcDbSymbolTableRecord
100
AcDbDimStyleTableRecord
2
Standard
70
0
172
1
174
1
288
1
340
253
342
23C
0
DIMSTYLE
105
137
330
24C
100
AcDbSymbolTableRecord
100
AcDbDimStyleTableRecord
2
Beschriftung
70
0
41
2.5
42
0.625
44
1.25
73
0
74
0
77
1
140
2.5
147
0.625
172
1
174
1
271
2
288
1
340
253
342
23C
1001
AcadAnnotative
1000
AnnotativeData
1070
1
1070
1
1001
ACAD_DSTYLE_DIMJAG
1070
388
1040
1.5
1001
ACAD_DSTYLE_DIMTALN
1070
392
1070
0
0
DIMSTYLE
105
27
102
{ACAD_REACTORS
102
}
330
24C
100
AcDbSymbolTableRecord
100
AcDbDimStyleTableRecord
2
BEM-ISBE
70
0
41
2.5
42
0.625
44
1.25
48
0.000000001
71
1
73
0
74
0
77
1
140
2.5
144
1.00000000000000
146
0.5
147
0.625
171
 3
172
 1
179
 3
271
 3
272
 3
274
 3
340
253
342
23C
1001
ACAD_DSTYLE_DIMJAG
1070
388
1040
1.5
1001
ACAD_DSTYLE_DIMTALN
1070
392
1070
1
0
ENDTAB
0
TABLE
2
BLOCK_RECORD
5
243
330
0
100
AcDbSymbolTable
70
5
0
BLOCK_RECORD
5
261
330
243
100
AcDbSymbolTableRecord
100
AcDbBlockTableRecord
2
*Model_Space
340
FD0
0
BLOCK_RECORD
5
25D
330
243
100
AcDbSymbolTableRecord
100
AcDbBlockTableRecord
2
*Paper_Space
340
FD1
0
BLOCK_RECORD
5
265
330
243
100
AcDbSymbolTableRecord
100
AcDbBlockTableRecord
2
*Paper_Space0
340
0
0
BLOCK_RECORD
5
23C
330
243
100
AcDbSymbolTableRecord
100
AcDbBlockTableRecord
2
VDDIM_DEFAULT
340
0
102
{BLKREFS
102
}
0
BLOCK_RECORD
5
23E
330
243
100
AcDbSymbolTableRecord
100
AcDbBlockTableRecord
2
VDDIM_NONE
340
0
0
ENDTAB
0
ENDSEC
0
SECTION
2
BLOCKS
0
BLOCK
5
262
330
261
100
AcDbEntity
8
0
100
AcDbBlockBegin
2
*Model_Space
70
0
10
0.0
20
0.0
30
0.0
3
*Model_Space
1

0
ENDBLK
5
263
330
261
100
AcDbEntity
8
0
100
AcDbBlockEnd
0
BLOCK
5
25E
330
25D
100
AcDbEntity
67
1
8
0
100
AcDbBlockBegin
2
*Paper_Space
70
0
10
0.0
20
0.0
30
0.0
3
*Paper_Space
1

0
ENDBLK
5
25F
330
25D
100
AcDbEntity
67
1
8
0
100
AcDbBlockEnd
0
BLOCK
5
266
330
265
100
AcDbEntity
8
0
100
AcDbBlockBegin
2
*Paper_Space0
70
0
10
0.0
20
0.0
30
0.0
3
*Paper_Space0
1

0
VIEWPORT
5
296
102
{ACAD_XDICTIONARY
360
58E
102
}
330
265
100
AcDbEntity
8
0
60
1
100
AcDbViewport
10
0.0
20
0.0
30
0.0
40
10.0
41
10.0
69
0
12
0.0
22
0.0
13
0.0
23
0.0
14
1.0
24
1.0
15
0.0
25
0.0
16
0.0
26
0.0
36
1.0
17
0.0
27
0.0
37
0.0
42
0.0
43
0.0
44
0.0
45
10.0
50
0.0
51
0.0000000000007958
72
100
90
163872
1

281
0
71
0
74
0
110
0.0
120
0.0
130
0.0
111
1.0
121
0.0
131
0.0
112
0.0
122
1.0
132
0.0
79
0
146
0.0
1001
VD_INVISIBLE_NOT_FOR_READ
1000
VD_INVISIBLE_NOT_FOR_READ
0
VIEWPORT
5
297
102
{ACAD_XDICTIONARY
360
590
102
}
330
265
100
AcDbEntity
8
0
60
1
100
AcDbViewport
10
0.0
20
0.0
30
0.0
40
10.0
41
10.0
69
0
12
0.0
22
0.0
13
0.0
23
0.0
14
1.0
24
1.0
15
0.0
25
0.0
16
0.0
26
0.0
36
1.0
17
0.0
27
0.0
37
0.0
42
0.0
43
0.0
44
0.0
45
10.0
50
0.0
51
0.0000000000007958
72
100
90
163872
1

281
0
71
0
74
0
110
0.0
120
0.0
130
0.0
111
1.0
121
0.0
131
0.0
112
0.0
122
1.0
132
0.0
79
0
146
0.0
1001
VD_INVISIBLE_NOT_FOR_READ
1000
VD_INVISIBLE_NOT_FOR_READ
0
ENDBLK
5
267
330
265
100
AcDbEntity
8
0
100
AcDbBlockEnd
0
BLOCK
5
28B
330
23C
100
AcDbEntity
8
0
100
AcDbBlockBegin
2
VDDIM_DEFAULT
70
0
10
0.0
20
0.0
30
0.0
3
VDDIM_DEFAULT
1

0
LWPOLYLINE
5
23D
330
23C
100
AcDbEntity
8
0
6
Continuous
62
0
100
AcDbPolyline
90
4
70
0
43
0.0
10
0.0
20
0.0
10
-1.0
20
-0.1665
10
-1.0
20
0.1665
10
0.0
20
0.0
1001
VDEXTRAPARAM
1071
1
1071
0
1071
0
1040
1.0
1000

1000

1040
0.0
1040
0.0
0
HATCH
5
292
330
23C
100
AcDbEntity
8
0
6
Continuous
62
0
100
AcDbHatch
10
0.0
20
0.0
30
0.0
210
0.0
220
0.0
230
1.0
2
SOLID
70
1
71
0
91
1
92
2
72
0
73
1
93
3
10
0.0
20
0.0
10
-1.0
20
-0.1665
10
-1.0
20
0.1665
97
0
75
0
76
1
98
1
10
0.0
20
0.0
1001
VDEXTRAPARAM
1071
1
1071
0
1071
0
1040
1.0
1000

1000

1040
0.0
1040
0.0
1001
VD_TEMPHATCH
1000
VD_TEMPHATCH
0
ENDBLK
5
28C
330
23C
100
AcDbEntity
8
0
100
AcDbBlockEnd
0
BLOCK
5
28D
330
23E
100
AcDbEntity
8
0
100
AcDbBlockBegin
2
VDDIM_NONE
70
0
10
0.0
20
0.0
30
0.0
3
VDDIM_NONE
1

0
ENDBLK
5
28E
330
23E
100
AcDbEntity
8
0
100
AcDbBlockEnd
0
ENDSEC
0
SECTION
2
ENTITIES
  0
ARC
  5
F10002
330
F10003
100
AcDbEntity
8
Geo
100
AcDbCircle
10
-57.5497518610422
20
22.1464019851117
30
0.00000000000000
 40
0.149999999999999
100
AcDbArc
 50
90.0000000000000
 51
180.000000000000
  0
LINE
  5
F10004
330
F10005
100
AcDbEntity
8
Geo
100
AcDbLine
10
-57.5497518610422
20
22.2964019851117
30
0.00000000000000
11
-57.3997518610422
21
22.2964019851117
31
0.00000000000000
  0
LINE
  5
F10006
330
F10007
100
AcDbEntity
8
Geo
100
AcDbLine
10
-57.3997518610422
20
22.2964019851117
30
0.00000000000000
11
-56.2040458550446
21
22.2964019851117
31
0.00000000000000
  0
LINE
  5
F10008
330
F10009
100
AcDbEntity
8
Geo
100
AcDbLine
10
-56.2040458550446
20
22.2964019851117
30
0.00000000000000
11
-49.2997518610422
21
24.1464019851117
31
0.00000000000000
  0
LINE
  5
F1000A
330
F1000B
100
AcDbEntity
8
Geo
100
AcDbLine
10
-49.2997518610422
20
24.1464019851117
30
0.00000000000000
11
-18.2997518610422
21
24.1464019851117
31
0.00000000000000
  0
LINE
  5
F1000C
330
F1000D
100
AcDbEntity
8
Geo
100
AcDbLine
10
-18.2997518610422
20
24.1464019851117
30
0.00000000000000
11
-17.6997518610422
21
23.5464019851117
31
0.00000000000000
  0
LINE
  5
F1000E
330
F1000F
100
AcDbEntity
8
Geo
100
AcDbLine
10
-57.6764185277088
20
22.2267484570663
30
0.00000000000000
11
-57.6764185277088
21
22.2266498831365
31
0.00000000000000
  0
LINE
  5
F10010
330
F10011
100
AcDbEntity
8
Geo
100
AcDbLine
10
-57.6764185277088
20
22.2266498831365
30
0.00000000000000
11
-57.6730851943755
21
22.2312014629026
31
0.00000000000000
  0
LINE
  5
F10012
330
F10013
100
AcDbEntity
8
Geo
100
AcDbLine
10
-57.6730851943755
20
22.2312014629026
30
0.00000000000000
11
-57.6697518610422
21
22.2352971568385
31
0.00000000000000
  0
LINE
  5
F10014
330
F10015
100
AcDbEntity
8
Geo
100
AcDbLine
10
-57.6697518610422
20
22.2352971568385
30
0.00000000000000
11
-57.6664185277088
21
22.2390877187862
31
0.00000000000000
  0
LINE
  5
F10016
330
F10017
100
AcDbEntity
8
Geo
100
AcDbLine
10
-57.6664185277088
20
22.2390877187862
30
0.00000000000000
11
-57.6630851943755
21
22.2426414233384
31
0.00000000000000
  0
LINE
  5
F10018
330
F10019
100
AcDbEntity
8
Geo
100
AcDbLine
10
-57.6630851943755
20
22.2426414233384
30
0.00000000000000
11
-57.6597518610422
21
22.2459965033967
31
0.00000000000000
  0
LINE
  5
F1001A
330
F1001B
100
AcDbEntity
8
Geo
100
AcDbLine
10
-57.6597518610422
20
22.2459965033967
30
0.00000000000000
11
-57.6564185277088
21
22.2491782804708
31
0.00000000000000
  0
LINE
  5
F1001C
330
F1001D
100
AcDbEntity
8
Geo
100
AcDbLine
10
-57.6564185277088
20
22.2491782804708
30
0.00000000000000
11
-57.6530851943755
21
22.2521891240876
31
0.00000000000000
  0
LINE
  5
F1001E
330
F1001F
100
AcDbEntity
8
Geo
100
AcDbLine
10
-57.6530851943755
20
22.2521891240876
30
0.00000000000000
11
-57.6497518610422
21
22.2549836700590
31
0.00000000000000
  0
LINE
  5
F10020
330
F10021
100
AcDbEntity
8
Geo
100
AcDbLine
10
-57.6497518610422
20
22.2549836700590
30
0.00000000000000
11
-57.6464185277088
21
22.2575712704470
31
0.00000000000000
  0
LINE
  5
F10022
330
F10023
100
AcDbEntity
8
Geo
100
AcDbLine
10
-57.6464185277088
20
22.2575712704470
30
0.00000000000000
11
-57.6430851943755
21
22.2599650718447
31
0.00000000000000
  0
LINE
  5
F10024
330
F10025
100
AcDbEntity
8
Geo
100
AcDbLine
10
-57.6430851943755
20
22.2599650718447
30
0.00000000000000
11
-57.6397518610422
21
22.2621762399207
31
0.00000000000000
  0
LINE
  5
F10026
330
F10027
100
AcDbEntity
8
Geo
100
AcDbLine
10
-57.6397518610422
20
22.2621762399207
30
0.00000000000000
11
-57.6364185277088
21
22.2642143563477
31
0.00000000000000
  0
LINE
  5
F10028
330
F10029
100
AcDbEntity
8
Geo
100
AcDbLine
10
-57.6364185277088
20
22.2642143563477
30
0.00000000000000
11
-57.6330851943755
21
22.2660877205618
31
0.00000000000000
  0
LINE
  5
F1002A
330
F1002B
100
AcDbEntity
8
Geo
100
AcDbLine
10
-57.6330851943755
20
22.2660877205618
30
0.00000000000000
11
-57.6297518610422
21
22.2678035828069
31
0.00000000000000
  0
LINE
  5
F1002C
330
F1002D
100
AcDbEntity
8
Geo
100
AcDbLine
10
-57.6297518610422
20
22.2678035828069
30
0.00000000000000
11
-57.6264185277088
21
22.2693683266419
31
0.00000000000000
  0
LINE
  5
F1002E
330
F1002F
100
AcDbEntity
8
Geo
100
AcDbLine
10
-57.6264185277088
20
22.2693683266419
30
0.00000000000000
11
-57.6230851943755
21
22.2707876136656
31
0.00000000000000
  0
LINE
  5
F10030
330
F10031
100
AcDbEntity
8
Geo
100
AcDbLine
10
-57.6230851943755
20
22.2707876136656
30
0.00000000000000
11
-57.6197518610422
21
22.2720664995730
31
0.00000000000000
  0
LINE
  5
F10032
330
F10033
100
AcDbEntity
8
Geo
100
AcDbLine
10
-57.6197518610422
20
22.2720664995730
30
0.00000000000000
11
-57.6164185277088
21
22.2732095281671
31
0.00000000000000
  0
LINE
  5
F10034
330
F10035
100
AcDbEntity
8
Geo
100
AcDbLine
10
-57.6164185277088
20
22.2732095281671
30
0.00000000000000
11
-57.6130851943755
21
22.2742208082145
31
0.00000000000000
  0
LINE
  5
F10036
330
F10037
100
AcDbEntity
8
Geo
100
AcDbLine
10
-57.6130851943755
20
22.2742208082145
30
0.00000000000000
11
-57.6097518610422
21
22.2751040767981
31
0.00000000000000
  0
LINE
  5
F10038
330
F10039
100
AcDbEntity
8
Geo
100
AcDbLine
10
-57.6097518610422
20
22.2751040767981
30
0.00000000000000
11
-57.6064185277088
21
22.2758627519356
31
0.00000000000000
  0
LINE
  5
F1003A
330
F1003B
100
AcDbEntity
8
Geo
100
AcDbLine
10
-57.6064185277088
20
22.2758627519356
30
0.00000000000000
11
-57.6030851943755
21
22.2764999765833
31
0.00000000000000
  0
LINE
  5
F1003C
330
F1003D
100
AcDbEntity
8
Geo
100
AcDbLine
10
-57.6030851943755
20
22.2764999765833
30
0.00000000000000
11
-57.5997518610422
21
22.2770186556664
31
0.00000000000000
  0
LINE
  5
F1003E
330
F1003F
100
AcDbEntity
8
Geo
100
AcDbLine
10
-57.5997518610422
20
22.2770186556664
30
0.00000000000000
11
-57.5964185277088
21
22.2774214874173
31
0.00000000000000
  0
LINE
  5
F10040
330
F10041
100
AcDbEntity
8
Geo
100
AcDbLine
10
-57.5964185277088
20
22.2774214874173
30
0.00000000000000
11
-57.5930851943755
21
22.2777109900344
31
0.00000000000000
  0
LINE
  5
F10042
330
F10043
100
AcDbEntity
8
Geo
100
AcDbLine
10
-57.5930851943755
20
22.2777109900344
30
0.00000000000000
11
-57.5897518610422
21
22.2778895244621
31
0.00000000000000
  0
LINE
  5
F10044
330
F10045
100
AcDbEntity
8
Geo
100
AcDbLine
10
-57.5897518610422
20
22.2778895244621
30
0.00000000000000
11
-57.5864185277088
21
22.2779593139387
31
0.00000000000000
  0
LINE
  5
F10046
330
F10047
100
AcDbEntity
8
Geo
100
AcDbLine
10
-57.5864185277088
20
22.2779593139387
30
0.00000000000000
11
-57.5830851943755
21
22.2779224608279
31
0.00000000000000
  0
LINE
  5
F10048
330
F10049
100
AcDbEntity
8
Geo
100
AcDbLine
10
-57.5830851943755
20
22.2779224608279
30
0.00000000000000
11
-57.5797518610422
21
22.2777809611566
31
0.00000000000000
  0
LINE
  5
F1004A
330
F1004B
100
AcDbEntity
8
Geo
100
AcDbLine
10
-57.5797518610422
20
22.2777809611566
30
0.00000000000000
11
-57.5764185277088
21
22.2775367172011
31
0.00000000000000
  0
LINE
  5
F1004C
330
F1004D
100
AcDbEntity
8
Geo
100
AcDbLine
10
-57.5764185277088
20
22.2775367172011
30
0.00000000000000
11
-57.5730851943755
21
22.2771915484037
31
0.00000000000000
  0
LINE
  5
F1004E
330
F1004F
100
AcDbEntity
8
Geo
100
AcDbLine
10
-57.5730851943755
20
22.2771915484037
30
0.00000000000000
11
-57.5697518610422
21
22.2767472008496
31
0.00000000000000
  0
LINE
  5
F10050
330
F10051
100
AcDbEntity
8
Geo
100
AcDbLine
10
-57.5697518610422
20
22.2767472008496
30
0.00000000000000
11
-57.5664185277088
21
22.2762053554978
31
0.00000000000000
  0
LINE
  5
F10052
330
F10053
100
AcDbEntity
8
Geo
100
AcDbLine
10
-57.5664185277088
20
22.2762053554978
30
0.00000000000000
11
-57.5630851943755
21
22.2755676353203
31
0.00000000000000
  0
LINE
  5
F10054
330
F10055
100
AcDbEntity
8
Geo
100
AcDbLine
10
-57.5630851943755
20
22.2755676353203
30
0.00000000000000
11
-57.5597518610422
21
22.2748356114838
31
0.00000000000000
  0
LINE
  5
F10056
330
F10057
100
AcDbEntity
8
Geo
100
AcDbLine
10
-57.5597518610422
20
22.2748356114838
30
0.00000000000000
11
-57.5564185277088
21
22.2740108086794
31
0.00000000000000
  0
LINE
  5
F10058
330
F10059
100
AcDbEntity
8
Geo
100
AcDbLine
10
-57.5564185277088
20
22.2740108086794
30
0.00000000000000
11
-57.5530851943755
21
22.2730947096895
31
0.00000000000000
  0
LINE
  5
F1005A
330
F1005B
100
AcDbEntity
8
Geo
100
AcDbLine
10
-57.5530851943755
20
22.2730947096895
30
0.00000000000000
11
-57.5497518610422
21
22.2720887592659
31
0.00000000000000
  0
LINE
  5
F1005C
330
F1005D
100
AcDbEntity
8
Geo
100
AcDbLine
10
-57.5497518610422
20
22.2720887592659
30
0.00000000000000
11
-57.5464185277088
21
22.2710280402396
31
0.00000000000000
  0
LINE
  5
F1005E
330
F1005F
100
AcDbEntity
8
Geo
100
AcDbLine
10
-57.5464185277088
20
22.2710280402396
30
0.00000000000000
11
-57.5430851943755
21
22.2699468069177
31
0.00000000000000
  0
LINE
  5
F10060
330
F10061
100
AcDbEntity
8
Geo
100
AcDbLine
10
-57.5430851943755
20
22.2699468069177
30
0.00000000000000
11
-57.5397518610422
21
22.2688452372785
31
0.00000000000000
  0
LINE
  5
F10062
330
F10063
100
AcDbEntity
8
Geo
100
AcDbLine
10
-57.5397518610422
20
22.2688452372785
30
0.00000000000000
11
-57.5364185277088
21
22.2677235126480
31
0.00000000000000
  0
LINE
  5
F10064
330
F10065
100
AcDbEntity
8
Geo
100
AcDbLine
10
-57.5364185277088
20
22.2677235126480
30
0.00000000000000
11
-57.5330851943755
21
22.2665818176697
31
0.00000000000000
  0
LINE
  5
F10066
330
F10067
100
AcDbEntity
8
Geo
100
AcDbLine
10
-57.5330851943755
20
22.2665818176697
30
0.00000000000000
11
-57.5297518610422
21
22.2654203402742
31
0.00000000000000
  0
LINE
  5
F10068
330
F10069
100
AcDbEntity
8
Geo
100
AcDbLine
10
-57.5297518610422
20
22.2654203402742
30
0.00000000000000
11
-57.5264185277088
21
22.2642392716486
31
0.00000000000000
  0
LINE
  5
F1006A
330
F1006B
100
AcDbEntity
8
Geo
100
AcDbLine
10
-57.5264185277088
20
22.2642392716486
30
0.00000000000000
11
-57.5230851943755
21
22.2630388062050
31
0.00000000000000
  0
LINE
  5
F1006C
330
F1006D
100
AcDbEntity
8
Geo
100
AcDbLine
10
-57.5230851943755
20
22.2630388062050
30
0.00000000000000
11
-57.5197518610422
21
22.2618191415479
31
0.00000000000000
  0
LINE
  5
F1006E
330
F1006F
100
AcDbEntity
8
Geo
100
AcDbLine
10
-57.5197518610422
20
22.2618191415479
30
0.00000000000000
11
-57.5164185277088
21
22.2605804784426
31
0.00000000000000
  0
LINE
  5
F10070
330
F10071
100
AcDbEntity
8
Geo
100
AcDbLine
10
-57.5164185277088
20
22.2605804784426
30
0.00000000000000
11
-57.5130851943755
21
22.2593230207814
31
0.00000000000000
  0
LINE
  5
F10072
330
F10073
100
AcDbEntity
8
Geo
100
AcDbLine
10
-57.5130851943755
20
22.2593230207814
30
0.00000000000000
11
-57.5097518610422
21
22.2580469755504
31
0.00000000000000
  0
LINE
  5
F10074
330
F10075
100
AcDbEntity
8
Geo
100
AcDbLine
10
-57.5097518610422
20
22.2580469755504
30
0.00000000000000
11
-57.5064185277088
21
22.2567525527953
31
0.00000000000000
  0
LINE
  5
F10076
330
F10077
100
AcDbEntity
8
Geo
100
AcDbLine
10
-57.5064185277088
20
22.2567525527953
30
0.00000000000000
11
-57.5030851943755
21
22.2554399655868
31
0.00000000000000
  0
LINE
  5
F10078
330
F10079
100
AcDbEntity
8
Geo
100
AcDbLine
10
-57.5030851943755
20
22.2554399655868
30
0.00000000000000
11
-57.4997518610422
21
22.2541094299858
31
0.00000000000000
  0
LINE
  5
F1007A
330
F1007B
100
AcDbEntity
8
Geo
100
AcDbLine
10
-57.4997518610422
20
22.2541094299858
30
0.00000000000000
11
-57.4964185277088
21
22.2527611650075
31
0.00000000000000
  0
LINE
  5
F1007C
330
F1007D
100
AcDbEntity
8
Geo
100
AcDbLine
10
-57.4964185277088
20
22.2527611650075
30
0.00000000000000
11
-57.4930851943755
21
22.2513953925853
31
0.00000000000000
  0
LINE
  5
F1007E
330
F1007F
100
AcDbEntity
8
Geo
100
AcDbLine
10
-57.4930851943755
20
22.2513953925853
30
0.00000000000000
11
-57.4897518610422
21
22.2500123375348
31
0.00000000000000
  0
LINE
  5
F10080
330
F10081
100
AcDbEntity
8
Geo
100
AcDbLine
10
-57.4897518610422
20
22.2500123375348
30
0.00000000000000
11
-57.4864185277088
21
22.2486122275163
31
0.00000000000000
  0
LINE
  5
F10082
330
F10083
100
AcDbEntity
8
Geo
100
AcDbLine
10
-57.4864185277088
20
22.2486122275163
30
0.00000000000000
11
-57.4830851943755
21
22.2471952929972
31
0.00000000000000
  0
LINE
  5
F10084
330
F10085
100
AcDbEntity
8
Geo
100
AcDbLine
10
-57.4830851943755
20
22.2471952929972
30
0.00000000000000
11
-57.4797518610422
21
22.2457617672147
31
0.00000000000000
  0
LINE
  5
F10086
330
F10087
100
AcDbEntity
8
Geo
100
AcDbLine
10
-57.4797518610422
20
22.2457617672147
30
0.00000000000000
11
-57.4764185277088
21
22.2443118861369
31
0.00000000000000
  0
LINE
  5
F10088
330
F10089
100
AcDbEntity
8
Geo
100
AcDbLine
10
-57.4764185277088
20
22.2443118861369
30
0.00000000000000
11
-57.4730851943755
21
22.2428458884241
31
0.00000000000000
  0
LINE
  5
F1008A
330
F1008B
100
AcDbEntity
8
Geo
100
AcDbLine
10
-57.4730851943755
20
22.2428458884241
30
0.00000000000000
11
-57.4697518610422
21
22.2413640153893
31
0.00000000000000
  0
LINE
  5
F1008C
330
F1008D
100
AcDbEntity
8
Geo
100
AcDbLine
10
-57.4697518610422
20
22.2413640153893
30
0.00000000000000
11
-57.4664185277088
21
22.2398665109591
31
0.00000000000000
  0
LINE
  5
F1008E
330
F1008F
100
AcDbEntity
8
Geo
100
AcDbLine
10
-57.4664185277088
20
22.2398665109591
30
0.00000000000000
11
-57.4630851943755
21
22.2383536216328
31
0.00000000000000
  0
LINE
  5
F10090
330
F10091
100
AcDbEntity
8
Geo
100
AcDbLine
10
-57.4630851943755
20
22.2383536216328
30
0.00000000000000
11
-57.4597518610422
21
22.2368255964422
31
0.00000000000000
  0
LINE
  5
F10092
330
F10093
100
AcDbEntity
8
Geo
100
AcDbLine
10
-57.4597518610422
20
22.2368255964422
30
0.00000000000000
11
-57.4564185277088
21
22.2352826869108
31
0.00000000000000
  0
LINE
  5
F10094
330
F10095
100
AcDbEntity
8
Geo
100
AcDbLine
10
-57.4564185277088
20
22.2352826869108
30
0.00000000000000
11
-57.4530851943755
21
22.2337251470118
31
0.00000000000000
  0
LINE
  5
F10096
330
F10097
100
AcDbEntity
8
Geo
100
AcDbLine
10
-57.4530851943755
20
22.2337251470118
30
0.00000000000000
11
-57.4497518610422
21
22.2321532331270
31
0.00000000000000
  0
LINE
  5
F10098
330
F10099
100
AcDbEntity
8
Geo
100
AcDbLine
10
-57.4497518610422
20
22.2321532331270
30
0.00000000000000
11
-57.4464185277088
21
22.2305672040041
31
0.00000000000000
  0
LINE
  5
F1009A
330
F1009B
100
AcDbEntity
8
Geo
100
AcDbLine
10
-57.4464185277088
20
22.2305672040041
30
0.00000000000000
11
-57.4430851943755
21
22.2289673207142
31
0.00000000000000
  0
LINE
  5
F1009C
330
F1009D
100
AcDbEntity
8
Geo
100
AcDbLine
10
-57.4430851943755
20
22.2289673207142
30
0.00000000000000
11
-57.4397518610422
21
22.2273538466089
31
0.00000000000000
  0
LINE
  5
F1009E
330
F1009F
100
AcDbEntity
8
Geo
100
AcDbLine
10
-57.4397518610422
20
22.2273538466089
30
0.00000000000000
11
-57.4364185277088
21
22.2257270472772
31
0.00000000000000
  0
LINE
  5
F100A0
330
F100A1
100
AcDbEntity
8
Geo
100
AcDbLine
10
-57.4364185277088
20
22.2257270472772
30
0.00000000000000
11
-57.4330851943755
21
22.2240871905011
31
0.00000000000000
  0
LINE
  5
F100A2
330
F100A3
100
AcDbEntity
8
Geo
100
AcDbLine
10
-57.4330851943755
20
22.2240871905011
30
0.00000000000000
11
-57.4297518610422
21
22.2224345462124
31
0.00000000000000
  0
LINE
  5
F100A4
330
F100A5
100
AcDbEntity
8
Geo
100
AcDbLine
10
-57.4297518610422
20
22.2224345462124
30
0.00000000000000
11
-57.4264185277088
21
22.2207693864474
31
0.00000000000000
  0
LINE
  5
F100A6
330
F100A7
100
AcDbEntity
8
Geo
100
AcDbLine
10
-57.4264185277088
20
22.2207693864474
30
0.00000000000000
11
-57.4230851943755
21
22.2190919853028
31
0.00000000000000
  0
LINE
  5
F100A8
330
F100A9
100
AcDbEntity
8
Geo
100
AcDbLine
10
-57.4230851943755
20
22.2190919853028
30
0.00000000000000
11
-57.4197518610422
21
22.2174026188902
31
0.00000000000000
  0
LINE
  5
F100AA
330
F100AB
100
AcDbEntity
8
Geo
100
AcDbLine
10
-57.4197518610422
20
22.2174026188902
30
0.00000000000000
11
-57.4164185277088
21
22.2157015652908
31
0.00000000000000
  0
LINE
  5
F100AC
330
F100AD
100
AcDbEntity
8
Geo
100
AcDbLine
10
-57.4164185277088
20
22.2157015652908
30
0.00000000000000
11
-57.4130851943755
21
22.2139891045095
31
0.00000000000000
  0
LINE
  5
F100AE
330
F100AF
100
AcDbEntity
8
Geo
100
AcDbLine
10
-57.4130851943755
20
22.2139891045095
30
0.00000000000000
11
-57.4097518610422
21
22.2122655184292
31
0.00000000000000
  0
LINE
  5
F100B0
330
F100B1
100
AcDbEntity
8
Geo
100
AcDbLine
10
-57.4097518610422
20
22.2122655184292
30
0.00000000000000
11
-57.4064185277088
21
22.2105310907636
31
0.00000000000000
  0
LINE
  5
F100B2
330
F100B3
100
AcDbEntity
8
Geo
100
AcDbLine
10
-57.4064185277088
20
22.2105310907636
30
0.00000000000000
11
-57.4030851943755
21
22.2087861070115
31
0.00000000000000
  0
LINE
  5
F100B4
330
F100B5
100
AcDbEntity
8
Geo
100
AcDbLine
10
-57.4030851943755
20
22.2087861070115
30
0.00000000000000
11
-57.3997518610422
21
22.2070308544090
31
0.00000000000000
  0
LINE
  5
F100B6
330
F100B7
100
AcDbEntity
8
Geo
100
AcDbLine
10
-57.6764185277088
20
22.1814645927843
30
0.00000000000000
11
-57.6764185277088
21
22.0660555131570
31
0.00000000000000
  0
LINE
  5
F100B8
330
F100B9
100
AcDbEntity
8
Geo
100
AcDbLine
10
-57.6764185277088
20
22.2266498831365
30
0.00000000000000
11
-57.6764185277088
21
22.2267484570663
31
0.00000000000000
  0
LINE
  5
F100BA
330
F100BB
100
AcDbEntity
8
Geo
100
AcDbLine
10
-57.6764185277088
20
22.0660555131570
30
0.00000000000000
11
-57.6764185277088
21
22.1814645927843
31
0.00000000000000
  0
LINE
  5
F100BC
330
F100BD
100
AcDbEntity
8
Geo
100
AcDbLine
10
-57.6764185277088
20
22.1814645927843
30
0.00000000000000
11
-57.6730851943755
21
22.1924747315109
31
0.00000000000000
  0
LINE
  5
F100BE
330
F100BF
100
AcDbEntity
8
Geo
100
AcDbLine
10
-57.6730851943755
20
22.1924747315109
30
0.00000000000000
11
-57.6697518610422
21
22.2004917491163
31
0.00000000000000
  0
LINE
  5
F100C0
330
F100C1
100
AcDbEntity
8
Geo
100
AcDbLine
10
-57.6697518610422
20
22.2004917491163
30
0.00000000000000
11
-57.6664185277088
21
22.2069376232131
31
0.00000000000000
  0
LINE
  5
F100C2
330
F100C3
100
AcDbEntity
8
Geo
100
AcDbLine
10
-57.6664185277088
20
22.2069376232131
30
0.00000000000000
11
-57.6630851943755
21
22.2123579758846
31
0.00000000000000
  0
LINE
  5
F100C4
330
F100C5
100
AcDbEntity
8
Geo
100
AcDbLine
10
-57.6630851943755
20
22.2123579758846
30
0.00000000000000
11
-57.6597518610422
21
22.2170315922877
31
0.00000000000000
  0
LINE
  5
F100C6
330
F100C7
100
AcDbEntity
8
Geo
100
AcDbLine
10
-57.6597518610422
20
22.2170315922877
30
0.00000000000000
11
-57.6564185277088
21
22.2211237251030
31
0.00000000000000
  0
LINE
  5
F100C8
330
F100C9
100
AcDbEntity
8
Geo
100
AcDbLine
10
-57.6564185277088
20
22.2211237251030
30
0.00000000000000
11
-57.6530851943755
21
22.2247418690897
31
0.00000000000000
  0
LINE
  5
F100CA
330
F100CB
100
AcDbEntity
8
Geo
100
AcDbLine
10
-57.6530851943755
20
22.2247418690897
30
0.00000000000000
11
-57.6497518610422
21
22.2279605807993
31
0.00000000000000
  0
LINE
  5
F100CC
330
F100CD
100
AcDbEntity
8
Geo
100
AcDbLine
10
-57.6497518610422
20
22.2279605807993
30
0.00000000000000
11
-57.6464185277088
21
22.2308340677071
31
0.00000000000000
  0
LINE
  5
F100CE
330
F100CF
100
AcDbEntity
8
Geo
100
AcDbLine
10
-57.6464185277088
20
22.2308340677071
30
0.00000000000000
11
-57.6430851943755
21
22.2334031958608
31
0.00000000000000
  0
LINE
  5
F100D0
330
F100D1
100
AcDbEntity
8
Geo
100
AcDbLine
10
-57.6430851943755
20
22.2334031958608
30
0.00000000000000
11
-57.6397518610422
21
22.2356996728728
31
0.00000000000000
  0
LINE
  5
F100D2
330
F100D3
100
AcDbEntity
8
Geo
100
AcDbLine
10
-57.6397518610422
20
22.2356996728728
30
0.00000000000000
11
-57.6364185277088
21
22.2377486848851
31
0.00000000000000
  0
LINE
  5
F100D4
330
F100D5
100
AcDbEntity
8
Geo
100
AcDbLine
10
-57.6364185277088
20
22.2377486848851
30
0.00000000000000
11
-57.6330851943755
21
22.2395706335131
31
0.00000000000000
  0
LINE
  5
F100D6
330
F100D7
100
AcDbEntity
8
Geo
100
AcDbLine
10
-57.6330851943755
20
22.2395706335131
30
0.00000000000000
11
-57.6297518610422
21
22.2411823220203
31
0.00000000000000
  0
LINE
  5
F100D8
330
F100D9
100
AcDbEntity
8
Geo
100
AcDbLine
10
-57.6297518610422
20
22.2411823220203
30
0.00000000000000
11
-57.6264185277088
21
22.2425977902377
31
0.00000000000000
  0
LINE
  5
F100DA
330
F100DB
100
AcDbEntity
8
Geo
100
AcDbLine
10
-57.6264185277088
20
22.2425977902377
30
0.00000000000000
11
-57.6230851943755
21
22.2438289175412
31
0.00000000000000
  0
LINE
  5
F100DC
330
F100DD
100
AcDbEntity
8
Geo
100
AcDbLine
10
-57.6230851943755
20
22.2438289175412
30
0.00000000000000
11
-57.6197518610422
21
22.2448858680552
31
0.00000000000000
  0
LINE
  5
F100DE
330
F100DF
100
AcDbEntity
8
Geo
100
AcDbLine
10
-57.6197518610422
20
22.2448858680552
30
0.00000000000000
11
-57.6164185277088
21
22.2457774257395
31
0.00000000000000
  0
LINE
  5
F100E0
330
F100E1
100
AcDbEntity
8
Geo
100
AcDbLine
10
-57.6164185277088
20
22.2457774257395
30
0.00000000000000
11
-57.6130851943755
21
22.2465112508765
31
0.00000000000000
  0
LINE
  5
F100E2
330
F100E3
100
AcDbEntity
8
Geo
100
AcDbLine
10
-57.6130851943755
20
22.2465112508765
30
0.00000000000000
11
-57.6097518610422
21
22.2470940793331
31
0.00000000000000
  0
LINE
  5
F100E4
330
F100E5
100
AcDbEntity
8
Geo
100
AcDbLine
10
-57.6097518610422
20
22.2470940793331
30
0.00000000000000
11
-57.6064185277088
21
22.2475318794184
31
0.00000000000000
  0
LINE
  5
F100E6
330
F100E7
100
AcDbEntity
8
Geo
100
AcDbLine
10
-57.6064185277088
20
22.2475318794184
30
0.00000000000000
11
-57.6030851943755
21
22.2478299768182
31
0.00000000000000
  0
LINE
  5
F100E8
330
F100E9
100
AcDbEntity
8
Geo
100
AcDbLine
10
-57.6030851943755
20
22.2478299768182
30
0.00000000000000
11
-57.5997518610422
21
22.2479931551531
31
0.00000000000000
  0
LINE
  5
F100EA
330
F100EB
100
AcDbEntity
8
Geo
100
AcDbLine
10
-57.5997518610422
20
22.2479931551531
30
0.00000000000000
11
-57.5964185277088
21
22.2480257376793
31
0.00000000000000
  0
LINE
  5
F100EC
330
F100ED
100
AcDbEntity
8
Geo
100
AcDbLine
10
-57.5964185277088
20
22.2480257376793
30
0.00000000000000
11
-57.5930851943755
21
22.2479316542260
31
0.00000000000000
  0
LINE
  5
F100EE
330
F100EF
100
AcDbEntity
8
Geo
100
AcDbLine
10
-57.5930851943755
20
22.2479316542260
30
0.00000000000000
11
-57.5897518610422
21
22.2477144964482
31
0.00000000000000
  0
LINE
  5
F100F0
330
F100F1
100
AcDbEntity
8
Geo
100
AcDbLine
10
-57.5897518610422
20
22.2477144964482
30
0.00000000000000
11
-57.5864185277088
21
22.2473775637353
31
0.00000000000000
  0
LINE
  5
F100F2
330
F100F3
100
AcDbEntity
8
Geo
100
AcDbLine
10
-57.5864185277088
20
22.2473775637353
30
0.00000000000000
11
-57.5830851943755
21
22.2469239015762
31
0.00000000000000
  0
LINE
  5
F100F4
330
F100F5
100
AcDbEntity
8
Geo
100
AcDbLine
10
-57.5830851943755
20
22.2469239015762
30
0.00000000000000
11
-57.5797518610422
21
22.2463563337755
31
0.00000000000000
  0
LINE
  5
F100F6
330
F100F7
100
AcDbEntity
8
Geo
100
AcDbLine
10
-57.5797518610422
20
22.2463563337755
30
0.00000000000000
11
-57.5764185277088
21
22.2456774896160
31
0.00000000000000
  0
LINE
  5
F100F8
330
F100F9
100
AcDbEntity
8
Geo
100
AcDbLine
10
-57.5764185277088
20
22.2456774896160
30
0.00000000000000
11
-57.5730851943755
21
22.2448898268279
31
0.00000000000000
  0
LINE
  5
F100FA
330
F100FB
100
AcDbEntity
8
Geo
100
AcDbLine
10
-57.5730851943755
20
22.2448898268279
30
0.00000000000000
11
-57.5697518610422
21
22.2439956510502
31
0.00000000000000
  0
LINE
  5
F100FC
330
F100FD
100
AcDbEntity
8
Geo
100
AcDbLine
10
-57.5697518610422
20
22.2439956510502
30
0.00000000000000
11
-57.5664185277088
21
22.2429971323294
31
0.00000000000000
  0
LINE
  5
F100FE
330
F100FF
100
AcDbEntity
8
Geo
100
AcDbLine
10
-57.5664185277088
20
22.2429971323294
30
0.00000000000000
11
-57.5630851943755
21
22.2418963190921
31
0.00000000000000
  0
LINE
  5
F10100
330
F10101
100
AcDbEntity
8
Geo
100
AcDbLine
10
-57.5630851943755
20
22.2418963190921
30
0.00000000000000
11
-57.5597518610422
21
22.2406951499422
31
0.00000000000000
  0
LINE
  5
F10102
330
F10103
100
AcDbEntity
8
Geo
100
AcDbLine
10
-57.5597518610422
20
22.2406951499422
30
0.00000000000000
11
-57.5564185277088
21
22.2393954635633
31
0.00000000000000
  0
LINE
  5
F10104
330
F10105
100
AcDbEntity
8
Geo
100
AcDbLine
10
-57.5564185277088
20
22.2393954635633
30
0.00000000000000
11
-57.5530851943755
21
22.2379990069478
31
0.00000000000000
  0
LINE
  5
F10106
330
F10107
100
AcDbEntity
8
Geo
100
AcDbLine
10
-57.5530851943755
20
22.2379990069478
30
0.00000000000000
11
-57.5497518610422
21
22.2365074421310
31
0.00000000000000
  0
LINE
  5
F10108
330
F10109
100
AcDbEntity
8
Geo
100
AcDbLine
10
-57.5497518610422
20
22.2365074421310
30
0.00000000000000
11
-57.5464185277088
21
22.2349614833286
31
0.00000000000000
  0
LINE
  5
F1010A
330
F1010B
100
AcDbEntity
8
Geo
100
AcDbLine
10
-57.5464185277088
20
22.2349614833286
30
0.00000000000000
11
-57.5430851943755
21
22.2334009470309
31
0.00000000000000
  0
LINE
  5
F1010C
330
F1010D
100
AcDbEntity
8
Geo
100
AcDbLine
10
-57.5430851943755
20
22.2334009470309
30
0.00000000000000
11
-57.5397518610422
21
22.2318260901130
31
0.00000000000000
  0
LINE
  5
F1010E
330
F1010F
100
AcDbEntity
8
Geo
100
AcDbLine
10
-57.5397518610422
20
22.2318260901130
30
0.00000000000000
11
-57.5364185277088
21
22.2302371718068
31
0.00000000000000
  0
LINE
  5
F10110
330
F10111
100
AcDbEntity
8
Geo
100
AcDbLine
10
-57.5364185277088
20
22.2302371718068
30
0.00000000000000
11
-57.5330851943755
21
22.2286344536592
31
0.00000000000000
  0
LINE
  5
F10112
330
F10113
100
AcDbEntity
8
Geo
100
AcDbLine
10
-57.5330851943755
20
22.2286344536592
30
0.00000000000000
11
-57.5297518610422
21
22.2270181994885
31
0.00000000000000
  0
LINE
  5
F10114
330
F10115
100
AcDbEntity
8
Geo
100
AcDbLine
10
-57.5297518610422
20
22.2270181994885
30
0.00000000000000
11
-57.5264185277088
21
22.2253886753411
31
0.00000000000000
  0
LINE
  5
F10116
330
F10117
100
AcDbEntity
8
Geo
100
AcDbLine
10
-57.5264185277088
20
22.2253886753411
30
0.00000000000000
11
-57.5230851943755
21
22.2237461494477
31
0.00000000000000
  0
LINE
  5
F10118
330
F10119
100
AcDbEntity
8
Geo
100
AcDbLine
10
-57.5230851943755
20
22.2237461494477
30
0.00000000000000
11
-57.5197518610422
21
22.2220908921793
31
0.00000000000000
  0
LINE
  5
F1011A
330
F1011B
100
AcDbEntity
8
Geo
100
AcDbLine
10
-57.5197518610422
20
22.2220908921793
30
0.00000000000000
11
-57.5164185277088
21
22.2204231760024
31
0.00000000000000
  0
LINE
  5
F1011C
330
F1011D
100
AcDbEntity
8
Geo
100
AcDbLine
10
-57.5164185277088
20
22.2204231760024
30
0.00000000000000
11
-57.5130851943755
21
22.2187432754344
31
0.00000000000000
  0
LINE
  5
F1011E
330
F1011F
100
AcDbEntity
8
Geo
100
AcDbLine
10
-57.5130851943755
20
22.2187432754344
30
0.00000000000000
11
-57.5097518610422
21
22.2170514669985
31
0.00000000000000
  0
LINE
  5
F10120
330
F10121
100
AcDbEntity
8
Geo
100
AcDbLine
10
-57.5097518610422
20
22.2170514669985
30
0.00000000000000
11
-57.5064185277088
21
22.2153480291778
31
0.00000000000000
  0
LINE
  5
F10122
330
F10123
100
AcDbEntity
8
Geo
100
AcDbLine
10
-57.5064185277088
20
22.2153480291778
30
0.00000000000000
11
-57.5030851943755
21
22.2136332423697
31
0.00000000000000
  0
LINE
  5
F10124
330
F10125
100
AcDbEntity
8
Geo
100
AcDbLine
10
-57.5030851943755
20
22.2136332423697
30
0.00000000000000
11
-57.4997518610422
21
22.2119073888398
31
0.00000000000000
  0
LINE
  5
F10126
330
F10127
100
AcDbEntity
8
Geo
100
AcDbLine
10
-57.4997518610422
20
22.2119073888398
30
0.00000000000000
11
-57.4964185277088
21
22.2101707526753
31
0.00000000000000
  0
LINE
  5
F10128
330
F10129
100
AcDbEntity
8
Geo
100
AcDbLine
10
-57.4964185277088
20
22.2101707526753
30
0.00000000000000
11
-57.4930851943755
21
22.2084236197383
31
0.00000000000000
  0
LINE
  5
F1012A
330
F1012B
100
AcDbEntity
8
Geo
100
AcDbLine
10
-57.4930851943755
20
22.2084236197383
30
0.00000000000000
11
-57.4897518610422
21
22.2066662776188
31
0.00000000000000
  0
LINE
  5
F1012C
330
F1012D
100
AcDbEntity
8
Geo
100
AcDbLine
10
-57.4897518610422
20
22.2066662776188
30
0.00000000000000
11
-57.4864185277088
21
22.2048990155872
31
0.00000000000000
  0
LINE
  5
F1012E
330
F1012F
100
AcDbEntity
8
Geo
100
AcDbLine
10
-57.4864185277088
20
22.2048990155872
30
0.00000000000000
11
-57.4830851943755
21
22.2031221245469
31
0.00000000000000
  0
LINE
  5
F10130
330
F10131
100
AcDbEntity
8
Geo
100
AcDbLine
10
-57.4830851943755
20
22.2031221245469
30
0.00000000000000
11
-57.4797518610422
21
22.2013358969862
31
0.00000000000000
  0
LINE
  5
F10132
330
F10133
100
AcDbEntity
8
Geo
100
AcDbLine
10
-57.4797518610422
20
22.2013358969862
30
0.00000000000000
11
-57.4764185277088
21
22.1995406269303
31
0.00000000000000
  0
LINE
  5
F10134
330
F10135
100
AcDbEntity
8
Geo
100
AcDbLine
10
-57.4764185277088
20
22.1995406269303
30
0.00000000000000
11
-57.4730851943755
21
22.1977366098928
31
0.00000000000000
  0
LINE
  5
F10136
330
F10137
100
AcDbEntity
8
Geo
100
AcDbLine
10
-57.4730851943755
20
22.1977366098928
30
0.00000000000000
11
-57.4697518610422
21
22.1959241428273
31
0.00000000000000
  0
LINE
  5
F10138
330
F10139
100
AcDbEntity
8
Geo
100
AcDbLine
10
-57.4697518610422
20
22.1959241428273
30
0.00000000000000
11
-57.4664185277088
21
22.1941035240781
31
0.00000000000000
  0
LINE
  5
F1013A
330
F1013B
100
AcDbEntity
8
Geo
100
AcDbLine
10
-57.4664185277088
20
22.1941035240781
30
0.00000000000000
11
-57.4630851943755
21
22.1922750533314
31
0.00000000000000
  0
LINE
  5
F1013C
330
F1013D
100
AcDbEntity
8
Geo
100
AcDbLine
10
-57.4630851943755
20
22.1922750533314
30
0.00000000000000
11
-57.4597518610422
21
22.1904390315659
31
0.00000000000000
  0
LINE
  5
F1013E
330
F1013F
100
AcDbEntity
8
Geo
100
AcDbLine
10
-57.4597518610422
20
22.1904390315659
30
0.00000000000000
11
-57.4564185277088
21
22.1885957610034
31
0.00000000000000
  0
LINE
  5
F10140
330
F10141
100
AcDbEntity
8
Geo
100
AcDbLine
10
-57.4564185277088
20
22.1885957610034
30
0.00000000000000
11
-57.4530851943755
21
22.1867455450586
31
0.00000000000000
  0
LINE
  5
F10142
330
F10143
100
AcDbEntity
8
Geo
100
AcDbLine
10
-57.4530851943755
20
22.1867455450586
30
0.00000000000000
11
-57.4497518610422
21
22.1848886882897
31
0.00000000000000
  0
LINE
  5
F10144
330
F10145
100
AcDbEntity
8
Geo
100
AcDbLine
10
-57.4497518610422
20
22.1848886882897
30
0.00000000000000
11
-57.4464185277088
21
22.1830254963479
31
0.00000000000000
  0
LINE
  5
F10146
330
F10147
100
AcDbEntity
8
Geo
100
AcDbLine
10
-57.4464185277088
20
22.1830254963479
30
0.00000000000000
11
-57.4430851943755
21
22.1811562759272
31
0.00000000000000
  0
LINE
  5
F10148
330
F10149
100
AcDbEntity
8
Geo
100
AcDbLine
10
-57.4430851943755
20
22.1811562759272
30
0.00000000000000
11
-57.4397518610422
21
22.1792813347142
31
0.00000000000000
  0
LINE
  5
F1014A
330
F1014B
100
AcDbEntity
8
Geo
100
AcDbLine
10
-57.4397518610422
20
22.1792813347142
30
0.00000000000000
11
-57.4364185277088
21
22.1774009813367
31
0.00000000000000
  0
LINE
  5
F1014C
330
F1014D
100
AcDbEntity
8
Geo
100
AcDbLine
10
-57.4364185277088
20
22.1774009813367
30
0.00000000000000
11
-57.4330851943755
21
22.1755155253139
31
0.00000000000000
  0
LINE
  5
F1014E
330
F1014F
100
AcDbEntity
8
Geo
100
AcDbLine
10
-57.4330851943755
20
22.1755155253139
30
0.00000000000000
11
-57.4297518610422
21
22.1736252770044
31
0.00000000000000
  0
LINE
  5
F10150
330
F10151
100
AcDbEntity
8
Geo
100
AcDbLine
10
-57.4297518610422
20
22.1736252770044
30
0.00000000000000
11
-57.4264185277088
21
22.1717305475562
31
0.00000000000000
  0
LINE
  5
F10152
330
F10153
100
AcDbEntity
8
Geo
100
AcDbLine
10
-57.4264185277088
20
22.1717305475562
30
0.00000000000000
11
-57.4230851943755
21
22.1698316488544
31
0.00000000000000
  0
LINE
  5
F10154
330
F10155
100
AcDbEntity
8
Geo
100
AcDbLine
10
-57.4230851943755
20
22.1698316488544
30
0.00000000000000
11
-57.4197518610422
21
22.1679288934708
31
0.00000000000000
  0
LINE
  5
F10156
330
F10157
100
AcDbEntity
8
Geo
100
AcDbLine
10
-57.4197518610422
20
22.1679288934708
30
0.00000000000000
11
-57.4164185277088
21
22.1660225946117
31
0.00000000000000
  0
LINE
  5
F10158
330
F10159
100
AcDbEntity
8
Geo
100
AcDbLine
10
-57.4164185277088
20
22.1660225946117
30
0.00000000000000
11
-57.4130851943755
21
22.1641130660670
31
0.00000000000000
  0
LINE
  5
F1015A
330
F1015B
100
AcDbEntity
8
Geo
100
AcDbLine
10
-57.4130851943755
20
22.1641130660670
30
0.00000000000000
11
-57.4097518610422
21
22.1622006221580
31
0.00000000000000
  0
LINE
  5
F1015C
330
F1015D
100
AcDbEntity
8
Geo
100
AcDbLine
10
-57.4097518610422
20
22.1622006221580
30
0.00000000000000
11
-57.4064185277088
21
22.1602855776861
31
0.00000000000000
  0
LINE
  5
F1015E
330
F1015F
100
AcDbEntity
8
Geo
100
AcDbLine
10
-57.4064185277088
20
22.1602855776861
30
0.00000000000000
11
-57.4030851943755
21
22.1583682478804
31
0.00000000000000
  0
LINE
  5
F10160
330
F10161
100
AcDbEntity
8
Geo
100
AcDbLine
10
-57.4030851943755
20
22.1583682478804
30
0.00000000000000
11
-57.3997518610422
21
22.1564489483465
31
0.00000000000000
  0
LINE
  5
F10162
330
F10163
100
AcDbEntity
8
Geo
100
AcDbLine
10
-57.3997518610422
20
22.2070308544090
30
0.00000000000000
11
-57.3964185277088
21
22.2052656218826
31
0.00000000000000
  0
LINE
  5
F10164
330
F10165
100
AcDbEntity
8
Geo
100
AcDbLine
10
-57.3964185277088
20
22.2052656218826
30
0.00000000000000
11
-57.3930851943755
21
22.2034907000016
31
0.00000000000000
  0
LINE
  5
F10166
330
F10167
100
AcDbEntity
8
Geo
100
AcDbLine
10
-57.3930851943755
20
22.2034907000016
30
0.00000000000000
11
-57.3897518610422
21
22.2017063809301
31
0.00000000000000
  0
LINE
  5
F10168
330
F10169
100
AcDbEntity
8
Geo
100
AcDbLine
10
-57.3897518610422
20
22.2017063809301
30
0.00000000000000
11
-57.3864185277088
21
22.1999129583793
31
0.00000000000000
  0
LINE
  5
F1016A
330
F1016B
100
AcDbEntity
8
Geo
100
AcDbLine
10
-57.3864185277088
20
22.1999129583793
30
0.00000000000000
11
-57.3830851943755
21
22.1981107275587
31
0.00000000000000
  0
LINE
  5
F1016C
330
F1016D
100
AcDbEntity
8
Geo
100
AcDbLine
10
-57.3830851943755
20
22.1981107275587
30
0.00000000000000
11
-57.3797518610422
21
22.1962999851276
31
0.00000000000000
  0
LINE
  5
F1016E
330
F1016F
100
AcDbEntity
8
Geo
100
AcDbLine
10
-57.3797518610422
20
22.1962999851276
30
0.00000000000000
11
-57.3764185277088
21
22.1944810291467
31
0.00000000000000
  0
LINE
  5
F10170
330
F10171
100
AcDbEntity
8
Geo
100
AcDbLine
10
-57.3764185277088
20
22.1944810291467
30
0.00000000000000
11
-57.3730851943755
21
22.1926541590284
31
0.00000000000000
  0
LINE
  5
F10172
330
F10173
100
AcDbEntity
8
Geo
100
AcDbLine
10
-57.3730851943755
20
22.1926541590284
30
0.00000000000000
11
-57.3697518610422
21
22.1908196754880
31
0.00000000000000
  0
LINE
  5
F10174
330
F10175
100
AcDbEntity
8
Geo
100
AcDbLine
10
-57.3697518610422
20
22.1908196754880
30
0.00000000000000
11
-57.3664185277088
21
22.1889778804939
31
0.00000000000000
  0
LINE
  5
F10176
330
F10177
100
AcDbEntity
8
Geo
100
AcDbLine
10
-57.3664185277088
20
22.1889778804939
30
0.00000000000000
11
-57.3630851943755
21
22.1871290772181
31
0.00000000000000
  0
LINE
  5
F10178
330
F10179
100
AcDbEntity
8
Geo
100
AcDbLine
10
-57.3630851943755
20
22.1871290772181
30
0.00000000000000
11
-57.3597518610422
21
22.1852735699862
31
0.00000000000000
  0
LINE
  5
F1017A
330
F1017B
100
AcDbEntity
8
Geo
100
AcDbLine
10
-57.3597518610422
20
22.1852735699862
30
0.00000000000000
11
-57.3564185277088
21
22.1834116642272
31
0.00000000000000
  0
LINE
  5
F1017C
330
F1017D
100
AcDbEntity
8
Geo
100
AcDbLine
10
-57.3564185277088
20
22.1834116642272
30
0.00000000000000
11
-57.3530851943755
21
22.1815436664236
31
0.00000000000000
  0
LINE
  5
F1017E
330
F1017F
100
AcDbEntity
8
Geo
100
AcDbLine
10
-57.3530851943755
20
22.1815436664236
30
0.00000000000000
11
-57.3497518610422
21
22.1796698840604
31
0.00000000000000
  0
LINE
  5
F10180
330
F10181
100
AcDbEntity
8
Geo
100
AcDbLine
10
-57.3497518610422
20
22.1796698840604
30
0.00000000000000
11
-57.3464185277088
21
22.1777906255750
31
0.00000000000000
  0
LINE
  5
F10182
330
F10183
100
AcDbEntity
8
Geo
100
AcDbLine
10
-57.3464185277088
20
22.1777906255750
30
0.00000000000000
11
-57.3430851943755
21
22.1759062003061
31
0.00000000000000
  0
LINE
  5
F10184
330
F10185
100
AcDbEntity
8
Geo
100
AcDbLine
10
-57.3430851943755
20
22.1759062003061
30
0.00000000000000
11
-57.3397518610422
21
22.1740169184428
31
0.00000000000000
  0
LINE
  5
F10186
330
F10187
100
AcDbEntity
8
Geo
100
AcDbLine
10
-57.3397518610422
20
22.1740169184428
30
0.00000000000000
11
-57.3364185277088
21
22.1721230909739
31
0.00000000000000
  0
LINE
  5
F10188
330
F10189
100
AcDbEntity
8
Geo
100
AcDbLine
10
-57.3364185277088
20
22.1721230909739
30
0.00000000000000
11
-57.3330851943755
21
22.1702250296362
31
0.00000000000000
  0
LINE
  5
F1018A
330
F1018B
100
AcDbEntity
8
Geo
100
AcDbLine
10
-57.3330851943755
20
22.1702250296362
30
0.00000000000000
11
-57.3297518610422
21
22.1683230468635
31
0.00000000000000
  0
LINE
  5
F1018C
330
F1018D
100
AcDbEntity
8
Geo
100
AcDbLine
10
-57.3297518610422
20
22.1683230468635
30
0.00000000000000
11
-57.3264185277088
21
22.1664174557351
31
0.00000000000000
  0
LINE
  5
F1018E
330
F1018F
100
AcDbEntity
8
Geo
100
AcDbLine
10
-57.3264185277088
20
22.1664174557351
30
0.00000000000000
11
-57.3230851943755
21
22.1645085699243
31
0.00000000000000
  0
LINE
  5
F10190
330
F10191
100
AcDbEntity
8
Geo
100
AcDbLine
10
-57.3230851943755
20
22.1645085699243
30
0.00000000000000
11
-57.3197518610422
21
22.1625967036468
31
0.00000000000000
  0
LINE
  5
F10192
330
F10193
100
AcDbEntity
8
Geo
100
AcDbLine
10
-57.3197518610422
20
22.1625967036468
30
0.00000000000000
11
-57.3164185277088
21
22.1606821716087
31
0.00000000000000
  0
LINE
  5
F10194
330
F10195
100
AcDbEntity
8
Geo
100
AcDbLine
10
-57.3164185277088
20
22.1606821716087
30
0.00000000000000
11
-57.3130851943755
21
22.1587652889551
31
0.00000000000000
  0
LINE
  5
F10196
330
F10197
100
AcDbEntity
8
Geo
100
AcDbLine
10
-57.3130851943755
20
22.1587652889551
30
0.00000000000000
11
-57.3097518610422
21
22.1568463712182
31
0.00000000000000
  0
LINE
  5
F10198
330
F10199
100
AcDbEntity
8
Geo
100
AcDbLine
10
-57.3097518610422
20
22.1568463712182
30
0.00000000000000
11
-57.3064185277088
21
22.1549257342649
31
0.00000000000000
  0
LINE
  5
F1019A
330
F1019B
100
AcDbEntity
8
Geo
100
AcDbLine
10
-57.3064185277088
20
22.1549257342649
30
0.00000000000000
11
-57.3030851943755
21
22.1530036942455
31
0.00000000000000
  0
LINE
  5
F1019C
330
F1019D
100
AcDbEntity
8
Geo
100
AcDbLine
10
-57.3030851943755
20
22.1530036942455
30
0.00000000000000
11
-57.2997518610422
21
22.1510805675411
31
0.00000000000000
  0
LINE
  5
F1019E
330
F1019F
100
AcDbEntity
8
Geo
100
AcDbLine
10
-57.2997518610422
20
22.1510805675411
30
0.00000000000000
11
-57.2964185277088
21
22.1491566707120
31
0.00000000000000
  0
LINE
  5
F101A0
330
F101A1
100
AcDbEntity
8
Geo
100
AcDbLine
10
-57.2964185277088
20
22.1491566707120
30
0.00000000000000
11
-57.2930851943755
21
22.1472323204454
31
0.00000000000000
  0
LINE
  5
F101A2
330
F101A3
100
AcDbEntity
8
Geo
100
AcDbLine
10
-57.2930851943755
20
22.1472323204454
30
0.00000000000000
11
-57.2897518610422
21
22.1453078335033
31
0.00000000000000
  0
LINE
  5
F101A4
330
F101A5
100
AcDbEntity
8
Geo
100
AcDbLine
10
-57.2897518610422
20
22.1453078335033
30
0.00000000000000
11
-57.2864185277088
21
22.1433835266704
31
0.00000000000000
  0
LINE
  5
F101A6
330
F101A7
100
AcDbEntity
8
Geo
100
AcDbLine
10
-57.2864185277088
20
22.1433835266704
30
0.00000000000000
11
-57.2830851943755
21
22.1414597167024
31
0.00000000000000
  0
LINE
  5
F101A8
330
F101A9
100
AcDbEntity
8
Geo
100
AcDbLine
10
-57.2830851943755
20
22.1414597167024
30
0.00000000000000
11
-57.2797518610422
21
22.1395367202735
31
0.00000000000000
  0
LINE
  5
F101AA
330
F101AB
100
AcDbEntity
8
Geo
100
AcDbLine
10
-57.2797518610422
20
22.1395367202735
30
0.00000000000000
11
-57.2764185277088
21
22.1376148539246
31
0.00000000000000
  0
LINE
  5
F101AC
330
F101AD
100
AcDbEntity
8
Geo
100
AcDbLine
10
-57.2764185277088
20
22.1376148539246
30
0.00000000000000
11
-57.2730851943755
21
22.1356944340112
31
0.00000000000000
  0
LINE
  5
F101AE
330
F101AF
100
AcDbEntity
8
Geo
100
AcDbLine
10
-57.2730851943755
20
22.1356944340112
30
0.00000000000000
11
-57.2697518610422
21
22.1337757766519
31
0.00000000000000
  0
LINE
  5
F101B0
330
F101B1
100
AcDbEntity
8
Geo
100
AcDbLine
10
-57.2697518610422
20
22.1337757766519
30
0.00000000000000
11
-57.2664185277088
21
22.1318591976760
31
0.00000000000000
  0
LINE
  5
F101B2
330
F101B3
100
AcDbEntity
8
Geo
100
AcDbLine
10
-57.2664185277088
20
22.1318591976760
30
0.00000000000000
11
-57.2630851943755
21
22.1299450125722
31
0.00000000000000
  0
LINE
  5
F101B4
330
F101B5
100
AcDbEntity
8
Geo
100
AcDbLine
10
-57.2630851943755
20
22.1299450125722
30
0.00000000000000
11
-57.2597518610422
21
22.1280335364367
31
0.00000000000000
  0
LINE
  5
F101B6
330
F101B7
100
AcDbEntity
8
Geo
100
AcDbLine
10
-57.2597518610422
20
22.1280335364367
30
0.00000000000000
11
-57.2564185277088
21
22.1261250839220
31
0.00000000000000
  0
LINE
  5
F101B8
330
F101B9
100
AcDbEntity
8
Geo
100
AcDbLine
10
-57.2564185277088
20
22.1261250839220
30
0.00000000000000
11
-57.2530851943755
21
22.1242199691852
31
0.00000000000000
  0
LINE
  5
F101BA
330
F101BB
100
AcDbEntity
8
Geo
100
AcDbLine
10
-57.2530851943755
20
22.1242199691852
30
0.00000000000000
11
-57.2497518610422
21
22.1223185058369
31
0.00000000000000
  0
LINE
  5
F101BC
330
F101BD
100
AcDbEntity
8
Geo
100
AcDbLine
10
-57.2497518610422
20
22.1223185058369
30
0.00000000000000
11
-57.2464185277088
21
22.1204210068902
31
0.00000000000000
  0
LINE
  5
F101BE
330
F101BF
100
AcDbEntity
8
Geo
100
AcDbLine
10
-57.2464185277088
20
22.1204210068902
30
0.00000000000000
11
-57.2430851943755
21
22.1185277847095
31
0.00000000000000
  0
LINE
  5
F101C0
330
F101C1
100
AcDbEntity
8
Geo
100
AcDbLine
10
-57.2430851943755
20
22.1185277847095
30
0.00000000000000
11
-57.2397518610422
21
22.1166391509605
31
0.00000000000000
  0
LINE
  5
F101C2
330
F101C3
100
AcDbEntity
8
Geo
100
AcDbLine
10
-57.2397518610422
20
22.1166391509605
30
0.00000000000000
11
-57.2364185277088
21
22.1147554165592
31
0.00000000000000
  0
LINE
  5
F101C4
330
F101C5
100
AcDbEntity
8
Geo
100
AcDbLine
10
-57.2364185277088
20
22.1147554165592
30
0.00000000000000
11
-57.2330851943755
21
22.1128768916217
31
0.00000000000000
  0
LINE
  5
F101C6
330
F101C7
100
AcDbEntity
8
Geo
100
AcDbLine
10
-57.2330851943755
20
22.1128768916217
30
0.00000000000000
11
-57.2297518610422
21
22.1110038854148
31
0.00000000000000
  0
LINE
  5
F101C8
330
F101C9
100
AcDbEntity
8
Geo
100
AcDbLine
10
-57.2297518610422
20
22.1110038854148
30
0.00000000000000
11
-57.2264185277088
21
22.1091367063059
31
0.00000000000000
  0
LINE
  5
F101CA
330
F101CB
100
AcDbEntity
8
Geo
100
AcDbLine
10
-57.2264185277088
20
22.1091367063059
30
0.00000000000000
11
-57.2230851943755
21
22.1072756617138
31
0.00000000000000
  0
LINE
  5
F101CC
330
F101CD
100
AcDbEntity
8
Geo
100
AcDbLine
10
-57.2230851943755
20
22.1072756617138
30
0.00000000000000
11
-57.2197518610422
21
22.1054210580600
31
0.00000000000000
  0
LINE
  5
F101CE
330
F101CF
100
AcDbEntity
8
Geo
100
AcDbLine
10
-57.2197518610422
20
22.1054210580600
30
0.00000000000000
11
-57.2164185277088
21
22.1035732007199
31
0.00000000000000
  0
LINE
  5
F101D0
330
F101D1
100
AcDbEntity
8
Geo
100
AcDbLine
10
-57.2164185277088
20
22.1035732007199
30
0.00000000000000
11
-57.2130851943755
21
22.1017323939748
31
0.00000000000000
  0
LINE
  5
F101D2
330
F101D3
100
AcDbEntity
8
Geo
100
AcDbLine
10
-57.2130851943755
20
22.1017323939748
30
0.00000000000000
11
-57.2097518610422
21
22.0998989409638
31
0.00000000000000
  0
LINE
  5
F101D4
330
F101D5
100
AcDbEntity
8
Geo
100
AcDbLine
10
-57.2097518610422
20
22.0998989409638
30
0.00000000000000
11
-57.2064185277088
21
22.0980731436373
31
0.00000000000000
  0
LINE
  5
F101D6
330
F101D7
100
AcDbEntity
8
Geo
100
AcDbLine
10
-57.2064185277088
20
22.0980731436373
30
0.00000000000000
11
-57.2030851943755
21
22.0962553027092
31
0.00000000000000
  0
LINE
  5
F101D8
330
F101D9
100
AcDbEntity
8
Geo
100
AcDbLine
10
-57.2030851943755
20
22.0962553027092
30
0.00000000000000
11
-57.1997518610422
21
22.0944457176116
31
0.00000000000000
  0
LINE
  5
F101DA
330
F101DB
100
AcDbEntity
8
Geo
100
AcDbLine
10
-57.1997518610422
20
22.0944457176116
30
0.00000000000000
11
-57.1964185277088
21
22.0926446864486
31
0.00000000000000
  0
LINE
  5
F101DC
330
F101DD
100
AcDbEntity
8
Geo
100
AcDbLine
10
-57.1964185277088
20
22.0926446864486
30
0.00000000000000
11
-57.1930851943755
21
22.0908525059511
31
0.00000000000000
  0
LINE
  5
F101DE
330
F101DF
100
AcDbEntity
8
Geo
100
AcDbLine
10
-57.1930851943755
20
22.0908525059511
30
0.00000000000000
11
-57.1897518610422
21
22.0890694714327
31
0.00000000000000
  0
LINE
  5
F101E0
330
F101E1
100
AcDbEntity
8
Geo
100
AcDbLine
10
-57.1897518610422
20
22.0890694714327
30
0.00000000000000
11
-57.1864185277088
21
22.0872958767457
31
0.00000000000000
  0
LINE
  5
F101E2
330
F101E3
100
AcDbEntity
8
Geo
100
AcDbLine
10
-57.1864185277088
20
22.0872958767457
30
0.00000000000000
11
-57.1830851943755
21
22.0855320142379
31
0.00000000000000
  0
LINE
  5
F101E4
330
F101E5
100
AcDbEntity
8
Geo
100
AcDbLine
10
-57.1830851943755
20
22.0855320142379
30
0.00000000000000
11
-57.1797518610422
21
22.0837781747102
31
0.00000000000000
  0
LINE
  5
F101E6
330
F101E7
100
AcDbEntity
8
Geo
100
AcDbLine
10
-57.1797518610422
20
22.0837781747102
30
0.00000000000000
11
-57.1764185277088
21
22.0820346473752
31
0.00000000000000
  0
LINE
  5
F101E8
330
F101E9
100
AcDbEntity
8
Geo
100
AcDbLine
10
-57.1764185277088
20
22.0820346473752
30
0.00000000000000
11
-57.1730851943755
21
22.0803017198159
31
0.00000000000000
  0
LINE
  5
F101EA
330
F101EB
100
AcDbEntity
8
Geo
100
AcDbLine
10
-57.1730851943755
20
22.0803017198159
30
0.00000000000000
11
-57.1697518610422
21
22.0785796779461
31
0.00000000000000
  0
LINE
  5
F101EC
330
F101ED
100
AcDbEntity
8
Geo
100
AcDbLine
10
-57.1697518610422
20
22.0785796779461
30
0.00000000000000
11
-57.1664185277088
21
22.0768688059708
31
0.00000000000000
  0
LINE
  5
F101EE
330
F101EF
100
AcDbEntity
8
Geo
100
AcDbLine
10
-57.1664185277088
20
22.0768688059708
30
0.00000000000000
11
-57.1630851943755
21
22.0751693863482
31
0.00000000000000
  0
LINE
  5
F101F0
330
F101F1
100
AcDbEntity
8
Geo
100
AcDbLine
10
-57.1630851943755
20
22.0751693863482
30
0.00000000000000
11
-57.1597518610422
21
22.0734816997522
31
0.00000000000000
  0
LINE
  5
F101F2
330
F101F3
100
AcDbEntity
8
Geo
100
AcDbLine
10
-57.1597518610422
20
22.0734816997522
30
0.00000000000000
11
-57.1564185277088
21
22.0718060250357
31
0.00000000000000
  0
LINE
  5
F101F4
330
F101F5
100
AcDbEntity
8
Geo
100
AcDbLine
10
-57.1564185277088
20
22.0718060250357
30
0.00000000000000
11
-57.1530851943755
21
22.0701426391953
31
0.00000000000000
  0
LINE
  5
F101F6
330
F101F7
100
AcDbEntity
8
Geo
100
AcDbLine
10
-57.1530851943755
20
22.0701426391953
30
0.00000000000000
11
-57.1497518610422
21
22.0684918173368
31
0.00000000000000
  0
LINE
  5
F101F8
330
F101F9
100
AcDbEntity
8
Geo
100
AcDbLine
10
-57.1497518610422
20
22.0684918173368
30
0.00000000000000
11
-57.1464185277088
21
22.0668538326410
31
0.00000000000000
  0
LINE
  5
F101FA
330
F101FB
100
AcDbEntity
8
Geo
100
AcDbLine
10
-57.1464185277088
20
22.0668538326410
30
0.00000000000000
11
-57.1430851943755
21
22.0652289563318
31
0.00000000000000
  0
LINE
  5
F101FC
330
F101FD
100
AcDbEntity
8
Geo
100
AcDbLine
10
-57.1430851943755
20
22.0652289563318
30
0.00000000000000
11
-57.1397518610422
21
22.0636174576437
31
0.00000000000000
  0
LINE
  5
F101FE
330
F101FF
100
AcDbEntity
8
Geo
100
AcDbLine
10
-57.1397518610422
20
22.0636174576437
30
0.00000000000000
11
-57.1364185277088
21
22.0620196037917
31
0.00000000000000
  0
LINE
  5
F10200
330
F10201
100
AcDbEntity
8
Geo
100
AcDbLine
10
-57.1364185277088
20
22.0620196037917
30
0.00000000000000
11
-57.1330851943755
21
22.0604356599412
31
0.00000000000000
  0
LINE
  5
F10202
330
F10203
100
AcDbEntity
8
Geo
100
AcDbLine
10
-57.1330851943755
20
22.0604356599412
30
0.00000000000000
11
-57.1297518610422
21
22.0588658891791
31
0.00000000000000
  0
LINE
  5
F10204
330
F10205
100
AcDbEntity
8
Geo
100
AcDbLine
10
-57.1297518610422
20
22.0588658891791
30
0.00000000000000
11
-57.1264185277088
21
22.0573105524858
31
0.00000000000000
  0
LINE
  5
F10206
330
F10207
100
AcDbEntity
8
Geo
100
AcDbLine
10
-57.1264185277088
20
22.0573105524858
30
0.00000000000000
11
-57.1230851943755
21
22.0557699087077
31
0.00000000000000
  0
LINE
  5
F10208
330
F10209
100
AcDbEntity
8
Geo
100
AcDbLine
10
-57.1230851943755
20
22.0557699087077
30
0.00000000000000
11
-57.1197518610422
21
22.0542442145311
31
0.00000000000000
  0
LINE
  5
F1020A
330
F1020B
100
AcDbEntity
8
Geo
100
AcDbLine
10
-57.1197518610422
20
22.0542442145311
30
0.00000000000000
11
-57.1164185277088
21
22.0527337244564
31
0.00000000000000
  0
LINE
  5
F1020C
330
F1020D
100
AcDbEntity
8
Geo
100
AcDbLine
10
-57.1164185277088
20
22.0527337244564
30
0.00000000000000
11
-57.1130851943755
21
22.0512386907722
31
0.00000000000000
  0
LINE
  5
F1020E
330
F1020F
100
AcDbEntity
8
Geo
100
AcDbLine
10
-57.1130851943755
20
22.0512386907722
30
0.00000000000000
11
-57.1097518610422
21
22.0497593635315
31
0.00000000000000
  0
LINE
  5
F10210
330
F10211
100
AcDbEntity
8
Geo
100
AcDbLine
10
-57.1097518610422
20
22.0497593635315
30
0.00000000000000
11
-57.1064185277088
21
22.0482959905263
31
0.00000000000000
  0
LINE
  5
F10212
330
F10213
100
AcDbEntity
8
Geo
100
AcDbLine
10
-57.1064185277088
20
22.0482959905263
30
0.00000000000000
11
-57.1030851943755
21
22.0468488172640
31
0.00000000000000
  0
LINE
  5
F10214
330
F10215
100
AcDbEntity
8
Geo
100
AcDbLine
10
-57.1030851943755
20
22.0468488172640
30
0.00000000000000
11
-57.0997518610422
21
22.0454180869428
31
0.00000000000000
  0
LINE
  5
F10216
330
F10217
100
AcDbEntity
8
Geo
100
AcDbLine
10
-57.0997518610422
20
22.0454180869428
30
0.00000000000000
11
-57.0964185277088
21
22.0440040404274
31
0.00000000000000
  0
LINE
  5
F10218
330
F10219
100
AcDbEntity
8
Geo
100
AcDbLine
10
-57.0964185277088
20
22.0440040404274
30
0.00000000000000
11
-57.0930851943755
21
22.0426069162238
31
0.00000000000000
  0
LINE
  5
F1021A
330
F1021B
100
AcDbEntity
8
Geo
100
AcDbLine
10
-57.0930851943755
20
22.0426069162238
30
0.00000000000000
11
-57.0897518610422
21
22.0412269504542
31
0.00000000000000
  0
LINE
  5
F1021C
330
F1021D
100
AcDbEntity
8
Geo
100
AcDbLine
10
-57.0897518610422
20
22.0412269504542
30
0.00000000000000
11
-57.0864185277088
21
22.0398643768298
31
0.00000000000000
  0
LINE
  5
F1021E
330
F1021F
100
AcDbEntity
8
Geo
100
AcDbLine
10
-57.0864185277088
20
22.0398643768298
30
0.00000000000000
11
-57.0830851943755
21
22.0385194266236
31
0.00000000000000
  0
LINE
  5
F10220
330
F10221
100
AcDbEntity
8
Geo
100
AcDbLine
10
-57.0830851943755
20
22.0385194266236
30
0.00000000000000
11
-57.0797518610422
21
22.0371923286406
31
0.00000000000000
  0
LINE
  5
F10222
330
F10223
100
AcDbEntity
8
Geo
100
AcDbLine
10
-57.0797518610422
20
22.0371923286406
30
0.00000000000000
11
-57.0764185277088
21
22.0358833091862
31
0.00000000000000
  0
LINE
  5
F10224
330
F10225
100
AcDbEntity
8
Geo
100
AcDbLine
10
-57.0764185277088
20
22.0358833091862
30
0.00000000000000
11
-57.0730851943755
21
22.0345925920322
31
0.00000000000000
  0
LINE
  5
F10226
330
F10227
100
AcDbEntity
8
Geo
100
AcDbLine
10
-57.0730851943755
20
22.0345925920322
30
0.00000000000000
11
-57.0697518610422
21
22.0333203983801
31
0.00000000000000
  0
LINE
  5
F10228
330
F10229
100
AcDbEntity
8
Geo
100
AcDbLine
10
-57.0697518610422
20
22.0333203983801
30
0.00000000000000
11
-57.0664185277088
21
22.0320669468201
31
0.00000000000000
  0
LINE
  5
F1022A
330
F1022B
100
AcDbEntity
8
Geo
100
AcDbLine
10
-57.0664185277088
20
22.0320669468201
30
0.00000000000000
11
-57.0630851943755
21
22.0308324532873
31
0.00000000000000
  0
LINE
  5
F1022C
330
F1022D
100
AcDbEntity
8
Geo
100
AcDbLine
10
-57.0630851943755
20
22.0308324532873
30
0.00000000000000
11
-57.0597518610422
21
22.0296171310116
31
0.00000000000000
  0
LINE
  5
F1022E
330
F1022F
100
AcDbEntity
8
Geo
100
AcDbLine
10
-57.0597518610422
20
22.0296171310116
30
0.00000000000000
11
-57.0564185277088
21
22.0284211904639
31
0.00000000000000
  0
LINE
  5
F10230
330
F10231
100
AcDbEntity
8
Geo
100
AcDbLine
10
-57.0564185277088
20
22.0284211904639
30
0.00000000000000
11
-57.0530851943755
21
22.0272448392951
31
0.00000000000000
  0
LINE
  5
F10232
330
F10233
100
AcDbEntity
8
Geo
100
AcDbLine
10
-57.0530851943755
20
22.0272448392951
30
0.00000000000000
11
-57.0497518610422
21
22.0260882822683
31
0.00000000000000
  0
LINE
  5
F10234
330
F10235
100
AcDbEntity
8
Geo
100
AcDbLine
10
-57.0497518610422
20
22.0260882822683
30
0.00000000000000
11
-57.0464185277088
21
22.0249517211835
31
0.00000000000000
  0
LINE
  5
F10236
330
F10237
100
AcDbEntity
8
Geo
100
AcDbLine
10
-57.0464185277088
20
22.0249517211835
30
0.00000000000000
11
-57.0430851943755
21
22.0238353547936
31
0.00000000000000
  0
LINE
  5
F10238
330
F10239
100
AcDbEntity
8
Geo
100
AcDbLine
10
-57.0430851943755
20
22.0238353547936
30
0.00000000000000
11
-57.0397518610422
21
22.0227393787106
31
0.00000000000000
  0
LINE
  5
F1023A
330
F1023B
100
AcDbEntity
8
Geo
100
AcDbLine
10
-57.0397518610422
20
22.0227393787106
30
0.00000000000000
11
-57.0364185277088
21
22.0216639853007
31
0.00000000000000
  0
LINE
  5
F1023C
330
F1023D
100
AcDbEntity
8
Geo
100
AcDbLine
10
-57.0364185277088
20
22.0216639853007
30
0.00000000000000
11
-57.0330851943755
21
22.0206093635678
31
0.00000000000000
  0
LINE
  5
F1023E
330
F1023F
100
AcDbEntity
8
Geo
100
AcDbLine
10
-57.0330851943755
20
22.0206093635678
30
0.00000000000000
11
-57.0297518610422
21
22.0195756990241
31
0.00000000000000
  0
LINE
  5
F10240
330
F10241
100
AcDbEntity
8
Geo
100
AcDbLine
10
-57.0297518610422
20
22.0195756990241
30
0.00000000000000
11
-57.0264185277088
21
22.0185631735453
31
0.00000000000000
  0
LINE
  5
F10242
330
F10243
100
AcDbEntity
8
Geo
100
AcDbLine
10
-57.0264185277088
20
22.0185631735453
30
0.00000000000000
11
-57.0230851943755
21
22.0175719652110
31
0.00000000000000
  0
LINE
  5
F10244
330
F10245
100
AcDbEntity
8
Geo
100
AcDbLine
10
-57.0230851943755
20
22.0175719652110
30
0.00000000000000
11
-57.0197518610422
21
22.0166022481269
31
0.00000000000000
  0
LINE
  5
F10246
330
F10247
100
AcDbEntity
8
Geo
100
AcDbLine
10
-57.0197518610422
20
22.0166022481269
30
0.00000000000000
11
-57.0164185277088
21
22.0156541922285
31
0.00000000000000
  0
LINE
  5
F10248
330
F10249
100
AcDbEntity
8
Geo
100
AcDbLine
10
-57.0164185277088
20
22.0156541922285
30
0.00000000000000
11
-57.0130851943755
21
22.0147279630644
31
0.00000000000000
  0
LINE
  5
F1024A
330
F1024B
100
AcDbEntity
8
Geo
100
AcDbLine
10
-57.0130851943755
20
22.0147279630644
30
0.00000000000000
11
-57.0097518610422
21
22.0138237215565
31
0.00000000000000
  0
LINE
  5
F1024C
330
F1024D
100
AcDbEntity
8
Geo
100
AcDbLine
10
-57.0097518610422
20
22.0138237215565
30
0.00000000000000
11
-57.0064185277088
21
22.0129416237375
31
0.00000000000000
  0
LINE
  5
F1024E
330
F1024F
100
AcDbEntity
8
Geo
100
AcDbLine
10
-57.0064185277088
20
22.0129416237375
30
0.00000000000000
11
-57.0030851943755
21
22.0120818204604
31
0.00000000000000
  0
LINE
  5
F10250
330
F10251
100
AcDbEntity
8
Geo
100
AcDbLine
10
-57.0030851943755
20
22.0120818204604
30
0.00000000000000
11
-56.9997518610422
21
22.0112444570820
31
0.00000000000000
  0
LINE
  5
F10252
330
F10253
100
AcDbEntity
8
Geo
100
AcDbLine
10
-56.9997518610422
20
22.0112444570820
30
0.00000000000000
11
-56.9964185277088
21
22.0104296731147
31
0.00000000000000
  0
LINE
  5
F10254
330
F10255
100
AcDbEntity
8
Geo
100
AcDbLine
10
-56.9964185277088
20
22.0104296731147
30
0.00000000000000
11
-56.9930851943755
21
22.0096376018467
31
0.00000000000000
  0
LINE
  5
F10256
330
F10257
100
AcDbEntity
8
Geo
100
AcDbLine
10
-56.9930851943755
20
22.0096376018467
30
0.00000000000000
11
-56.9897518610422
21
22.0088683699278
31
0.00000000000000
  0
LINE
  5
F10258
330
F10259
100
AcDbEntity
8
Geo
100
AcDbLine
10
-56.9897518610422
20
22.0088683699278
30
0.00000000000000
11
-56.9864185277088
21
22.0081220969175
31
0.00000000000000
  0
LINE
  5
F1025A
330
F1025B
100
AcDbEntity
8
Geo
100
AcDbLine
10
-56.9864185277088
20
22.0081220969175
30
0.00000000000000
11
-56.9830851943755
21
22.0073988947950
31
0.00000000000000
  0
LINE
  5
F1025C
330
F1025D
100
AcDbEntity
8
Geo
100
AcDbLine
10
-56.9830851943755
20
22.0073988947950
30
0.00000000000000
11
-56.9797518610422
21
22.0066988674261
31
0.00000000000000
  0
LINE
  5
F1025E
330
F1025F
100
AcDbEntity
8
Geo
100
AcDbLine
10
-56.9797518610422
20
22.0066988674261
30
0.00000000000000
11
-56.9764185277088
21
22.0060221099873
31
0.00000000000000
  0
LINE
  5
F10260
330
F10261
100
AcDbEntity
8
Geo
100
AcDbLine
10
-56.9764185277088
20
22.0060221099873
30
0.00000000000000
11
-56.9730851943755
21
22.0053687083421
31
0.00000000000000
  0
LINE
  5
F10262
330
F10263
100
AcDbEntity
8
Geo
100
AcDbLine
10
-56.9730851943755
20
22.0053687083421
30
0.00000000000000
11
-56.9697518610422
21
22.0047387383680
31
0.00000000000000
  0
LINE
  5
F10264
330
F10265
100
AcDbEntity
8
Geo
100
AcDbLine
10
-56.9697518610422
20
22.0047387383680
30
0.00000000000000
11
-56.9664185277088
21
22.0041322652325
31
0.00000000000000
  0
LINE
  5
F10266
330
F10267
100
AcDbEntity
8
Geo
100
AcDbLine
10
-56.9664185277088
20
22.0041322652325
30
0.00000000000000
11
-56.9630851943755
21
22.0035493426135
31
0.00000000000000
  0
LINE
  5
F10268
330
F10269
100
AcDbEntity
8
Geo
100
AcDbLine
10
-56.9630851943755
20
22.0035493426135
30
0.00000000000000
11
-56.9597518610422
21
22.0029900118634
31
0.00000000000000
  0
LINE
  5
F1026A
330
F1026B
100
AcDbEntity
8
Geo
100
AcDbLine
10
-56.9597518610422
20
22.0029900118634
30
0.00000000000000
11
-56.9564185277088
21
22.0024543011131
31
0.00000000000000
  0
LINE
  5
F1026C
330
F1026D
100
AcDbEntity
8
Geo
100
AcDbLine
10
-56.9564185277088
20
22.0024543011131
30
0.00000000000000
11
-56.9530851943755
21
22.0019422243148
31
0.00000000000000
  0
LINE
  5
F1026E
330
F1026F
100
AcDbEntity
8
Geo
100
AcDbLine
10
-56.9530851943755
20
22.0019422243148
30
0.00000000000000
11
-56.9497518610422
21
22.0014537802199
31
0.00000000000000
  0
LINE
  5
F10270
330
F10271
100
AcDbEntity
8
Geo
100
AcDbLine
10
-56.9497518610422
20
22.0014537802199
30
0.00000000000000
11
-56.9464185277088
21
22.0009889512910
31
0.00000000000000
  0
LINE
  5
F10272
330
F10273
100
AcDbEntity
8
Geo
100
AcDbLine
10
-56.9464185277088
20
22.0009889512910
30
0.00000000000000
11
-56.9430851943755
21
22.0005477025453
31
0.00000000000000
  0
LINE
  5
F10274
330
F10275
100
AcDbEntity
8
Geo
100
AcDbLine
10
-56.9430851943755
20
22.0005477025453
30
0.00000000000000
11
-56.9397518610422
21
22.0001299803281
31
0.00000000000000
  0
LINE
  5
F10276
330
F10277
100
AcDbEntity
8
Geo
100
AcDbLine
10
-56.9397518610422
20
22.0001299803281
30
0.00000000000000
11
-56.9364185277088
21
21.9997357110146
31
0.00000000000000
  0
LINE
  5
F10278
330
F10279
100
AcDbEntity
8
Geo
100
AcDbLine
10
-56.9364185277088
20
21.9997357110146
30
0.00000000000000
11
-56.9330851943755
21
21.9993647996396
31
0.00000000000000
  0
LINE
  5
F1027A
330
F1027B
100
AcDbEntity
8
Geo
100
AcDbLine
10
-56.9330851943755
20
21.9993647996396
30
0.00000000000000
11
-56.9297518610422
21
21.9990171284535
31
0.00000000000000
  0
LINE
  5
F1027C
330
F1027D
100
AcDbEntity
8
Geo
100
AcDbLine
10
-56.9297518610422
20
21.9990171284535
30
0.00000000000000
11
-56.9264185277088
21
21.9986925554050
31
0.00000000000000
  0
LINE
  5
F1027E
330
F1027F
100
AcDbEntity
8
Geo
100
AcDbLine
10
-56.9264185277088
20
21.9986925554050
30
0.00000000000000
11
-56.9230851943755
21
21.9983909125508
31
0.00000000000000
  0
LINE
  5
F10280
330
F10281
100
AcDbEntity
8
Geo
100
AcDbLine
10
-56.9230851943755
20
21.9983909125508
30
0.00000000000000
11
-56.9197518610422
21
21.9981120043932
31
0.00000000000000
  0
LINE
  5
F10282
330
F10283
100
AcDbEntity
8
Geo
100
AcDbLine
10
-56.9197518610422
20
21.9981120043932
30
0.00000000000000
11
-56.9164185277088
21
21.9978556061472
31
0.00000000000000
  0
LINE
  5
F10284
330
F10285
100
AcDbEntity
8
Geo
100
AcDbLine
10
-56.9164185277088
20
21.9978556061472
30
0.00000000000000
11
-56.9130851943755
21
21.9976214619402
31
0.00000000000000
  0
LINE
  5
F10286
330
F10287
100
AcDbEntity
8
Geo
100
AcDbLine
10
-56.9130851943755
20
21.9976214619402
30
0.00000000000000
11
-56.9097518610422
21
21.9974092829477
31
0.00000000000000
  0
LINE
  5
F10288
330
F10289
100
AcDbEntity
8
Geo
100
AcDbLine
10
-56.9097518610422
20
21.9974092829477
30
0.00000000000000
11
-56.9064185277088
21
21.9972187454695
31
0.00000000000000
  0
LINE
  5
F1028A
330
F1028B
100
AcDbEntity
8
Geo
100
AcDbLine
10
-56.9064185277088
20
21.9972187454695
30
0.00000000000000
11
-56.9030851943755
21
21.9970494889525
31
0.00000000000000
  0
LINE
  5
F1028C
330
F1028D
100
AcDbEntity
8
Geo
100
AcDbLine
10
-56.9030851943755
20
21.9970494889525
30
0.00000000000000
11
-56.8997518610422
21
21.9969011139685
31
0.00000000000000
  0
LINE
  5
F1028E
330
F1028F
100
AcDbEntity
8
Geo
100
AcDbLine
10
-56.8997518610422
20
21.9969011139685
30
0.00000000000000
11
-56.8964185277088
21
21.9967731801544
31
0.00000000000000
  0
LINE
  5
F10290
330
F10291
100
AcDbEntity
8
Geo
100
AcDbLine
10
-56.8964185277088
20
21.9967731801544
30
0.00000000000000
11
-56.8930851943755
21
21.9966652041271
31
0.00000000000000
  0
LINE
  5
F10292
330
F10293
100
AcDbEntity
8
Geo
100
AcDbLine
10
-56.8930851943755
20
21.9966652041271
30
0.00000000000000
11
-56.8897518610422
21
21.9965766573861
31
0.00000000000000
  0
LINE
  5
F10294
330
F10295
100
AcDbEntity
8
Geo
100
AcDbLine
10
-56.8897518610422
20
21.9965766573861
30
0.00000000000000
11
-56.8864185277088
21
21.9965069642186
31
0.00000000000000
  0
LINE
  5
F10296
330
F10297
100
AcDbEntity
8
Geo
100
AcDbLine
10
-56.8864185277088
20
21.9965069642186
30
0.00000000000000
11
-56.8830851943755
21
21.9964554996251
31
0.00000000000000
  0
LINE
  5
F10298
330
F10299
100
AcDbEntity
8
Geo
100
AcDbLine
10
-56.8830851943755
20
21.9964554996251
30
0.00000000000000
11
-56.8797518610422
21
21.9964215872876
31
0.00000000000000
  0
LINE
  5
F1029A
330
F1029B
100
AcDbEntity
8
Geo
100
AcDbLine
10
-56.8797518610422
20
21.9964215872876
30
0.00000000000000
11
-56.8764185277088
21
21.9964044976030
31
0.00000000000000
  0
LINE
  5
F1029C
330
F1029D
100
AcDbEntity
8
Geo
100
AcDbLine
10
-56.8764185277088
20
21.9964044976030
30
0.00000000000000
11
-56.8745272542076
21
21.9964019851117
31
0.00000000000000
  0
LINE
  5
F1029E
330
F1029F
100
AcDbEntity
8
Geo
100
AcDbLine
10
-56.7371865376814
20
21.9964019851117
30
0.00000000000000
11
-56.7364185277088
21
21.9964036858464
31
0.00000000000000
  0
LINE
  5
F102A0
330
F102A1
100
AcDbEntity
8
Geo
100
AcDbLine
10
-56.7364185277088
20
21.9964036858464
30
0.00000000000000
11
-56.7330851943755
21
21.9964580195375
31
0.00000000000000
  0
LINE
  5
F102A2
330
F102A3
100
AcDbEntity
8
Geo
100
AcDbLine
10
-56.7330851943755
20
21.9964580195375
30
0.00000000000000
11
-56.7297518610422
21
21.9966040270938
31
0.00000000000000
  0
LINE
  5
F102A4
330
F102A5
100
AcDbEntity
8
Geo
100
AcDbLine
10
-56.7297518610422
20
21.9966040270938
30
0.00000000000000
11
-56.7264185277088
21
21.9968649364891
31
0.00000000000000
  0
LINE
  5
F102A6
330
F102A7
100
AcDbEntity
8
Geo
100
AcDbLine
10
-56.7264185277088
20
21.9968649364891
30
0.00000000000000
11
-56.7230851943755
21
21.9972674802077
31
0.00000000000000
  0
LINE
  5
F102A8
330
F102A9
100
AcDbEntity
8
Geo
100
AcDbLine
10
-56.7230851943755
20
21.9972674802077
30
0.00000000000000
11
-56.7197518610422
21
21.9978422499506
31
0.00000000000000
  0
LINE
  5
F102AA
330
F102AB
100
AcDbEntity
8
Geo
100
AcDbLine
10
-56.7197518610422
20
21.9978422499506
30
0.00000000000000
11
-56.7164185277088
21
21.9986240582274
31
0.00000000000000
  0
LINE
  5
F102AC
330
F102AD
100
AcDbEntity
8
Geo
100
AcDbLine
10
-56.7164185277088
20
21.9986240582274
30
0.00000000000000
11
-56.7130851943755
21
21.9996522972369
31
0.00000000000000
  0
LINE
  5
F102AE
330
F102AF
100
AcDbEntity
8
Geo
100
AcDbLine
10
-56.7130851943755
20
21.9996522972369
30
0.00000000000000
11
-56.7097518610422
21
22.0009712817639
31
0.00000000000000
  0
LINE
  5
F102B0
330
F102B1
100
AcDbEntity
8
Geo
100
AcDbLine
10
-56.7097518610422
20
22.0009712817639
30
0.00000000000000
11
-56.7064185277088
21
22.0026305582162
31
0.00000000000000
  0
LINE
  5
F102B2
330
F102B3
100
AcDbEntity
8
Geo
100
AcDbLine
10
-56.7064185277088
20
22.0026305582162
30
0.00000000000000
11
-56.7030851943755
21
22.0046851562198
31
0.00000000000000
  0
LINE
  5
F102B4
330
F102B5
100
AcDbEntity
8
Geo
100
AcDbLine
10
-56.7030851943755
20
22.0046851562198
30
0.00000000000000
11
-56.6997518610422
21
22.0071957522274
31
0.00000000000000
  0
LINE
  5
F102B6
330
F102B7
100
AcDbEntity
8
Geo
100
AcDbLine
10
-56.6997518610422
20
22.0071957522274
30
0.00000000000000
11
-56.6997518610422
21
22.0105316388949
31
0.00000000000000
  0
LINE
  5
F102B8
330
F102B9
100
AcDbEntity
8
Geo
100
AcDbLine
10
-56.6997518610422
20
22.0105316388949
30
0.00000000000000
11
-56.7030851943755
21
22.0145404430136
31
0.00000000000000
  0
LINE
  5
F102BA
330
F102BB
100
AcDbEntity
8
Geo
100
AcDbLine
10
-56.7030851943755
20
22.0145404430136
30
0.00000000000000
11
-56.7064185277088
21
22.0189265274344
31
0.00000000000000
  0
LINE
  5
F102BC
330
F102BD
100
AcDbEntity
8
Geo
100
AcDbLine
10
-56.7064185277088
20
22.0189265274344
30
0.00000000000000
11
-56.7097518610422
21
22.0236519136318
31
0.00000000000000
  0
LINE
  5
F102BE
330
F102BF
100
AcDbEntity
8
Geo
100
AcDbLine
10
-56.7097518610422
20
22.0236519136318
30
0.00000000000000
11
-56.7130851943755
21
22.0286799399092
31
0.00000000000000
  0
LINE
  5
F102C0
330
F102C1
100
AcDbEntity
8
Geo
100
AcDbLine
10
-56.7130851943755
20
22.0286799399092
30
0.00000000000000
11
-56.7164185277088
21
22.0339753878124
31
0.00000000000000
  0
LINE
  5
F102C2
330
F102C3
100
AcDbEntity
8
Geo
100
AcDbLine
10
-56.7164185277088
20
22.0339753878124
30
0.00000000000000
11
-56.7197518610422
21
22.0395045798360
31
0.00000000000000
  0
LINE
  5
F102C4
330
F102C5
100
AcDbEntity
8
Geo
100
AcDbLine
10
-56.7197518610422
20
22.0395045798360
30
0.00000000000000
11
-56.7230851943755
21
22.0452354514029
31
0.00000000000000
  0
LINE
  5
F102C6
330
F102C7
100
AcDbEntity
8
Geo
100
AcDbLine
10
-56.7230851943755
20
22.0452354514029
30
0.00000000000000
11
-56.7264185277088
21
22.0511375999567
31
0.00000000000000
  0
LINE
  5
F102C8
330
F102C9
100
AcDbEntity
8
Geo
100
AcDbLine
10
-56.7264185277088
20
22.0511375999567
30
0.00000000000000
11
-56.7297518610422
21
22.0571823138476
31
0.00000000000000
  0
LINE
  5
F102CA
330
F102CB
100
AcDbEntity
8
Geo
100
AcDbLine
10
-56.7297518610422
20
22.0571823138476
30
0.00000000000000
11
-56.7330851943755
21
22.0633425835273
31
0.00000000000000
  0
LINE
  5
F102CC
330
F102CD
100
AcDbEntity
8
Geo
100
AcDbLine
10
-56.7330851943755
20
22.0633425835273
30
0.00000000000000
11
-56.7364185277088
21
22.0695930973916
31
0.00000000000000
  0
LINE
  5
F102CE
330
F102CF
100
AcDbEntity
8
Geo
100
AcDbLine
10
-56.7364185277088
20
22.0695930973916
30
0.00000000000000
11
-56.7397518610422
21
22.0759102244306
31
0.00000000000000
  0
LINE
  5
F102D0
330
F102D1
100
AcDbEntity
8
Geo
100
AcDbLine
10
-56.7397518610422
20
22.0759102244306
30
0.00000000000000
11
-56.7430851943755
21
22.0822719856712
31
0.00000000000000
  0
LINE
  5
F102D2
330
F102D3
100
AcDbEntity
8
Geo
100
AcDbLine
10
-56.7430851943755
20
22.0822719856712
30
0.00000000000000
11
-56.7464185277088
21
22.0886580162216
31
0.00000000000000
  0
LINE
  5
F102D4
330
F102D5
100
AcDbEntity
8
Geo
100
AcDbLine
10
-56.7464185277088
20
22.0886580162216
30
0.00000000000000
11
-56.7497518610422
21
22.0950495195573
31
0.00000000000000
  0
LINE
  5
F102D6
330
F102D7
100
AcDbEntity
8
Geo
100
AcDbLine
10
-56.7497518610422
20
22.0950495195573
30
0.00000000000000
11
-56.7530851943755
21
22.1014292155269
31
0.00000000000000
  0
LINE
  5
F102D8
330
F102D9
100
AcDbEntity
8
Geo
100
AcDbLine
10
-56.7530851943755
20
22.1014292155269
30
0.00000000000000
11
-56.7564185277088
21
22.1077812834034
31
0.00000000000000
  0
LINE
  5
F102DA
330
F102DB
100
AcDbEntity
8
Geo
100
AcDbLine
10
-56.7564185277088
20
22.1077812834034
30
0.00000000000000
11
-56.7597518610422
21
22.1140913011561
31
0.00000000000000
  0
LINE
  5
F102DC
330
F102DD
100
AcDbEntity
8
Geo
100
AcDbLine
10
-56.7597518610422
20
22.1140913011561
30
0.00000000000000
11
-56.7630851943755
21
22.1203461819880
31
0.00000000000000
  0
LINE
  5
F102DE
330
F102DF
100
AcDbEntity
8
Geo
100
AcDbLine
10
-56.7630851943755
20
22.1203461819880
30
0.00000000000000
11
-56.7664185277088
21
22.1265341090521
31
0.00000000000000
  0
LINE
  5
F102E0
330
F102E1
100
AcDbEntity
8
Geo
100
AcDbLine
10
-56.7664185277088
20
22.1265341090521
30
0.00000000000000
11
-56.7697518610422
21
22.1326444691456
31
0.00000000000000
  0
LINE
  5
F102E2
330
F102E3
100
AcDbEntity
8
Geo
100
AcDbLine
10
-56.7697518610422
20
22.1326444691456
30
0.00000000000000
11
-56.7730851943755
21
22.1386677860716
31
0.00000000000000
  0
LINE
  5
F102E4
330
F102E5
100
AcDbEntity
8
Geo
100
AcDbLine
10
-56.7730851943755
20
22.1386677860716
30
0.00000000000000
11
-56.7764185277088
21
22.1445956542603
31
0.00000000000000
  0
LINE
  5
F102E6
330
F102E7
100
AcDbEntity
8
Geo
100
AcDbLine
10
-56.7764185277088
20
22.1445956542603
30
0.00000000000000
11
-56.7797518610422
21
22.1504206731537
31
0.00000000000000
  0
LINE
  5
F102E8
330
F102E9
100
AcDbEntity
8
Geo
100
AcDbLine
10
-56.7797518610422
20
22.1504206731537
30
0.00000000000000
11
-56.7830851943755
21
22.1561363827741
31
0.00000000000000
  0
LINE
  5
F102EA
330
F102EB
100
AcDbEntity
8
Geo
100
AcDbLine
10
-56.7830851943755
20
22.1561363827741
30
0.00000000000000
11
-56.7864185277088
21
22.1617372008261
31
0.00000000000000
  0
LINE
  5
F102EC
330
F102ED
100
AcDbEntity
8
Geo
100
AcDbLine
10
-56.7864185277088
20
22.1617372008261
30
0.00000000000000
11
-56.7897518610422
21
22.1672183616179
31
0.00000000000000
  0
LINE
  5
F102EE
330
F102EF
100
AcDbEntity
8
Geo
100
AcDbLine
10
-56.7897518610422
20
22.1672183616179
30
0.00000000000000
11
-56.7930851943755
21
22.1725758570271
31
0.00000000000000
  0
LINE
  5
F102F0
330
F102F1
100
AcDbEntity
8
Geo
100
AcDbLine
10
-56.7930851943755
20
22.1725758570271
30
0.00000000000000
11
-56.7964185277088
21
22.1778063796872
31
0.00000000000000
  0
LINE
  5
F102F2
330
F102F3
100
AcDbEntity
8
Geo
100
AcDbLine
10
-56.7964185277088
20
22.1778063796872
30
0.00000000000000
11
-56.7997518610422
21
22.1829072685264
31
0.00000000000000
  0
LINE
  5
F102F4
330
F102F5
100
AcDbEntity
8
Geo
100
AcDbLine
10
-56.7997518610422
20
22.1829072685264
30
0.00000000000000
11
-56.8030851943755
21
22.1878764567489
31
0.00000000000000
  0
LINE
  5
F102F6
330
F102F7
100
AcDbEntity
8
Geo
100
AcDbLine
10
-56.8030851943755
20
22.1878764567489
30
0.00000000000000
11
-56.8064185277088
21
22.1927124223174
31
0.00000000000000
  0
LINE
  5
F102F8
330
F102F9
100
AcDbEntity
8
Geo
100
AcDbLine
10
-56.8064185277088
20
22.1927124223174
30
0.00000000000000
11
-56.8097518610422
21
22.1974141409651
31
0.00000000000000
  0
LINE
  5
F102FA
330
F102FB
100
AcDbEntity
8
Geo
100
AcDbLine
10
-56.8097518610422
20
22.1974141409651
30
0.00000000000000
11
-56.8130851943755
21
22.2019810417383
31
0.00000000000000
  0
LINE
  5
F102FC
330
F102FD
100
AcDbEntity
8
Geo
100
AcDbLine
10
-56.8130851943755
20
22.2019810417383
30
0.00000000000000
11
-56.8164185277088
21
22.2064129650545
31
0.00000000000000
  0
LINE
  5
F102FE
330
F102FF
100
AcDbEntity
8
Geo
100
AcDbLine
10
-56.8164185277088
20
22.2064129650545
30
0.00000000000000
11
-56.8197518610422
21
22.2107101232366
31
0.00000000000000
  0
LINE
  5
F10300
330
F10301
100
AcDbEntity
8
Geo
100
AcDbLine
10
-56.8197518610422
20
22.2107101232366
30
0.00000000000000
11
-56.8230851943755
21
22.2148730634751
31
0.00000000000000
  0
LINE
  5
F10302
330
F10303
100
AcDbEntity
8
Geo
100
AcDbLine
10
-56.8230851943755
20
22.2148730634751
30
0.00000000000000
11
-56.8264185277088
21
22.2189026331538
31
0.00000000000000
  0
LINE
  5
F10304
330
F10305
100
AcDbEntity
8
Geo
100
AcDbLine
10
-56.8264185277088
20
22.2189026331538
30
0.00000000000000
11
-56.8297518610422
21
22.2227999474663
31
0.00000000000000
  0
LINE
  5
F10306
330
F10307
100
AcDbEntity
8
Geo
100
AcDbLine
10
-56.8297518610422
20
22.2227999474663
30
0.00000000000000
11
-56.8330851943755
21
22.2265663592442
31
0.00000000000000
  0
LINE
  5
F10308
330
F10309
100
AcDbEntity
8
Geo
100
AcDbLine
10
-56.8330851943755
20
22.2265663592442
30
0.00000000000000
11
-56.8364185277088
21
22.2302034309102
31
0.00000000000000
  0
LINE
  5
F1030A
330
F1030B
100
AcDbEntity
8
Geo
100
AcDbLine
10
-56.8364185277088
20
22.2302034309102
30
0.00000000000000
11
-56.8397518610422
21
22.2337129084668
31
0.00000000000000
  0
LINE
  5
F1030C
330
F1030D
100
AcDbEntity
8
Geo
100
AcDbLine
10
-56.8397518610422
20
22.2337129084668
30
0.00000000000000
11
-56.8430851943755
21
22.2370966974274
31
0.00000000000000
  0
LINE
  5
F1030E
330
F1030F
100
AcDbEntity
8
Geo
100
AcDbLine
10
-56.8430851943755
20
22.2370966974274
30
0.00000000000000
11
-56.8464185277088
21
22.2403568405961
31
0.00000000000000
  0
LINE
  5
F10310
330
F10311
100
AcDbEntity
8
Geo
100
AcDbLine
10
-56.8464185277088
20
22.2403568405961
30
0.00000000000000
11
-56.8497518610422
21
22.2434954976015
31
0.00000000000000
  0
LINE
  5
F10312
330
F10313
100
AcDbEntity
8
Geo
100
AcDbLine
10
-56.8497518610422
20
22.2434954976015
30
0.00000000000000
11
-56.8530851943755
21
22.2465149260901
31
0.00000000000000
  0
LINE
  5
F10314
330
F10315
100
AcDbEntity
8
Geo
100
AcDbLine
10
-56.8530851943755
20
22.2465149260901
30
0.00000000000000
11
-56.8564185277088
21
22.2494174644868
31
0.00000000000000
  0
LINE
  5
F10316
330
F10317
100
AcDbEntity
8
Geo
100
AcDbLine
10
-56.8564185277088
20
22.2494174644868
30
0.00000000000000
11
-56.8597518610422
21
22.2522055162302
31
0.00000000000000
  0
LINE
  5
F10318
330
F10319
100
AcDbEntity
8
Geo
100
AcDbLine
10
-56.8597518610422
20
22.2522055162302
30
0.00000000000000
11
-56.8630851943755
21
22.2548815353942
31
0.00000000000000
  0
LINE
  5
F1031A
330
F1031B
100
AcDbEntity
8
Geo
100
AcDbLine
10
-56.8630851943755
20
22.2548815353942
30
0.00000000000000
11
-56.8664185277088
21
22.2574480136091
31
0.00000000000000
  0
LINE
  5
F1031C
330
F1031D
100
AcDbEntity
8
Geo
100
AcDbLine
10
-56.8664185277088
20
22.2574480136091
30
0.00000000000000
11
-56.8697518610422
21
22.2599074681985
31
0.00000000000000
  0
LINE
  5
F1031E
330
F1031F
100
AcDbEntity
8
Geo
100
AcDbLine
10
-56.8697518610422
20
22.2599074681985
30
0.00000000000000
11
-56.8730851943755
21
22.2622624314509
31
0.00000000000000
  0
LINE
  5
F10320
330
F10321
100
AcDbEntity
8
Geo
100
AcDbLine
10
-56.8730851943755
20
22.2622624314509
30
0.00000000000000
11
-56.8764185277088
21
22.2645154409503
31
0.00000000000000
  0
LINE
  5
F10322
330
F10323
100
AcDbEntity
8
Geo
100
AcDbLine
10
-56.8764185277088
20
22.2645154409503
30
0.00000000000000
11
-56.8797518610422
21
22.2666690308890
31
0.00000000000000
  0
LINE
  5
F10324
330
F10325
100
AcDbEntity
8
Geo
100
AcDbLine
10
-56.8797518610422
20
22.2666690308890
30
0.00000000000000
11
-56.8830851943755
21
22.2687257242960
31
0.00000000000000
  0
LINE
  5
F10326
330
F10327
100
AcDbEntity
8
Geo
100
AcDbLine
10
-56.8830851943755
20
22.2687257242960
30
0.00000000000000
11
-56.8864185277088
21
22.2706880261101
31
0.00000000000000
  0
LINE
  5
F10328
330
F10329
100
AcDbEntity
8
Geo
100
AcDbLine
10
-56.8864185277088
20
22.2706880261101
30
0.00000000000000
11
-56.8897518610422
21
22.2725584170371
31
0.00000000000000
  0
LINE
  5
F1032A
330
F1032B
100
AcDbEntity
8
Geo
100
AcDbLine
10
-56.8897518610422
20
22.2725584170371
30
0.00000000000000
11
-56.8930851943755
21
22.2743393481307
31
0.00000000000000
  0
LINE
  5
F1032C
330
F1032D
100
AcDbEntity
8
Geo
100
AcDbLine
10
-56.8930851943755
20
22.2743393481307
30
0.00000000000000
11
-56.8964185277088
21
22.2760332360384
31
0.00000000000000
  0
LINE
  5
F1032E
330
F1032F
100
AcDbEntity
8
Geo
100
AcDbLine
10
-56.8964185277088
20
22.2760332360384
30
0.00000000000000
11
-56.8997518610422
21
22.2776424588625
31
0.00000000000000
  0
LINE
  5
F10330
330
F10331
100
AcDbEntity
8
Geo
100
AcDbLine
10
-56.8997518610422
20
22.2776424588625
30
0.00000000000000
11
-56.9030851943755
21
22.2791693525828
31
0.00000000000000
  0
LINE
  5
F10332
330
F10333
100
AcDbEntity
8
Geo
100
AcDbLine
10
-56.9030851943755
20
22.2791693525828
30
0.00000000000000
11
-56.9064185277088
21
22.2806162079968
31
0.00000000000000
  0
LINE
  5
F10334
330
F10335
100
AcDbEntity
8
Geo
100
AcDbLine
10
-56.9064185277088
20
22.2806162079968
30
0.00000000000000
11
-56.9097518610422
21
22.2819852681320
31
0.00000000000000
  0
LINE
  5
F10336
330
F10337
100
AcDbEntity
8
Geo
100
AcDbLine
10
-56.9097518610422
20
22.2819852681320
30
0.00000000000000
11
-56.9130851943755
21
22.2832787260888
31
0.00000000000000
  0
LINE
  5
F10338
330
F10339
100
AcDbEntity
8
Geo
100
AcDbLine
10
-56.9130851943755
20
22.2832787260888
30
0.00000000000000
11
-56.9164185277088
21
22.2844987232780
31
0.00000000000000
  0
LINE
  5
F1033A
330
F1033B
100
AcDbEntity
8
Geo
100
AcDbLine
10
-56.9164185277088
20
22.2844987232780
30
0.00000000000000
11
-56.9197518610422
21
22.2856473480143
31
0.00000000000000
  0
LINE
  5
F1033C
330
F1033D
100
AcDbEntity
8
Geo
100
AcDbLine
10
-56.9197518610422
20
22.2856473480143
30
0.00000000000000
11
-56.9230851943755
21
22.2867266344352
31
0.00000000000000
  0
LINE
  5
F1033E
330
F1033F
100
AcDbEntity
8
Geo
100
AcDbLine
10
-56.9230851943755
20
22.2867266344352
30
0.00000000000000
11
-56.9264185277088
21
22.2877385617131
31
0.00000000000000
  0
LINE
  5
F10340
330
F10341
100
AcDbEntity
8
Geo
100
AcDbLine
10
-56.9264185277088
20
22.2877385617131
30
0.00000000000000
11
-56.9297518610422
21
22.2886850535321
31
0.00000000000000
  0
LINE
  5
F10342
330
F10343
100
AcDbEntity
8
Geo
100
AcDbLine
10
-56.9297518610422
20
22.2886850535321
30
0.00000000000000
11
-56.9330851943755
21
22.2895679778044
31
0.00000000000000
  0
LINE
  5
F10344
330
F10345
100
AcDbEntity
8
Geo
100
AcDbLine
10
-56.9330851943755
20
22.2895679778044
30
0.00000000000000
11
-56.9364185277088
21
22.2903891466001
31
0.00000000000000
  0
LINE
  5
F10346
330
F10347
100
AcDbEntity
8
Geo
100
AcDbLine
10
-56.9364185277088
20
22.2903891466001
30
0.00000000000000
11
-56.9397518610422
21
22.2911503162693
31
0.00000000000000
  0
LINE
  5
F10348
330
F10349
100
AcDbEntity
8
Geo
100
AcDbLine
10
-56.9397518610422
20
22.2911503162693
30
0.00000000000000
11
-56.9430851943755
21
22.2918531877354
31
0.00000000000000
  0
LINE
  5
F1034A
330
F1034B
100
AcDbEntity
8
Geo
100
AcDbLine
10
-56.9430851943755
20
22.2918531877354
30
0.00000000000000
11
-56.9464185277088
21
22.2924994069399
31
0.00000000000000
  0
LINE
  5
F1034C
330
F1034D
100
AcDbEntity
8
Geo
100
AcDbLine
10
-56.9464185277088
20
22.2924994069399
30
0.00000000000000
11
-56.9497518610422
21
22.2930905654223
31
0.00000000000000
  0
LINE
  5
F1034E
330
F1034F
100
AcDbEntity
8
Geo
100
AcDbLine
10
-56.9497518610422
20
22.2930905654223
30
0.00000000000000
11
-56.9530851943755
21
22.2936282010177
31
0.00000000000000
  0
LINE
  5
F10350
330
F10351
100
AcDbEntity
8
Geo
100
AcDbLine
10
-56.9530851943755
20
22.2936282010177
30
0.00000000000000
11
-56.9564185277088
21
22.2941137986587
31
0.00000000000000
  0
LINE
  5
F10352
330
F10353
100
AcDbEntity
8
Geo
100
AcDbLine
10
-56.9564185277088
20
22.2941137986587
30
0.00000000000000
11
-56.9597518610422
21
22.2945487912672
31
0.00000000000000
  0
LINE
  5
F10354
330
F10355
100
AcDbEntity
8
Geo
100
AcDbLine
10
-56.9597518610422
20
22.2945487912672
30
0.00000000000000
11
-56.9630851943755
21
22.2949345607239
31
0.00000000000000
  0
LINE
  5
F10356
330
F10357
100
AcDbEntity
8
Geo
100
AcDbLine
10
-56.9630851943755
20
22.2949345607239
30
0.00000000000000
11
-56.9664185277088
21
22.2952724389050
31
0.00000000000000
  0
LINE
  5
F10358
330
F10359
100
AcDbEntity
8
Geo
100
AcDbLine
10
-56.9664185277088
20
22.2952724389050
30
0.00000000000000
11
-56.9697518610422
21
22.2955637087747
31
0.00000000000000
  0
LINE
  5
F1035A
330
F1035B
100
AcDbEntity
8
Geo
100
AcDbLine
10
-56.9697518610422
20
22.2955637087747
30
0.00000000000000
11
-56.9730851943755
21
22.2958096055252
31
0.00000000000000
  0
LINE
  5
F1035C
330
F1035D
100
AcDbEntity
8
Geo
100
AcDbLine
10
-56.9730851943755
20
22.2958096055252
30
0.00000000000000
11
-56.9764185277088
21
22.2960113177555
31
0.00000000000000
  0
LINE
  5
F1035E
330
F1035F
100
AcDbEntity
8
Geo
100
AcDbLine
10
-56.9764185277088
20
22.2960113177555
30
0.00000000000000
11
-56.9797518610422
21
22.2961699886813
31
0.00000000000000
  0
LINE
  5
F10360
330
F10361
100
AcDbEntity
8
Geo
100
AcDbLine
10
-56.9797518610422
20
22.2961699886813
30
0.00000000000000
11
-56.9830851943755
21
22.2962867173689
31
0.00000000000000
  0
LINE
  5
F10362
330
F10363
100
AcDbEntity
8
Geo
100
AcDbLine
10
-56.9830851943755
20
22.2962867173689
30
0.00000000000000
11
-56.9864185277088
21
22.2963625599871
31
0.00000000000000
  0
LINE
  5
F10364
330
F10365
100
AcDbEntity
8
Geo
100
AcDbLine
10
-56.9864185277088
20
22.2963625599871
30
0.00000000000000
11
-56.9897518610422
21
22.2963985310723
31
0.00000000000000
  0
LINE
  5
F10366
330
F10367
100
AcDbEntity
8
Geo
100
AcDbLine
10
-56.9897518610422
20
22.2963985310723
30
0.00000000000000
11
-56.9911648221633
21
22.2964019851117
31
0.00000000000000
  0
LINE
  5
F10368
330
F10369
100
AcDbEntity
8
Geo
100
AcDbLine
10
-56.8745272542076
20
22.2964019851117
30
0.00000000000000
11
-56.8730851943755
21
22.2964005244119
31
0.00000000000000
  0
LINE
  5
F1036A
330
F1036B
100
AcDbEntity
8
Geo
100
AcDbLine
10
-56.8730851943755
20
22.2964005244119
30
0.00000000000000
11
-56.8697518610422
21
22.2963863799735
31
0.00000000000000
  0
LINE
  5
F1036C
330
F1036D
100
AcDbEntity
8
Geo
100
AcDbLine
10
-56.8697518610422
20
22.2963863799735
30
0.00000000000000
11
-56.8664185277088
21
22.2963579394531
31
0.00000000000000
  0
LINE
  5
F1036E
330
F1036F
100
AcDbEntity
8
Geo
100
AcDbLine
10
-56.8664185277088
20
22.2963579394531
30
0.00000000000000
11
-56.8630851943755
21
22.2963161628619
31
0.00000000000000
  0
LINE
  5
F10370
330
F10371
100
AcDbEntity
8
Geo
100
AcDbLine
10
-56.8630851943755
20
22.2963161628619
30
0.00000000000000
11
-56.8597518610422
21
22.2962620711988
31
0.00000000000000
  0
LINE
  5
F10372
330
F10373
100
AcDbEntity
8
Geo
100
AcDbLine
10
-56.8597518610422
20
22.2962620711988
30
0.00000000000000
11
-56.8564185277088
21
22.2961967472670
31
0.00000000000000
  0
LINE
  5
F10374
330
F10375
100
AcDbEntity
8
Geo
100
AcDbLine
10
-56.8564185277088
20
22.2961967472670
30
0.00000000000000
11
-56.8530851943755
21
22.2961213361225
31
0.00000000000000
  0
LINE
  5
F10376
330
F10377
100
AcDbEntity
8
Geo
100
AcDbLine
10
-56.8530851943755
20
22.2961213361225
30
0.00000000000000
11
-56.8497518610422
21
22.2960370450824
31
0.00000000000000
  0
LINE
  5
F10378
330
F10379
100
AcDbEntity
8
Geo
100
AcDbLine
10
-56.8497518610422
20
22.2960370450824
30
0.00000000000000
11
-56.8464185277088
21
22.2959451432156
31
0.00000000000000
  0
LINE
  5
F1037A
330
F1037B
100
AcDbEntity
8
Geo
100
AcDbLine
10
-56.8464185277088
20
22.2959451432156
30
0.00000000000000
11
-56.8430851943755
21
22.2958469602257
31
0.00000000000000
  0
LINE
  5
F1037C
330
F1037D
100
AcDbEntity
8
Geo
100
AcDbLine
10
-56.8430851943755
20
22.2958469602257
30
0.00000000000000
11
-56.8397518610422
21
22.2957438846242
31
0.00000000000000
  0
LINE
  5
F1037E
330
F1037F
100
AcDbEntity
8
Geo
100
AcDbLine
10
-56.8397518610422
20
22.2957438846242
30
0.00000000000000
11
-56.8364185277088
21
22.2956373610822
31
0.00000000000000
  0
LINE
  5
F10380
330
F10381
100
AcDbEntity
8
Geo
100
AcDbLine
10
-56.8364185277088
20
22.2956373610822
30
0.00000000000000
11
-56.8330851943755
21
22.2955288868294
31
0.00000000000000
  0
LINE
  5
F10382
330
F10383
100
AcDbEntity
8
Geo
100
AcDbLine
10
-56.8330851943755
20
22.2955288868294
30
0.00000000000000
11
-56.8297518610422
21
22.2954200069571
31
0.00000000000000
  0
LINE
  5
F10384
330
F10385
100
AcDbEntity
8
Geo
100
AcDbLine
10
-56.8297518610422
20
22.2954200069571
30
0.00000000000000
11
-56.8264185277088
21
22.2953123084613
31
0.00000000000000
  0
LINE
  5
F10386
330
F10387
100
AcDbEntity
8
Geo
100
AcDbLine
10
-56.8264185277088
20
22.2953123084613
30
0.00000000000000
11
-56.8230851943755
21
22.2952074128424
31
0.00000000000000
  0
LINE
  5
F10388
330
F10389
100
AcDbEntity
8
Geo
100
AcDbLine
10
-56.8230851943755
20
22.2952074128424
30
0.00000000000000
11
-56.8197518610422
21
22.2951069670531
31
0.00000000000000
  0
LINE
  5
F1038A
330
F1038B
100
AcDbEntity
8
Geo
100
AcDbLine
10
-56.8197518610422
20
22.2951069670531
30
0.00000000000000
11
-56.8164185277088
21
22.2950126325634
31
0.00000000000000
  0
LINE
  5
F1038C
330
F1038D
100
AcDbEntity
8
Geo
100
AcDbLine
10
-56.8164185277088
20
22.2950126325634
30
0.00000000000000
11
-56.8130851943755
21
22.2949260722791
31
0.00000000000000
  0
LINE
  5
F1038E
330
F1038F
100
AcDbEntity
8
Geo
100
AcDbLine
10
-56.8130851943755
20
22.2949260722791
30
0.00000000000000
11
-56.8097518610422
21
22.2948489350199
31
0.00000000000000
  0
LINE
  5
F10390
330
F10391
100
AcDbEntity
8
Geo
100
AcDbLine
10
-56.8097518610422
20
22.2948489350199
30
0.00000000000000
11
-56.8064185277088
21
22.2947828372268
31
0.00000000000000
  0
LINE
  5
F10392
330
F10393
100
AcDbEntity
8
Geo
100
AcDbLine
10
-56.8064185277088
20
22.2947828372268
30
0.00000000000000
11
-56.8030851943755
21
22.2947293415261
31
0.00000000000000
  0
LINE
  5
F10394
330
F10395
100
AcDbEntity
8
Geo
100
AcDbLine
10
-56.8030851943755
20
22.2947293415261
30
0.00000000000000
11
-56.7997518610422
21
22.2946899317350
31
0.00000000000000
  0
LINE
  5
F10396
330
F10397
100
AcDbEntity
8
Geo
100
AcDbLine
10
-56.7997518610422
20
22.2946899317350
30
0.00000000000000
11
-56.7964185277088
21
22.2946659838419
31
0.00000000000000
  0
LINE
  5
F10398
330
F10399
100
AcDbEntity
8
Geo
100
AcDbLine
10
-56.7964185277088
20
22.2946659838419
30
0.00000000000000
11
-56.7930851943755
21
22.2946587324406
31
0.00000000000000
  0
LINE
  5
F1039A
330
F1039B
100
AcDbEntity
8
Geo
100
AcDbLine
10
-56.7930851943755
20
22.2946587324406
30
0.00000000000000
11
-56.7897518610422
21
22.2946692320358
31
0.00000000000000
  0
LINE
  5
F1039C
330
F1039D
100
AcDbEntity
8
Geo
100
AcDbLine
10
-56.7897518610422
20
22.2946692320358
30
0.00000000000000
11
-56.7864185277088
21
22.2946983125725
31
0.00000000000000
  0
LINE
  5
F1039E
330
F1039F
100
AcDbEntity
8
Geo
100
AcDbLine
10
-56.7864185277088
20
22.2946983125725
30
0.00000000000000
11
-56.7830851943755
21
22.2947465284697
31
0.00000000000000
  0
LINE
  5
F103A0
330
F103A1
100
AcDbEntity
8
Geo
100
AcDbLine
10
-56.7830851943755
20
22.2947465284697
30
0.00000000000000
11
-56.7797518610422
21
22.2948141003612
31
0.00000000000000
  0
LINE
  5
F103A2
330
F103A3
100
AcDbEntity
8
Geo
100
AcDbLine
10
-56.7797518610422
20
22.2948141003612
30
0.00000000000000
11
-56.7764185277088
21
22.2949008486644
31
0.00000000000000
  0
LINE
  5
F103A4
330
F103A5
100
AcDbEntity
8
Geo
100
AcDbLine
10
-56.7764185277088
20
22.2949008486644
30
0.00000000000000
11
-56.7730851943755
21
22.2950061180143
31
0.00000000000000
  0
LINE
  5
F103A6
330
F103A7
100
AcDbEntity
8
Geo
100
AcDbLine
10
-56.7730851943755
20
22.2950061180143
30
0.00000000000000
11
-56.7697518610422
21
22.2951286915082
31
0.00000000000000
  0
LINE
  5
F103A8
330
F103A9
100
AcDbEntity
8
Geo
100
AcDbLine
10
-56.7697518610422
20
22.2951286915082
30
0.00000000000000
11
-56.7664185277088
21
22.2952666936225
31
0.00000000000000
  0
LINE
  5
F103AA
330
F103AB
100
AcDbEntity
8
Geo
100
AcDbLine
10
-56.7664185277088
20
22.2952666936225
30
0.00000000000000
11
-56.7630851943755
21
22.2954174805760
31
0.00000000000000
  0
LINE
  5
F103AC
330
F103AD
100
AcDbEntity
8
Geo
100
AcDbLine
10
-56.7630851943755
20
22.2954174805760
30
0.00000000000000
11
-56.7597518610422
21
22.2955775168383
31
0.00000000000000
  0
LINE
  5
F103AE
330
F103AF
100
AcDbEntity
8
Geo
100
AcDbLine
10
-56.7597518610422
20
22.2955775168383
30
0.00000000000000
11
-56.7564185277088
21
22.2957422364216
31
0.00000000000000
  0
LINE
  5
F103B0
330
F103B1
100
AcDbEntity
8
Geo
100
AcDbLine
10
-56.7564185277088
20
22.2957422364216
30
0.00000000000000
11
-56.7530851943755
21
22.2959058875507
31
0.00000000000000
  0
LINE
  5
F103B2
330
F103B3
100
AcDbEntity
8
Geo
100
AcDbLine
10
-56.7530851943755
20
22.2959058875507
30
0.00000000000000
11
-56.7497518610422
21
22.2960613593072
31
0.00000000000000
  0
LINE
  5
F103B4
330
F103B5
100
AcDbEntity
8
Geo
100
AcDbLine
10
-56.7497518610422
20
22.2960613593072
30
0.00000000000000
11
-56.7464185277088
21
22.2961999888829
31
0.00000000000000
  0
LINE
  5
F103B6
330
F103B7
100
AcDbEntity
8
Geo
100
AcDbLine
10
-56.7464185277088
20
22.2961999888829
30
0.00000000000000
11
-56.7430851943755
21
22.2963113481908
31
0.00000000000000
  0
LINE
  5
F103B8
330
F103B9
100
AcDbEntity
8
Geo
100
AcDbLine
10
-56.7430851943755
20
22.2963113481908
30
0.00000000000000
11
-56.7397518610422
21
22.2963830087862
31
0.00000000000000
  0
LINE
  5
F103BA
330
F103BB
100
AcDbEntity
8
Geo
100
AcDbLine
10
-56.7397518610422
20
22.2963830087862
30
0.00000000000000
11
-56.7371865376814
21
22.2964019851117
31
0.00000000000000
  0
LINE
  5
F103BC
330
F103BD
100
AcDbEntity
8
Geo
100
AcDbLine
10
-56.9911648221633
20
21.9964019851117
30
0.00000000000000
11
-56.9930851943755
21
21.9964083654237
31
0.00000000000000
  0
LINE
  5
F103BE
330
F103BF
100
AcDbEntity
8
Geo
100
AcDbLine
10
-56.9930851943755
20
21.9964083654237
30
0.00000000000000
11
-56.9964185277088
21
21.9964492539651
31
0.00000000000000
  0
LINE
  5
F103C0
330
F103C1
100
AcDbEntity
8
Geo
100
AcDbLine
10
-56.9964185277088
20
21.9964492539651
30
0.00000000000000
11
-56.9997518610422
21
21.9965272074983
31
0.00000000000000
  0
LINE
  5
F103C2
330
F103C3
100
AcDbEntity
8
Geo
100
AcDbLine
10
-56.9997518610422
20
21.9965272074983
30
0.00000000000000
11
-57.0030851943755
21
21.9966413652898
31
0.00000000000000
  0
LINE
  5
F103C4
330
F103C5
100
AcDbEntity
8
Geo
100
AcDbLine
10
-57.0030851943755
20
21.9966413652898
30
0.00000000000000
11
-57.0064185277088
21
21.9967909018880
31
0.00000000000000
  0
LINE
  5
F103C6
330
F103C7
100
AcDbEntity
8
Geo
100
AcDbLine
10
-57.0064185277088
20
21.9967909018880
30
0.00000000000000
11
-57.0097518610422
21
21.9969750258725
31
0.00000000000000
  0
LINE
  5
F103C8
330
F103C9
100
AcDbEntity
8
Geo
100
AcDbLine
10
-57.0097518610422
20
21.9969750258725
30
0.00000000000000
11
-57.0130851943755
21
21.9971929786167
31
0.00000000000000
  0
LINE
  5
F103CA
330
F103CB
100
AcDbEntity
8
Geo
100
AcDbLine
10
-57.0130851943755
20
21.9971929786167
30
0.00000000000000
11
-57.0164185277088
21
21.9974440330655
31
0.00000000000000
  0
LINE
  5
F103CC
330
F103CD
100
AcDbEntity
8
Geo
100
AcDbLine
10
-57.0164185277088
20
21.9974440330655
30
0.00000000000000
11
-57.0197518610422
21
21.9977274925296
31
0.00000000000000
  0
LINE
  5
F103CE
330
F103CF
100
AcDbEntity
8
Geo
100
AcDbLine
10
-57.0197518610422
20
21.9977274925296
30
0.00000000000000
11
-57.0230851943755
21
21.9980426894991
31
0.00000000000000
  0
LINE
  5
F103D0
330
F103D1
100
AcDbEntity
8
Geo
100
AcDbLine
10
-57.0230851943755
20
21.9980426894991
30
0.00000000000000
11
-57.0264185277088
21
21.9983889844773
31
0.00000000000000
  0
LINE
  5
F103D2
330
F103D3
100
AcDbEntity
8
Geo
100
AcDbLine
10
-57.0264185277088
20
21.9983889844773
30
0.00000000000000
11
-57.0297518610422
21
21.9987657648352
31
0.00000000000000
  0
LINE
  5
F103D4
330
F103D5
100
AcDbEntity
8
Geo
100
AcDbLine
10
-57.0297518610422
20
21.9987657648352
30
0.00000000000000
11
-57.0330851943755
21
21.9991724436885
31
0.00000000000000
  0
LINE
  5
F103D6
330
F103D7
100
AcDbEntity
8
Geo
100
AcDbLine
10
-57.0330851943755
20
21.9991724436885
30
0.00000000000000
11
-57.0364185277088
21
21.9996084587983
31
0.00000000000000
  0
LINE
  5
F103D8
330
F103D9
100
AcDbEntity
8
Geo
100
AcDbLine
10
-57.0364185277088
20
21.9996084587983
30
0.00000000000000
11
-57.0397518610422
21
22.0000732714946
31
0.00000000000000
  0
LINE
  5
F103DA
330
F103DB
100
AcDbEntity
8
Geo
100
AcDbLine
10
-57.0397518610422
20
22.0000732714946
30
0.00000000000000
11
-57.0430851943755
21
22.0005663656247
31
0.00000000000000
  0
LINE
  5
F103DC
330
F103DD
100
AcDbEntity
8
Geo
100
AcDbLine
10
-57.0430851943755
20
22.0005663656247
30
0.00000000000000
11
-57.0464185277088
21
22.0010872465267
31
0.00000000000000
  0
LINE
  5
F103DE
330
F103DF
100
AcDbEntity
8
Geo
100
AcDbLine
10
-57.0464185277088
20
22.0010872465267
30
0.00000000000000
11
-57.0497518610422
21
22.0016354400272
31
0.00000000000000
  0
LINE
  5
F103E0
330
F103E1
100
AcDbEntity
8
Geo
100
AcDbLine
10
-57.0497518610422
20
22.0016354400272
30
0.00000000000000
11
-57.0530851943755
21
22.0022104914648
31
0.00000000000000
  0
LINE
  5
F103E2
330
F103E3
100
AcDbEntity
8
Geo
100
AcDbLine
10
-57.0530851943755
20
22.0022104914648
30
0.00000000000000
11
-57.0564185277088
21
22.0028119647393
31
0.00000000000000
  0
LINE
  5
F103E4
330
F103E5
100
AcDbEntity
8
Geo
100
AcDbLine
10
-57.0564185277088
20
22.0028119647393
30
0.00000000000000
11
-57.0597518610422
21
22.0034394413855
31
0.00000000000000
  0
LINE
  5
F103E6
330
F103E7
100
AcDbEntity
8
Geo
100
AcDbLine
10
-57.0597518610422
20
22.0034394413855
30
0.00000000000000
11
-57.0630851943755
21
22.0040925196732
31
0.00000000000000
  0
LINE
  5
F103E8
330
F103E9
100
AcDbEntity
8
Geo
100
AcDbLine
10
-57.0630851943755
20
22.0040925196732
30
0.00000000000000
11
-57.0664185277088
21
22.0047708137322
31
0.00000000000000
  0
LINE
  5
F103EA
330
F103EB
100
AcDbEntity
8
Geo
100
AcDbLine
10
-57.0664185277088
20
22.0047708137322
30
0.00000000000000
11
-57.0697518610422
21
22.0054739527025
31
0.00000000000000
  0
LINE
  5
F103EC
330
F103ED
100
AcDbEntity
8
Geo
100
AcDbLine
10
-57.0697518610422
20
22.0054739527025
30
0.00000000000000
11
-57.0730851943755
21
22.0062015799100
31
0.00000000000000
  0
LINE
  5
F103EE
330
F103EF
100
AcDbEntity
8
Geo
100
AcDbLine
10
-57.0730851943755
20
22.0062015799100
30
0.00000000000000
11
-57.0764185277088
21
22.0069533520663
31
0.00000000000000
  0
LINE
  5
F103F0
330
F103F1
100
AcDbEntity
8
Geo
100
AcDbLine
10
-57.0764185277088
20
22.0069533520663
30
0.00000000000000
11
-57.0797518610422
21
22.0077289384938
31
0.00000000000000
  0
LINE
  5
F103F2
330
F103F3
100
AcDbEntity
8
Geo
100
AcDbLine
10
-57.0797518610422
20
22.0077289384938
30
0.00000000000000
11
-57.0830851943755
21
22.0085280203746
31
0.00000000000000
  0
LINE
  5
F103F4
330
F103F5
100
AcDbEntity
8
Geo
100
AcDbLine
10
-57.0830851943755
20
22.0085280203746
30
0.00000000000000
11
-57.0864185277088
21
22.0093502900236
31
0.00000000000000
  0
LINE
  5
F103F6
330
F103F7
100
AcDbEntity
8
Geo
100
AcDbLine
10
-57.0864185277088
20
22.0093502900236
30
0.00000000000000
11
-57.0897518610422
21
22.0101954501855
31
0.00000000000000
  0
LINE
  5
F103F8
330
F103F9
100
AcDbEntity
8
Geo
100
AcDbLine
10
-57.0897518610422
20
22.0101954501855
30
0.00000000000000
11
-57.0930851943755
21
22.0110632133551
31
0.00000000000000
  0
LINE
  5
F103FA
330
F103FB
100
AcDbEntity
8
Geo
100
AcDbLine
10
-57.0930851943755
20
22.0110632133551
30
0.00000000000000
11
-57.0964185277088
21
22.0119533011198
31
0.00000000000000
  0
LINE
  5
F103FC
330
F103FD
100
AcDbEntity
8
Geo
100
AcDbLine
10
-57.0964185277088
20
22.0119533011198
30
0.00000000000000
11
-57.0997518610422
21
22.0128654435262
31
0.00000000000000
  0
LINE
  5
F103FE
330
F103FF
100
AcDbEntity
8
Geo
100
AcDbLine
10
-57.0997518610422
20
22.0128654435262
30
0.00000000000000
11
-57.1030851943755
21
22.0137993784675
31
0.00000000000000
  0
LINE
  5
F10400
330
F10401
100
AcDbEntity
8
Geo
100
AcDbLine
10
-57.1030851943755
20
22.0137993784675
30
0.00000000000000
11
-57.1064185277088
21
22.0147548510938
31
0.00000000000000
  0
LINE
  5
F10402
330
F10403
100
AcDbEntity
8
Geo
100
AcDbLine
10
-57.1064185277088
20
22.0147548510938
30
0.00000000000000
11
-57.1097518610422
21
22.0157316132434
31
0.00000000000000
  0
LINE
  5
F10404
330
F10405
100
AcDbEntity
8
Geo
100
AcDbLine
10
-57.1097518610422
20
22.0157316132434
30
0.00000000000000
11
-57.1130851943755
21
22.0167294228949
31
0.00000000000000
  0
LINE
  5
F10406
330
F10407
100
AcDbEntity
8
Geo
100
AcDbLine
10
-57.1130851943755
20
22.0167294228949
30
0.00000000000000
11
-57.1164185277088
21
22.0177480436412
31
0.00000000000000
  0
LINE
  5
F10408
330
F10409
100
AcDbEntity
8
Geo
100
AcDbLine
10
-57.1164185277088
20
22.0177480436412
30
0.00000000000000
11
-57.1197518610422
21
22.0187872441819
31
0.00000000000000
  0
LINE
  5
F1040A
330
F1040B
100
AcDbEntity
8
Geo
100
AcDbLine
10
-57.1197518610422
20
22.0187872441819
30
0.00000000000000
11
-57.1230851943755
21
22.0198467978378
31
0.00000000000000
  0
LINE
  5
F1040C
330
F1040D
100
AcDbEntity
8
Geo
100
AcDbLine
10
-57.1230851943755
20
22.0198467978378
30
0.00000000000000
11
-57.1264185277088
21
22.0209264820829
31
0.00000000000000
  0
LINE
  5
F1040E
330
F1040F
100
AcDbEntity
8
Geo
100
AcDbLine
10
-57.1264185277088
20
22.0209264820829
30
0.00000000000000
11
-57.1297518610422
21
22.0220260780967
31
0.00000000000000
  0
LINE
  5
F10410
330
F10411
100
AcDbEntity
8
Geo
100
AcDbLine
10
-57.1297518610422
20
22.0220260780967
30
0.00000000000000
11
-57.1330851943755
21
22.0231453703352
31
0.00000000000000
  0
LINE
  5
F10412
330
F10413
100
AcDbEntity
8
Geo
100
AcDbLine
10
-57.1330851943755
20
22.0231453703352
30
0.00000000000000
11
-57.1364185277088
21
22.0242841461195
31
0.00000000000000
  0
LINE
  5
F10414
330
F10415
100
AcDbEntity
8
Geo
100
AcDbLine
10
-57.1364185277088
20
22.0242841461195
30
0.00000000000000
11
-57.1397518610422
21
22.0254421952433
31
0.00000000000000
  0
LINE
  5
F10416
330
F10417
100
AcDbEntity
8
Geo
100
AcDbLine
10
-57.1397518610422
20
22.0254421952433
30
0.00000000000000
11
-57.1430851943755
21
22.0266193095969
31
0.00000000000000
  0
LINE
  5
F10418
330
F10419
100
AcDbEntity
8
Geo
100
AcDbLine
10
-57.1430851943755
20
22.0266193095969
30
0.00000000000000
11
-57.1464185277088
21
22.0278152828097
31
0.00000000000000
  0
LINE
  5
F1041A
330
F1041B
100
AcDbEntity
8
Geo
100
AcDbLine
10
-57.1464185277088
20
22.0278152828097
30
0.00000000000000
11
-57.1497518610422
21
22.0290299099083
31
0.00000000000000
  0
LINE
  5
F1041C
330
F1041D
100
AcDbEntity
8
Geo
100
AcDbLine
10
-57.1497518610422
20
22.0290299099083
30
0.00000000000000
11
-57.1530851943755
21
22.0302629869914
31
0.00000000000000
  0
LINE
  5
F1041E
330
F1041F
100
AcDbEntity
8
Geo
100
AcDbLine
10
-57.1530851943755
20
22.0302629869914
30
0.00000000000000
11
-57.1564185277088
21
22.0315143109216
31
0.00000000000000
  0
LINE
  5
F10420
330
F10421
100
AcDbEntity
8
Geo
100
AcDbLine
10
-57.1564185277088
20
22.0315143109216
30
0.00000000000000
11
-57.1597518610422
21
22.0327836790317
31
0.00000000000000
  0
LINE
  5
F10422
330
F10423
100
AcDbEntity
8
Geo
100
AcDbLine
10
-57.1597518610422
20
22.0327836790317
30
0.00000000000000
11
-57.1630851943755
21
22.0340708888467
31
0.00000000000000
  0
LINE
  5
F10424
330
F10425
100
AcDbEntity
8
Geo
100
AcDbLine
10
-57.1630851943755
20
22.0340708888467
30
0.00000000000000
11
-57.1664185277088
21
22.0353757378218
31
0.00000000000000
  0
LINE
  5
F10426
330
F10427
100
AcDbEntity
8
Geo
100
AcDbLine
10
-57.1664185277088
20
22.0353757378218
30
0.00000000000000
11
-57.1697518610422
21
22.0366980230933
31
0.00000000000000
  0
LINE
  5
F10428
330
F10429
100
AcDbEntity
8
Geo
100
AcDbLine
10
-57.1697518610422
20
22.0366980230933
30
0.00000000000000
11
-57.1730851943755
21
22.0380375412453
31
0.00000000000000
  0
LINE
  5
F1042A
330
F1042B
100
AcDbEntity
8
Geo
100
AcDbLine
10
-57.1730851943755
20
22.0380375412453
30
0.00000000000000
11
-57.1764185277088
21
22.0393940880895
31
0.00000000000000
  0
LINE
  5
F1042C
330
F1042D
100
AcDbEntity
8
Geo
100
AcDbLine
10
-57.1764185277088
20
22.0393940880895
30
0.00000000000000
11
-57.1797518610422
21
22.0407674584590
31
0.00000000000000
  0
LINE
  5
F1042E
330
F1042F
100
AcDbEntity
8
Geo
100
AcDbLine
10
-57.1797518610422
20
22.0407674584590
30
0.00000000000000
11
-57.1830851943755
21
22.0421574460149
31
0.00000000000000
  0
LINE
  5
F10430
330
F10431
100
AcDbEntity
8
Geo
100
AcDbLine
10
-57.1830851943755
20
22.0421574460149
30
0.00000000000000
11
-57.1864185277088
21
22.0435638430666
31
0.00000000000000
  0
LINE
  5
F10432
330
F10433
100
AcDbEntity
8
Geo
100
AcDbLine
10
-57.1864185277088
20
22.0435638430666
30
0.00000000000000
11
-57.1897518610422
21
22.0449864404037
31
0.00000000000000
  0
LINE
  5
F10434
330
F10435
100
AcDbEntity
8
Geo
100
AcDbLine
10
-57.1897518610422
20
22.0449864404037
30
0.00000000000000
11
-57.1930851943755
21
22.0464250271410
31
0.00000000000000
  0
LINE
  5
F10436
330
F10437
100
AcDbEntity
8
Geo
100
AcDbLine
10
-57.1930851943755
20
22.0464250271410
30
0.00000000000000
11
-57.1964185277088
21
22.0478793905749
31
0.00000000000000
  0
LINE
  5
F10438
330
F10439
100
AcDbEntity
8
Geo
100
AcDbLine
10
-57.1964185277088
20
22.0478793905749
30
0.00000000000000
11
-57.1997518610422
21
22.0493493160514
31
0.00000000000000
  0
LINE
  5
F1043A
330
F1043B
100
AcDbEntity
8
Geo
100
AcDbLine
10
-57.1997518610422
20
22.0493493160514
30
0.00000000000000
11
-57.2030851943755
21
22.0508345868459
31
0.00000000000000
  0
LINE
  5
F1043C
330
F1043D
100
AcDbEntity
8
Geo
100
AcDbLine
10
-57.2030851943755
20
22.0508345868459
30
0.00000000000000
11
-57.2064185277088
21
22.0523349840530
31
0.00000000000000
  0
LINE
  5
F1043E
330
F1043F
100
AcDbEntity
8
Geo
100
AcDbLine
10
-57.2064185277088
20
22.0523349840530
30
0.00000000000000
11
-57.2097518610422
21
22.0538502864880
31
0.00000000000000
  0
LINE
  5
F10440
330
F10441
100
AcDbEntity
8
Geo
100
AcDbLine
10
-57.2097518610422
20
22.0538502864880
30
0.00000000000000
11
-57.2130851943755
21
22.0553802705974
31
0.00000000000000
  0
LINE
  5
F10442
330
F10443
100
AcDbEntity
8
Geo
100
AcDbLine
10
-57.2130851943755
20
22.0553802705974
30
0.00000000000000
11
-57.2164185277088
21
22.0569247103807
31
0.00000000000000
  0
LINE
  5
F10444
330
F10445
100
AcDbEntity
8
Geo
100
AcDbLine
10
-57.2164185277088
20
22.0569247103807
30
0.00000000000000
11
-57.2197518610422
21
22.0584833773209
31
0.00000000000000
  0
LINE
  5
F10446
330
F10447
100
AcDbEntity
8
Geo
100
AcDbLine
10
-57.2197518610422
20
22.0584833773209
30
0.00000000000000
11
-57.2230851943755
21
22.0600560403245
31
0.00000000000000
  0
LINE
  5
F10448
330
F10449
100
AcDbEntity
8
Geo
100
AcDbLine
10
-57.2230851943755
20
22.0600560403245
30
0.00000000000000
11
-57.2264185277088
21
22.0616424656708
31
0.00000000000000
  0
LINE
  5
F1044A
330
F1044B
100
AcDbEntity
8
Geo
100
AcDbLine
10
-57.2264185277088
20
22.0616424656708
30
0.00000000000000
11
-57.2297518610422
21
22.0632424169698
31
0.00000000000000
  0
LINE
  5
F1044C
330
F1044D
100
AcDbEntity
8
Geo
100
AcDbLine
10
-57.2297518610422
20
22.0632424169698
30
0.00000000000000
11
-57.2330851943755
21
22.0648556551280
31
0.00000000000000
  0
LINE
  5
F1044E
330
F1044F
100
AcDbEntity
8
Geo
100
AcDbLine
10
-57.2330851943755
20
22.0648556551280
30
0.00000000000000
11
-57.2364185277088
21
22.0664819383230
31
0.00000000000000
  0
LINE
  5
F10450
330
F10451
100
AcDbEntity
8
Geo
100
AcDbLine
10
-57.2364185277088
20
22.0664819383230
30
0.00000000000000
11
-57.2397518610422
21
22.0681210219853
31
0.00000000000000
  0
LINE
  5
F10452
330
F10453
100
AcDbEntity
8
Geo
100
AcDbLine
10
-57.2397518610422
20
22.0681210219853
30
0.00000000000000
11
-57.2430851943755
21
22.0697726587877
31
0.00000000000000
  0
LINE
  5
F10454
330
F10455
100
AcDbEntity
8
Geo
100
AcDbLine
10
-57.2430851943755
20
22.0697726587877
30
0.00000000000000
11
-57.2464185277088
21
22.0714365986418
31
0.00000000000000
  0
LINE
  5
F10456
330
F10457
100
AcDbEntity
8
Geo
100
AcDbLine
10
-57.2464185277088
20
22.0714365986418
30
0.00000000000000
11
-57.2497518610422
21
22.0731125887015
31
0.00000000000000
  0
LINE
  5
F10458
330
F10459
100
AcDbEntity
8
Geo
100
AcDbLine
10
-57.2497518610422
20
22.0731125887015
30
0.00000000000000
11
-57.2530851943755
21
22.0748003733730
31
0.00000000000000
  0
LINE
  5
F1045A
330
F1045B
100
AcDbEntity
8
Geo
100
AcDbLine
10
-57.2530851943755
20
22.0748003733730
30
0.00000000000000
11
-57.2564185277088
21
22.0764996943305
31
0.00000000000000
  0
LINE
  5
F1045C
330
F1045D
100
AcDbEntity
8
Geo
100
AcDbLine
10
-57.2564185277088
20
22.0764996943305
30
0.00000000000000
11
-57.2597518610422
21
22.0782102905384
31
0.00000000000000
  0
LINE
  5
F1045E
330
F1045F
100
AcDbEntity
8
Geo
100
AcDbLine
10
-57.2597518610422
20
22.0782102905384
30
0.00000000000000
11
-57.2630851943755
21
22.0799318982791
31
0.00000000000000
  0
LINE
  5
F10460
330
F10461
100
AcDbEntity
8
Geo
100
AcDbLine
10
-57.2630851943755
20
22.0799318982791
30
0.00000000000000
11
-57.2664185277088
21
22.0816642511857
31
0.00000000000000
  0
LINE
  5
F10462
330
F10463
100
AcDbEntity
8
Geo
100
AcDbLine
10
-57.2664185277088
20
22.0816642511857
30
0.00000000000000
11
-57.2697518610422
21
22.0834070802800
31
0.00000000000000
  0
LINE
  5
F10464
330
F10465
100
AcDbEntity
8
Geo
100
AcDbLine
10
-57.2697518610422
20
22.0834070802800
30
0.00000000000000
11
-57.2730851943755
21
22.0851601140153
31
0.00000000000000
  0
LINE
  5
F10466
330
F10467
100
AcDbEntity
8
Geo
100
AcDbLine
10
-57.2730851943755
20
22.0851601140153
30
0.00000000000000
11
-57.2764185277088
21
22.0869230783238
31
0.00000000000000
  0
LINE
  5
F10468
330
F10469
100
AcDbEntity
8
Geo
100
AcDbLine
10
-57.2764185277088
20
22.0869230783238
30
0.00000000000000
11
-57.2797518610422
21
22.0886956966671
31
0.00000000000000
  0
LINE
  5
F1046A
330
F1046B
100
AcDbEntity
8
Geo
100
AcDbLine
10
-57.2797518610422
20
22.0886956966671
30
0.00000000000000
11
-57.2830851943755
21
22.0904776900925
31
0.00000000000000
  0
LINE
  5
F1046C
330
F1046D
100
AcDbEntity
8
Geo
100
AcDbLine
10
-57.2830851943755
20
22.0904776900925
30
0.00000000000000
11
-57.2864185277088
21
22.0922687772909
31
0.00000000000000
  0
LINE
  5
F1046E
330
F1046F
100
AcDbEntity
8
Geo
100
AcDbLine
10
-57.2864185277088
20
22.0922687772909
30
0.00000000000000
11
-57.2897518610422
21
22.0940686746595
31
0.00000000000000
  0
LINE
  5
F10470
330
F10471
100
AcDbEntity
8
Geo
100
AcDbLine
10
-57.2897518610422
20
22.0940686746595
30
0.00000000000000
11
-57.2930851943755
21
22.0958770963665
31
0.00000000000000
  0
LINE
  5
F10472
330
F10473
100
AcDbEntity
8
Geo
100
AcDbLine
10
-57.2930851943755
20
22.0958770963665
30
0.00000000000000
11
-57.2964185277088
21
22.0976937544199
31
0.00000000000000
  0
LINE
  5
F10474
330
F10475
100
AcDbEntity
8
Geo
100
AcDbLine
10
-57.2964185277088
20
22.0976937544199
30
0.00000000000000
11
-57.2997518610422
21
22.0995183587371
31
0.00000000000000
  0
LINE
  5
F10476
330
F10477
100
AcDbEntity
8
Geo
100
AcDbLine
10
-57.2997518610422
20
22.0995183587371
30
0.00000000000000
11
-57.3030851943755
21
22.1013506172183
31
0.00000000000000
  0
LINE
  5
F10478
330
F10479
100
AcDbEntity
8
Geo
100
AcDbLine
10
-57.3030851943755
20
22.1013506172183
30
0.00000000000000
11
-57.3064185277088
21
22.1031902358214
31
0.00000000000000
  0
LINE
  5
F1047A
330
F1047B
100
AcDbEntity
8
Geo
100
AcDbLine
10
-57.3064185277088
20
22.1031902358214
30
0.00000000000000
11
-57.3097518610422
21
22.1050369186382
31
0.00000000000000
  0
LINE
  5
F1047C
330
F1047D
100
AcDbEntity
8
Geo
100
AcDbLine
10
-57.3097518610422
20
22.1050369186382
30
0.00000000000000
11
-57.3130851943755
21
22.1068903679730
31
0.00000000000000
  0
LINE
  5
F1047E
330
F1047F
100
AcDbEntity
8
Geo
100
AcDbLine
10
-57.3130851943755
20
22.1068903679730
30
0.00000000000000
11
-57.3164185277088
21
22.1087502844218
31
0.00000000000000
  0
LINE
  5
F10480
330
F10481
100
AcDbEntity
8
Geo
100
AcDbLine
10
-57.3164185277088
20
22.1087502844218
30
0.00000000000000
11
-57.3197518610422
21
22.1106163669532
31
0.00000000000000
  0
LINE
  5
F10482
330
F10483
100
AcDbEntity
8
Geo
100
AcDbLine
10
-57.3197518610422
20
22.1106163669532
30
0.00000000000000
11
-57.3230851943755
21
22.1124883129895
31
0.00000000000000
  0
LINE
  5
F10484
330
F10485
100
AcDbEntity
8
Geo
100
AcDbLine
10
-57.3230851943755
20
22.1124883129895
30
0.00000000000000
11
-57.3264185277088
21
22.1143658184889
31
0.00000000000000
  0
LINE
  5
F10486
330
F10487
100
AcDbEntity
8
Geo
100
AcDbLine
10
-57.3264185277088
20
22.1143658184889
30
0.00000000000000
11
-57.3297518610422
21
22.1162485780282
31
0.00000000000000
  0
LINE
  5
F10488
330
F10489
100
AcDbEntity
8
Geo
100
AcDbLine
10
-57.3297518610422
20
22.1162485780282
30
0.00000000000000
11
-57.3330851943755
21
22.1181362848852
31
0.00000000000000
  0
LINE
  5
F1048A
330
F1048B
100
AcDbEntity
8
Geo
100
AcDbLine
10
-57.3330851943755
20
22.1181362848852
30
0.00000000000000
11
-57.3364185277088
21
22.1200286311218
31
0.00000000000000
  0
LINE
  5
F1048C
330
F1048D
100
AcDbEntity
8
Geo
100
AcDbLine
10
-57.3364185277088
20
22.1200286311218
30
0.00000000000000
11
-57.3397518610422
21
22.1219253076666
31
0.00000000000000
  0
LINE
  5
F1048E
330
F1048F
100
AcDbEntity
8
Geo
100
AcDbLine
10
-57.3397518610422
20
22.1219253076666
30
0.00000000000000
11
-57.3430851943755
21
22.1238260043970
31
0.00000000000000
  0
LINE
  5
F10490
330
F10491
100
AcDbEntity
8
Geo
100
AcDbLine
10
-57.3430851943755
20
22.1238260043970
30
0.00000000000000
11
-57.3464185277088
21
22.1257304102211
31
0.00000000000000
  0
LINE
  5
F10492
330
F10493
100
AcDbEntity
8
Geo
100
AcDbLine
10
-57.3464185277088
20
22.1257304102211
30
0.00000000000000
11
-57.3497518610422
21
22.1276382131592
31
0.00000000000000
  0
LINE
  5
F10494
330
F10495
100
AcDbEntity
8
Geo
100
AcDbLine
10
-57.3497518610422
20
22.1276382131592
30
0.00000000000000
11
-57.3530851943755
21
22.1295491004234
31
0.00000000000000
  0
LINE
  5
F10496
330
F10497
100
AcDbEntity
8
Geo
100
AcDbLine
10
-57.3530851943755
20
22.1295491004234
30
0.00000000000000
11
-57.3564185277088
21
22.1314627584979
31
0.00000000000000
  0
LINE
  5
F10498
330
F10499
100
AcDbEntity
8
Geo
100
AcDbLine
10
-57.3564185277088
20
22.1314627584979
30
0.00000000000000
11
-57.3597518610422
21
22.1333788732162
31
0.00000000000000
  0
LINE
  5
F1049A
330
F1049B
100
AcDbEntity
8
Geo
100
AcDbLine
10
-57.3597518610422
20
22.1333788732162
30
0.00000000000000
11
-57.3630851943755
21
22.1352971298390
31
0.00000000000000
  0
LINE
  5
F1049C
330
F1049D
100
AcDbEntity
8
Geo
100
AcDbLine
10
-57.3630851943755
20
22.1352971298390
30
0.00000000000000
11
-57.3664185277088
21
22.1372172131294
31
0.00000000000000
  0
LINE
  5
F1049E
330
F1049F
100
AcDbEntity
8
Geo
100
AcDbLine
10
-57.3664185277088
20
22.1372172131294
30
0.00000000000000
11
-57.3697518610422
21
22.1391388074270
31
0.00000000000000
  0
LINE
  5
F104A0
330
F104A1
100
AcDbEntity
8
Geo
100
AcDbLine
10
-57.3697518610422
20
22.1391388074270
30
0.00000000000000
11
-57.3730851943755
21
22.1410615967209
31
0.00000000000000
  0
LINE
  5
F104A2
330
F104A3
100
AcDbEntity
8
Geo
100
AcDbLine
10
-57.3730851943755
20
22.1410615967209
30
0.00000000000000
11
-57.3764185277088
21
22.1429852647203
31
0.00000000000000
  0
LINE
  5
F104A4
330
F104A5
100
AcDbEntity
8
Geo
100
AcDbLine
10
-57.3764185277088
20
22.1429852647203
30
0.00000000000000
11
-57.3797518610422
21
22.1449094949234
31
0.00000000000000
  0
LINE
  5
F104A6
330
F104A7
100
AcDbEntity
8
Geo
100
AcDbLine
10
-57.3797518610422
20
22.1449094949234
30
0.00000000000000
11
-57.3830851943755
21
22.1468339706855
31
0.00000000000000
  0
LINE
  5
F104A8
330
F104A9
100
AcDbEntity
8
Geo
100
AcDbLine
10
-57.3830851943755
20
22.1468339706855
30
0.00000000000000
11
-57.3864185277088
21
22.1487583752836
31
0.00000000000000
  0
LINE
  5
F104AA
330
F104AB
100
AcDbEntity
8
Geo
100
AcDbLine
10
-57.3864185277088
20
22.1487583752836
30
0.00000000000000
11
-57.3897518610422
21
22.1506823919804
31
0.00000000000000
  0
LINE
  5
F104AC
330
F104AD
100
AcDbEntity
8
Geo
100
AcDbLine
10
-57.3897518610422
20
22.1506823919804
30
0.00000000000000
11
-57.3930851943755
21
22.1526057040854
31
0.00000000000000
  0
LINE
  5
F104AE
330
F104AF
100
AcDbEntity
8
Geo
100
AcDbLine
10
-57.3930851943755
20
22.1526057040854
30
0.00000000000000
11
-57.3964185277088
21
22.1545279950143
31
0.00000000000000
  0
LINE
  5
F104B0
330
F104B1
100
AcDbEntity
8
Geo
100
AcDbLine
10
-57.3964185277088
20
22.1545279950143
30
0.00000000000000
11
-57.3997518610422
21
22.1564489483465
31
0.00000000000000
  0
LINE
  5
F104B2
330
F104B3
100
AcDbEntity
8
Geo
100
AcDbLine
10
-57.6764185277088
20
22.2233168430168
30
0.00000000000000
11
-57.6730851943755
21
22.2269019726113
31
0.00000000000000
  0
LINE
  5
F104B4
330
F104B5
100
AcDbEntity
8
Geo
100
AcDbLine
10
-57.6730851943755
20
22.2269019726113
30
0.00000000000000
11
-57.6697518610422
21
22.2304168817895
31
0.00000000000000
  0
LINE
  5
F104B6
330
F104B7
100
AcDbEntity
8
Geo
100
AcDbLine
10
-57.6697518610422
20
22.2304168817895
30
0.00000000000000
11
-57.6664185277088
21
22.2338212108632
31
0.00000000000000
  0
LINE
  5
F104B8
330
F104B9
100
AcDbEntity
8
Geo
100
AcDbLine
10
-57.6664185277088
20
22.2338212108632
30
0.00000000000000
11
-57.6630851943755
21
22.2371081044054
31
0.00000000000000
  0
LINE
  5
F104BA
330
F104BB
100
AcDbEntity
8
Geo
100
AcDbLine
10
-57.6630851943755
20
22.2371081044054
30
0.00000000000000
11
-57.6597518610422
21
22.2402760803352
31
0.00000000000000
  0
LINE
  5
F104BC
330
F104BD
100
AcDbEntity
8
Geo
100
AcDbLine
10
-57.6597518610422
20
22.2402760803352
30
0.00000000000000
11
-57.6564185277088
21
22.2433274182577
31
0.00000000000000
  0
LINE
  5
F104BE
330
F104BF
100
AcDbEntity
8
Geo
100
AcDbLine
10
-57.6564185277088
20
22.2433274182577
30
0.00000000000000
11
-57.6530851943755
21
22.2462413043075
31
0.00000000000000
  0
LINE
  5
F104C0
330
F104C1
100
AcDbEntity
8
Geo
100
AcDbLine
10
-57.6530851943755
20
22.2462413043075
30
0.00000000000000
11
-57.6497518610422
21
22.2489333592840
31
0.00000000000000
  0
LINE
  5
F104C2
330
F104C3
100
AcDbEntity
8
Geo
100
AcDbLine
10
-57.6497518610422
20
22.2489333592840
30
0.00000000000000
11
-57.6464185277088
21
22.2514108549004
31
0.00000000000000
  0
LINE
  5
F104C4
330
F104C5
100
AcDbEntity
8
Geo
100
AcDbLine
10
-57.6464185277088
20
22.2514108549004
30
0.00000000000000
11
-57.6430851943755
21
22.2536882089860
31
0.00000000000000
  0
LINE
  5
F104C6
330
F104C7
100
AcDbEntity
8
Geo
100
AcDbLine
10
-57.6430851943755
20
22.2536882089860
30
0.00000000000000
11
-57.6397518610422
21
22.2557776125215
31
0.00000000000000
  0
LINE
  5
F104C8
330
F104C9
100
AcDbEntity
8
Geo
100
AcDbLine
10
-57.6397518610422
20
22.2557776125215
30
0.00000000000000
11
-57.6364185277088
21
22.2576894856824
31
0.00000000000000
  0
LINE
  5
F104CA
330
F104CB
100
AcDbEntity
8
Geo
100
AcDbLine
10
-57.6364185277088
20
22.2576894856824
30
0.00000000000000
11
-57.6330851943755
21
22.2594328222264
31
0.00000000000000
  0
LINE
  5
F104CC
330
F104CD
100
AcDbEntity
8
Geo
100
AcDbLine
10
-57.6330851943755
20
22.2594328222264
30
0.00000000000000
11
-57.6297518610422
21
22.2610154538469
31
0.00000000000000
  0
LINE
  5
F104CE
330
F104CF
100
AcDbEntity
8
Geo
100
AcDbLine
10
-57.6297518610422
20
22.2610154538469
30
0.00000000000000
11
-57.6264185277088
21
22.2624442560591
31
0.00000000000000
  0
LINE
  5
F104D0
330
F104D1
100
AcDbEntity
8
Geo
100
AcDbLine
10
-57.6264185277088
20
22.2624442560591
30
0.00000000000000
11
-57.6230851943755
21
22.2637253106388
31
0.00000000000000
  0
LINE
  5
F104D2
330
F104D3
100
AcDbEntity
8
Geo
100
AcDbLine
10
-57.6230851943755
20
22.2637253106388
30
0.00000000000000
11
-57.6197518610422
21
22.2648640352818
31
0.00000000000000
  0
LINE
  5
F104D4
330
F104D5
100
AcDbEntity
8
Geo
100
AcDbLine
10
-57.6197518610422
20
22.2648640352818
30
0.00000000000000
11
-57.6164185277088
21
22.2658652881890
31
0.00000000000000
  0
LINE
  5
F104D6
330
F104D7
100
AcDbEntity
8
Geo
100
AcDbLine
10
-57.6164185277088
20
22.2658652881890
30
0.00000000000000
11
-57.6130851943755
21
22.2667334532294
31
0.00000000000000
  0
LINE
  5
F104D8
330
F104D9
100
AcDbEntity
8
Geo
100
AcDbLine
10
-57.6130851943755
20
22.2667334532294
30
0.00000000000000
11
-57.6097518610422
21
22.2674725098871
31
0.00000000000000
  0
LINE
  5
F104DA
330
F104DB
100
AcDbEntity
8
Geo
100
AcDbLine
10
-57.6097518610422
20
22.2674725098871
30
0.00000000000000
11
-57.6064185277088
21
22.2680860911623
31
0.00000000000000
  0
LINE
  5
F104DC
330
F104DD
100
AcDbEntity
8
Geo
100
AcDbLine
10
-57.6064185277088
20
22.2680860911623
30
0.00000000000000
11
-57.6030851943755
21
22.2685775318423
31
0.00000000000000
  0
LINE
  5
F104DE
330
F104DF
100
AcDbEntity
8
Geo
100
AcDbLine
10
-57.6030851943755
20
22.2685775318423
30
0.00000000000000
11
-57.5997518610422
21
22.2689499090060
31
0.00000000000000
  0
LINE
  5
F104E0
330
F104E1
100
AcDbEntity
8
Geo
100
AcDbLine
10
-57.5997518610422
20
22.2689499090060
30
0.00000000000000
11
-57.5964185277088
21
22.2692060762122
31
0.00000000000000
  0
LINE
  5
F104E2
330
F104E3
100
AcDbEntity
8
Geo
100
AcDbLine
10
-57.5964185277088
20
22.2692060762122
30
0.00000000000000
11
-57.5930851943755
21
22.2693486925093
31
0.00000000000000
  0
LINE
  5
F104E4
330
F104E5
100
AcDbEntity
8
Geo
100
AcDbLine
10
-57.5930851943755
20
22.2693486925093
30
0.00000000000000
11
-57.5897518610422
21
22.2693802471703
31
0.00000000000000
  0
LINE
  5
F104E6
330
F104E7
100
AcDbEntity
8
Geo
100
AcDbLine
10
-57.5897518610422
20
22.2693802471703
30
0.00000000000000
11
-57.5864185277088
21
22.2693030808715
31
0.00000000000000
  0
LINE
  5
F104E8
330
F104E9
100
AcDbEntity
8
Geo
100
AcDbLine
10
-57.5864185277088
20
22.2693030808715
30
0.00000000000000
11
-57.5830851943755
21
22.2691194038950
31
0.00000000000000
  0
LINE
  5
F104EA
330
F104EB
100
AcDbEntity
8
Geo
100
AcDbLine
10
-57.5830851943755
20
22.2691194038950
30
0.00000000000000
11
-57.5797518610422
21
22.2688313118225
31
0.00000000000000
  0
LINE
  5
F104EC
330
F104ED
100
AcDbEntity
8
Geo
100
AcDbLine
10
-57.5797518610422
20
22.2688313118225
30
0.00000000000000
11
-57.5764185277088
21
22.2684407991015
31
0.00000000000000
  0
LINE
  5
F104EE
330
F104EF
100
AcDbEntity
8
Geo
100
AcDbLine
10
-57.5764185277088
20
22.2684407991015
30
0.00000000000000
11
-57.5730851943755
21
22.2679497707949
31
0.00000000000000
  0
LINE
  5
F104F0
330
F104F1
100
AcDbEntity
8
Geo
100
AcDbLine
10
-57.5730851943755
20
22.2679497707949
30
0.00000000000000
11
-57.5697518610422
21
22.2673600527707
31
0.00000000000000
  0
LINE
  5
F104F2
330
F104F3
100
AcDbEntity
8
Geo
100
AcDbLine
10
-57.5697518610422
20
22.2673600527707
30
0.00000000000000
11
-57.5664185277088
21
22.2666734005411
31
0.00000000000000
  0
LINE
  5
F104F4
330
F104F5
100
AcDbEntity
8
Geo
100
AcDbLine
10
-57.5664185277088
20
22.2666734005411
30
0.00000000000000
11
-57.5630851943755
21
22.2658915069263
31
0.00000000000000
  0
LINE
  5
F104F6
330
F104F7
100
AcDbEntity
8
Geo
100
AcDbLine
10
-57.5630851943755
20
22.2658915069263
30
0.00000000000000
11
-57.5597518610422
21
22.2650160086855
31
0.00000000000000
  0
LINE
  5
F104F8
330
F104F9
100
AcDbEntity
8
Geo
100
AcDbLine
10
-57.5597518610422
20
22.2650160086855
30
0.00000000000000
11
-57.5564185277088
21
22.2640484922345
31
0.00000000000000
  0
LINE
  5
F104FA
330
F104FB
100
AcDbEntity
8
Geo
100
AcDbLine
10
-57.5564185277088
20
22.2640484922345
30
0.00000000000000
11
-57.5530851943755
21
22.2629904985475
31
0.00000000000000
  0
LINE
  5
F104FC
330
F104FD
100
AcDbEntity
8
Geo
100
AcDbLine
10
-57.5530851943755
20
22.2629904985475
30
0.00000000000000
11
-57.5497518610422
21
22.2618435273225
31
0.00000000000000
  0
LINE
  5
F104FE
330
F104FF
100
AcDbEntity
8
Geo
100
AcDbLine
10
-57.5497518610422
20
22.2618435273225
30
0.00000000000000
11
-57.5464185277088
21
22.2606430890712
31
0.00000000000000
  0
LINE
  5
F10500
330
F10501
100
AcDbEntity
8
Geo
100
AcDbLine
10
-57.5464185277088
20
22.2606430890712
30
0.00000000000000
11
-57.5430851943755
21
22.2594238459578
31
0.00000000000000
  0
LINE
  5
F10502
330
F10503
100
AcDbEntity
8
Geo
100
AcDbLine
10
-57.5430851943755
20
22.2594238459578
30
0.00000000000000
11
-57.5397518610422
21
22.2581859986781
31
0.00000000000000
  0
LINE
  5
F10504
330
F10505
100
AcDbEntity
8
Geo
100
AcDbLine
10
-57.5397518610422
20
22.2581859986781
30
0.00000000000000
11
-57.5364185277088
21
22.2569297509902
31
0.00000000000000
  0
LINE
  5
F10506
330
F10507
100
AcDbEntity
8
Geo
100
AcDbLine
10
-57.5364185277088
20
22.2569297509902
30
0.00000000000000
11
-57.5330851943755
21
22.2556553096808
31
0.00000000000000
  0
LINE
  5
F10508
330
F10509
100
AcDbEntity
8
Geo
100
AcDbLine
10
-57.5330851943755
20
22.2556553096808
30
0.00000000000000
11
-57.5297518610422
21
22.2543628845319
31
0.00000000000000
  0
LINE
  5
F1050A
330
F1050B
100
AcDbEntity
8
Geo
100
AcDbLine
10
-57.5297518610422
20
22.2543628845319
30
0.00000000000000
11
-57.5264185277088
21
22.2530526882852
31
0.00000000000000
  0
LINE
  5
F1050C
330
F1050D
100
AcDbEntity
8
Geo
100
AcDbLine
10
-57.5264185277088
20
22.2530526882852
30
0.00000000000000
11
-57.5230851943755
21
22.2517249366081
31
0.00000000000000
  0
LINE
  5
F1050E
330
F1050F
100
AcDbEntity
8
Geo
100
AcDbLine
10
-57.5230851943755
20
22.2517249366081
30
0.00000000000000
11
-57.5197518610422
21
22.2503798480574
31
0.00000000000000
  0
LINE
  5
F10510
330
F10511
100
AcDbEntity
8
Geo
100
AcDbLine
10
-57.5197518610422
20
22.2503798480574
30
0.00000000000000
11
-57.5164185277088
21
22.2490176440439
31
0.00000000000000
  0
LINE
  5
F10512
330
F10513
100
AcDbEntity
8
Geo
100
AcDbLine
10
-57.5164185277088
20
22.2490176440439
30
0.00000000000000
11
-57.5130851943755
21
22.2476385487956
31
0.00000000000000
  0
LINE
  5
F10514
330
F10515
100
AcDbEntity
8
Geo
100
AcDbLine
10
-57.5130851943755
20
22.2476385487956
30
0.00000000000000
11
-57.5097518610422
21
22.2462427893209
31
0.00000000000000
  0
LINE
  5
F10516
330
F10517
100
AcDbEntity
8
Geo
100
AcDbLine
10
-57.5097518610422
20
22.2462427893209
30
0.00000000000000
11
-57.5064185277088
21
22.2448305953715
31
0.00000000000000
  0
LINE
  5
F10518
330
F10519
100
AcDbEntity
8
Geo
100
AcDbLine
10
-57.5064185277088
20
22.2448305953715
30
0.00000000000000
11
-57.5030851943755
21
22.2434021994039
31
0.00000000000000
  0
LINE
  5
F1051A
330
F1051B
100
AcDbEntity
8
Geo
100
AcDbLine
10
-57.5030851943755
20
22.2434021994039
30
0.00000000000000
11
-57.4997518610422
21
22.2419578365418
31
0.00000000000000
  0
LINE
  5
F1051C
330
F1051D
100
AcDbEntity
8
Geo
100
AcDbLine
10
-57.4997518610422
20
22.2419578365418
30
0.00000000000000
11
-57.4964185277088
21
22.2404977445373
31
0.00000000000000
  0
LINE
  5
F1051E
330
F1051F
100
AcDbEntity
8
Geo
100
AcDbLine
10
-57.4964185277088
20
22.2404977445373
30
0.00000000000000
11
-57.4930851943755
21
22.2390221637313
31
0.00000000000000
  0
LINE
  5
F10520
330
F10521
100
AcDbEntity
8
Geo
100
AcDbLine
10
-57.4930851943755
20
22.2390221637313
30
0.00000000000000
11
-57.4897518610422
21
22.2375313370146
31
0.00000000000000
  0
LINE
  5
F10522
330
F10523
100
AcDbEntity
8
Geo
100
AcDbLine
10
-57.4897518610422
20
22.2375313370146
30
0.00000000000000
11
-57.4864185277088
21
22.2360255097872
31
0.00000000000000
  0
LINE
  5
F10524
330
F10525
100
AcDbEntity
8
Geo
100
AcDbLine
10
-57.4864185277088
20
22.2360255097872
30
0.00000000000000
11
-57.4830851943755
21
22.2345049299187
31
0.00000000000000
  0
LINE
  5
F10526
330
F10527
100
AcDbEntity
8
Geo
100
AcDbLine
10
-57.4830851943755
20
22.2345049299187
30
0.00000000000000
11
-57.4797518610422
21
22.2329698477067
31
0.00000000000000
  0
LINE
  5
F10528
330
F10529
100
AcDbEntity
8
Geo
100
AcDbLine
10
-57.4797518610422
20
22.2329698477067
30
0.00000000000000
11
-57.4764185277088
21
22.2314205158363
31
0.00000000000000
  0
LINE
  5
F1052A
330
F1052B
100
AcDbEntity
8
Geo
100
AcDbLine
10
-57.4764185277088
20
22.2314205158363
30
0.00000000000000
11
-57.4730851943755
21
22.2298571893380
31
0.00000000000000
  0
LINE
  5
F1052C
330
F1052D
100
AcDbEntity
8
Geo
100
AcDbLine
10
-57.4730851943755
20
22.2298571893380
30
0.00000000000000
11
-57.4697518610422
21
22.2282801255459
31
0.00000000000000
  0
LINE
  5
F1052E
330
F1052F
100
AcDbEntity
8
Geo
100
AcDbLine
10
-57.4697518610422
20
22.2282801255459
30
0.00000000000000
11
-57.4664185277088
21
22.2266895840556
31
0.00000000000000
  0
LINE
  5
F10530
330
F10531
100
AcDbEntity
8
Geo
100
AcDbLine
10
-57.4664185277088
20
22.2266895840556
30
0.00000000000000
11
-57.4630851943755
21
22.2250858266808
31
0.00000000000000
  0
LINE
  5
F10532
330
F10533
100
AcDbEntity
8
Geo
100
AcDbLine
10
-57.4630851943755
20
22.2250858266808
30
0.00000000000000
11
-57.4597518610422
21
22.2234691174110
31
0.00000000000000
  0
LINE
  5
F10534
330
F10535
100
AcDbEntity
8
Geo
100
AcDbLine
10
-57.4597518610422
20
22.2234691174110
30
0.00000000000000
11
-57.4564185277088
21
22.2218397223676
31
0.00000000000000
  0
LINE
  5
F10536
330
F10537
100
AcDbEntity
8
Geo
100
AcDbLine
10
-57.4564185277088
20
22.2218397223676
30
0.00000000000000
11
-57.4530851943755
21
22.2201979097599
31
0.00000000000000
  0
LINE
  5
F10538
330
F10539
100
AcDbEntity
8
Geo
100
AcDbLine
10
-57.4530851943755
20
22.2201979097599
30
0.00000000000000
11
-57.4497518610422
21
22.2185439498416
31
0.00000000000000
  0
LINE
  5
F1053A
330
F1053B
100
AcDbEntity
8
Geo
100
AcDbLine
10
-57.4497518610422
20
22.2185439498416
30
0.00000000000000
11
-57.4464185277088
21
22.2168781148656
31
0.00000000000000
  0
LINE
  5
F1053C
330
F1053D
100
AcDbEntity
8
Geo
100
AcDbLine
10
-57.4464185277088
20
22.2168781148656
30
0.00000000000000
11
-57.4430851943755
21
22.2152006790398
31
0.00000000000000
  0
LINE
  5
F1053E
330
F1053F
100
AcDbEntity
8
Geo
100
AcDbLine
10
-57.4430851943755
20
22.2152006790398
30
0.00000000000000
11
-57.4397518610422
21
22.2135119184814
31
0.00000000000000
  0
LINE
  5
F10540
330
F10541
100
AcDbEntity
8
Geo
100
AcDbLine
10
-57.4397518610422
20
22.2135119184814
30
0.00000000000000
11
-57.4364185277088
21
22.2118121111720
31
0.00000000000000
  0
LINE
  5
F10542
330
F10543
100
AcDbEntity
8
Geo
100
AcDbLine
10
-57.4364185277088
20
22.2118121111720
30
0.00000000000000
11
-57.4330851943755
21
22.2101015369113
31
0.00000000000000
  0
LINE
  5
F10544
330
F10545
100
AcDbEntity
8
Geo
100
AcDbLine
10
-57.4330851943755
20
22.2101015369113
30
0.00000000000000
11
-57.4297518610422
21
22.2083804772715
31
0.00000000000000
  0
LINE
  5
F10546
330
F10547
100
AcDbEntity
8
Geo
100
AcDbLine
10
-57.4297518610422
20
22.2083804772715
30
0.00000000000000
11
-57.4264185277088
21
22.2066492155507
31
0.00000000000000
  0
LINE
  5
F10548
330
F10549
100
AcDbEntity
8
Geo
100
AcDbLine
10
-57.4264185277088
20
22.2066492155507
30
0.00000000000000
11
-57.4230851943755
21
22.2049080367264
31
0.00000000000000
  0
LINE
  5
F1054A
330
F1054B
100
AcDbEntity
8
Geo
100
AcDbLine
10
-57.4230851943755
20
22.2049080367264
30
0.00000000000000
11
-57.4197518610422
21
22.2031572274084
31
0.00000000000000
  0
LINE
  5
F1054C
330
F1054D
100
AcDbEntity
8
Geo
100
AcDbLine
10
-57.4197518610422
20
22.2031572274084
30
0.00000000000000
11
-57.4164185277088
21
22.2013970757918
31
0.00000000000000
  0
LINE
  5
F1054E
330
F1054F
100
AcDbEntity
8
Geo
100
AcDbLine
10
-57.4164185277088
20
22.2013970757918
30
0.00000000000000
11
-57.4130851943755
21
22.1996278716096
31
0.00000000000000
  0
LINE
  5
F10550
330
F10551
100
AcDbEntity
8
Geo
100
AcDbLine
10
-57.4130851943755
20
22.1996278716096
30
0.00000000000000
11
-57.4097518610422
21
22.1978499060848
31
0.00000000000000
  0
LINE
  5
F10552
330
F10553
100
AcDbEntity
8
Geo
100
AcDbLine
10
-57.4097518610422
20
22.1978499060848
30
0.00000000000000
11
-57.4064185277088
21
22.1960634718825
31
0.00000000000000
  0
LINE
  5
F10554
330
F10555
100
AcDbEntity
8
Geo
100
AcDbLine
10
-57.4064185277088
20
22.1960634718825
30
0.00000000000000
11
-57.4030851943755
21
22.1942688630621
31
0.00000000000000
  0
LINE
  5
F10556
330
F10557
100
AcDbEntity
8
Geo
100
AcDbLine
10
-57.4030851943755
20
22.1942688630621
30
0.00000000000000
11
-57.3997518610422
21
22.1924663750283
31
0.00000000000000
  0
LINE
  5
F10558
330
F10559
100
AcDbEntity
8
Geo
100
AcDbLine
10
-17.6997518610422
20
23.5464019851117
30
0.00000000000000
11
-17.6997518610422
21
22.1464019851117
31
0.00000000000000
  0
ARC
  5
F1055A
330
F1055B
100
AcDbEntity
8
Geo
100
AcDbCircle
10
-57.5497518610422
20
22.1464019851117
30
0.00000000000000
 40
0.149999999999999
100
AcDbArc
 50
180.000000000000
 51
270.000000000000
  0
LINE
  5
F1055C
330
F1055D
100
AcDbEntity
8
Geo
100
AcDbLine
10
-57.5497518610422
20
21.9964019851117
30
0.00000000000000
11
-57.3997518610422
21
21.9964019851117
31
0.00000000000000
  0
LINE
  5
F1055E
330
F1055F
100
AcDbEntity
8
Geo
100
AcDbLine
10
-57.3997518610422
20
21.9964019851117
30
0.00000000000000
11
-56.2040458550446
21
21.9964019851117
31
0.00000000000000
  0
LINE
  5
F10560
330
F10561
100
AcDbEntity
8
Geo
100
AcDbLine
10
-56.2040458550446
20
21.9964019851117
30
0.00000000000000
11
-49.2997518610422
21
20.1464019851117
31
0.00000000000000
  0
LINE
  5
F10562
330
F10563
100
AcDbEntity
8
Geo
100
AcDbLine
10
-49.2997518610422
20
20.1464019851117
30
0.00000000000000
11
-18.2997518610422
21
20.1464019851117
31
0.00000000000000
  0
LINE
  5
F10564
330
F10565
100
AcDbEntity
8
Geo
100
AcDbLine
10
-18.2997518610422
20
20.1464019851117
30
0.00000000000000
11
-17.6997518610422
21
20.7464019851117
31
0.00000000000000
  0
LINE
  5
F10566
330
F10567
100
AcDbEntity
8
Geo
100
AcDbLine
10
-57.5497518610422
20
22.2964019851117
30
0.00000000000000
11
-57.5497518610422
21
21.9964019851117
31
0.00000000000000
  0
LINE
  5
F10568
330
F10569
100
AcDbEntity
8
Geo
100
AcDbLine
10
-57.3997518610422
20
22.2964019851117
30
0.00000000000000
11
-57.3997518610422
21
21.9964019851117
31
0.00000000000000
  0
LINE
  5
F1056A
330
F1056B
100
AcDbEntity
8
Geo
100
AcDbLine
10
-57.3997518610422
20
22.2964019851117
30
0.00000000000000
11
-57.3997518610422
21
21.9964019851117
31
0.00000000000000
  0
LINE
  5
F1056C
330
F1056D
100
AcDbEntity
8
Geo
100
AcDbLine
10
-56.2040458550446
20
22.2964019851117
30
0.00000000000000
11
-56.2040458550446
21
21.9964019851117
31
0.00000000000000
  0
LINE
  5
F1056E
330
F1056F
100
AcDbEntity
8
Geo
100
AcDbLine
10
-49.2997518610422
20
24.1464019851117
30
0.00000000000000
11
-49.2997518610422
21
20.1464019851117
31
0.00000000000000
  0
LINE
  5
F10570
330
F10571
100
AcDbEntity
8
Geo
100
AcDbLine
10
-49.2997518610422
20
24.1464019851117
30
0.00000000000000
11
-49.2997518610422
21
20.1464019851117
31
0.00000000000000
  0
LINE
  5
F10572
330
F10573
100
AcDbEntity
8
Geo
100
AcDbLine
10
-18.2997518610422
20
24.1464019851117
30
0.00000000000000
11
-18.2997518610422
21
20.1464019851117
31
0.00000000000000
  0
LINE
  5
F10574
330
F10575
100
AcDbEntity
8
Geo
100
AcDbLine
10
-17.6997518610422
20
23.5464019851117
30
0.00000000000000
11
-17.6997518610422
21
20.7464019851117
31
0.00000000000000
  0
LINE
  5
F10576
330
F10577
100
AcDbEntity
8
Geo
 6
Dashdot
100
AcDbLine
10
-57.6997518610422
20
22.1464019851117
30
0.00000000000000
11
-17.6997518610422
21
22.1464019851117
31
0.00000000000000
0
VIEWPORT
5
294
102
{ACAD_XDICTIONARY
360
58A
102
}
330
25D
100
AcDbEntity
67
1
8
0
60
1
100
AcDbViewport
10
0.0
20
0.0
30
0.0
40
10.0
41
10.0
68
-1
69
1
12
0.0
22
0.0
13
0.0
23
0.0
14
1.0
24
1.0
15
0.0
25
0.0
16
0.0
26
0.0
36
1.0
17
0.0
27
0.0
37
0.0
42
0.0
43
0.0
44
0.0
45
10.0
50
0.0
51
0.0000000000007958
72
100
90
32800
1

281
0
71
0
74
0
110
0.0
120
0.0
130
0.0
111
1.0
121
0.0
131
0.0
112
0.0
122
1.0
132
0.0
79
0
146
0.0
1001
VD_INVISIBLE_NOT_FOR_READ
1000
VD_INVISIBLE_NOT_FOR_READ
0
VIEWPORT
5
295
102
{ACAD_XDICTIONARY
360
58C
102
}
330
25D
100
AcDbEntity
67
1
8
0
60
1
100
AcDbViewport
10
0.0
20
0.0
30
0.0
40
10.0
41
10.0
68
0
69
2
12
0.0
22
0.0
13
0.0
23
0.0
14
1.0
24
1.0
15
0.0
25
0.0
16
0.0
26
0.0
36
1.0
17
0.0
27
0.0
37
0.0
42
0.0
43
0.0
44
0.0
45
10.0
50
0.0
51
0.0000000000007958
72
100
90
163872
1

281
0
71
0
74
0
110
0.0
120
0.0
130
0.0
111
1.0
121
0.0
131
0.0
112
0.0
122
1.0
132
0.0
79
0
146
0.0
1001
VD_INVISIBLE_NOT_FOR_READ
1000
VD_INVISIBLE_NOT_FOR_READ
0
ENDSEC
0
SECTION
2
OBJECTS
0
DICTIONARY
5
13
330
0
100
AcDbDictionary
281
1
3
ACAD_COLOR
350
FA7
3
ACAD_GROUP
350
14
3
ACAD_LAYOUT
350
FCF
3
ACAD_MATERIAL
350
F7A
3
ACAD_MLEADERSTYLE
350
FCD
3
ACAD_MLINESTYLE
350
16
3
ACAD_PLOTSETTINGS
350
17
3
ACAD_PLOTSTYLENAME
350
18
3
ACAD_SCALELIST
350
FAB
3
ACAD_TABLESTYLE
350
FA8
3
ACAD_VISUALSTYLE
350
F93
3
ACDB_RECOMPOSE_DATA
350
107E
3
AcDbVariableDictionary
350
FF0
3
DWGPROPS
350
107F
0
DICTIONARY
5
FA7
102
{ACAD_REACTORS
330
13
102
}
330
13
100
AcDbDictionary
281
1
0
DICTIONARY
5
14
330
13
100
AcDbDictionary
281
1
0
DICTIONARY
5
FCF
102
{ACAD_REACTORS
330
13
102
}
330
13
100
AcDbDictionary
281
1
3
Layout1
350
FD1
3
Model
350
FD0
0
DICTIONARY
5
F7A
102
{ACAD_REACTORS
330
13
102
}
330
13
100
AcDbDictionary
281
1
3
ByBlock
350
F83
3
ByLayer
350
F7B
3
Global
350
F8B
0
DICTIONARY
5
FCD
102
{ACAD_REACTORS
330
13
102
}
330
13
100
AcDbDictionary
281
1
3
Standard
350
FCE
0
DICTIONARY
5
16
330
13
100
AcDbDictionary
281
1
3
Standard
350
FAA
0
DICTIONARY
5
17
102
{ACAD_REACTORS
330
13
102
}
330
13
100
AcDbDictionary
281
1
0
ACDBDICTIONARYWDFLT
5
18
102
{ACAD_REACTORS
330
13
102
}
330
13
100
AcDbDictionary
281
1
3
Normal
350
19
100
AcDbDictionaryWithDefault
340
19
0
DICTIONARY
5
FAB
102
{ACAD_REACTORS
330
13
102
}
330
13
100
AcDbDictionary
281
1
3
A0
350
FAC
3
A1
350
FAD
3
A2
350
FAE
3
A3
350
FAF
3
A4
350
FB0
3
A5
350
FB1
3
A6
350
FB2
3
A7
350
FB3
3
A8
350
FB4
3
A9
350
FB5
3
B0
350
FB6
3
B1
350
FB7
3
B2
350
FB8
3
B3
350
FB9
3
B4
350
FBA
3
B5
350
FBB
3
B6
350
FBC
3
B7
350
FBD
3
B8
350
FBE
3
B9
350
FBF
3
C0
350
FC0
3
C1
350
FC1
3
C2
350
FC2
3
C3
350
FC3
3
C4
350
FC4
3
C5
350
FC5
3
C6
350
FC6
3
C7
350
FC7
3
C8
350
FC8
3
C9
350
FC9
3
D0
350
FCA
3
D1
350
FCB
3
D2
350
FCC
0
DICTIONARY
5
FA8
102
{ACAD_REACTORS
330
13
102
}
330
13
100
AcDbDictionary
281
1
3
Standard
350
FA9
0
DICTIONARY
5
F93
102
{ACAD_REACTORS
330
13
102
}
330
13
100
AcDbDictionary
281
1
3
2dWireframe
350
F99
3
3D Hidden
350
F9B
3
3dWireframe
350
F9A
3
Basic
350
F98
3
Brighten
350
F9F
3
ColorChange
350
FA3
3
Conceptual
350
F9C
3
Dim
350
F9E
3
EdgeColorOff
350
FA6
3
Facepattern
350
FA2
3
Flat
350
F94
3
FlatWithEdges
350
F95
3
Gouraud
350
F96
3
GouraudWithEdges
350
F97
3
JitterOff
350
FA4
3
Linepattern
350
FA1
3
OverhangOff
350
FA5
3
Realistic
350
F9D
3
Thicken
350
FA0
0
XRECORD
5
107E
102
{ACAD_REACTORS
330
13
102
}
330
13
100
AcDbXrecord
280
1
90
1
330
FA9
0
DICTIONARY
5
FF0
102
{ACAD_REACTORS
330
13
102
}
330
13
100
AcDbDictionary
281
1
3
CANNOSCALE
350
FF3
3
CMLEADERSTYLE
350
FF2
3
CTABLESTYLE
350
FF1
3
DIMASSOC
350
FF6
3
INDEXCTL
350
FF5
3
SORTENTS
350
FF4
3
XCLIPFRAME
350
1078
0
XRECORD
5
107F
102
{ACAD_REACTORS
330
13
102
}
330
13
100
AcDbXrecord
280
1
1
DWGPROPS COOKIE
2

3

4

6

7

8

9

300
=
301
=
302
=
303
=
304
=
305
=
306
=
307
=
308
=
309
=
40
0.0
41
0.0
42
0.0
1

90
0
0
LAYOUT
5
FD1
102
{ACAD_XDICTIONARY
360
10A9
102
}
102
{ACAD_REACTORS
330
FCF
102
}
330
FCF
100
AcDbPlotSettings
1

2
Microsoft XPS Document Writer
4

6

40
0.0
41
0.0
42
0.0
43
0.0
44
0.0
45
0.0
46
0.0
47
0.0
48
0.0
49
0.0
140
0.0
141
0.0
142
1.0
143
1.0
70
688
72
0
73
0
74
5
7

75
16
147
1.0
148
0.0
149
0.0
100
AcDbLayout
1
Layout1
70
1
71
1
10
0.0
20
0.0
11
12.0
21
9.0
12
0.0
22
0.0
32
0.0
14
1.000000000000000E+20
24
1.000000000000000E+20
34
1.000000000000000E+20
15
-1.000000000000000E+20
25
-1.000000000000000E+20
35
-1.000000000000000E+20
146
0.0
13
0.0
23
0.0
33
0.0
16
1.0
26
0.0
36
0.0
17
0.0
27
1.0
37
0.0
76
0
330
25D
0
LAYOUT
5
FD0
102
{ACAD_XDICTIONARY
360
10A7
102
}
102
{ACAD_REACTORS
330
FCF
102
}
330
FCF
100
AcDbPlotSettings
1

2
Microsoft XPS Document Writer
4

6

40
0.0
41
0.0
42
0.0
43
0.0
44
0.0
45
0.0
46
0.0
47
0.0
48
0.0
49
0.0
140
0.0
141
0.0
142
1.0
143
1.0
70
1712
72
0
73
0
74
0
7

75
0
147
1.0
148
0.0
149
0.0
100
AcDbLayout
1
Model
70
1
71
0
10
0.0
20
0.0
11
12.0
21
9.0
12
0.0
22
0.0
32
0.0
14
0.0
24
0.0
34
0.0
15
0.0
25
0.0
35
0.0
146
0.0
13
0.0
23
0.0
33
0.0
16
1.0
26
0.0
36
0.0
17
0.0
27
1.0
37
0.0
76
0
330
261
331
26B
0
MATERIAL
5
F83
102
{ACAD_XDICTIONARY
360
F84
102
}
102
{ACAD_REACTORS
330
F7A
102
}
330
F7A
100
AcDbMaterial
1
ByBlock
72
0
43
0.0208333333333333
43
0.0
43
0.0
43
0.0
43
0.0
43
0.0208333333333333
43
0.0
43
0.0
43
0.0
43
0.0
43
1.0
43
0.0
43
0.0
43
0.0
43
0.0
43
1.0
77
0
47
0.0208333333333333
47
0.0
47
0.0
47
0.0
47
0.0
47
0.0208333333333333
47
0.0
47
0.0
47
0.0
47
0.0
47
1.0
47
0.0
47
0.0
47
0.0
47
0.0
47
1.0
171
0
49
0.0208333333333333
49
0.0
49
0.0
49
0.0
49
0.0
49
0.0208333333333333
49
0.0
49
0.0
49
0.0
49
0.0
49
1.0
49
0.0
49
0.0
49
0.0
49
0.0
49
1.0
175
0
142
0.0208333333333333
142
0.0
142
0.0
142
0.0
142
0.0
142
0.0208333333333333
142
0.0
142
0.0
142
0.0
142
0.0
142
1.0
142
0.0
142
0.0
142
0.0
142
0.0
142
1.0
179
0
144
0.0208333333333333
144
0.0
144
0.0
144
0.0
144
0.0
144
0.0208333333333333
144
0.0
144
0.0
144
0.0
144
0.0
144
1.0
144
0.0
144
0.0
144
0.0
144
0.0
144
1.0
147
0.0208333333333333
147
0.0
147
0.0
147
0.0
147
0.0
147
0.0208333333333333
147
0.0
147
0.0
147
0.0
147
0.0
147
1.0
147
0.0
147
0.0
147
0.0
147
0.0
147
1.0
0
MATERIAL
5
F7B
102
{ACAD_XDICTIONARY
360
F7C
102
}
102
{ACAD_REACTORS
330
F7A
102
}
330
F7A
100
AcDbMaterial
1
ByLayer
72
0
43
0.0208333333333333
43
0.0
43
0.0
43
0.0
43
0.0
43
0.0208333333333333
43
0.0
43
0.0
43
0.0
43
0.0
43
1.0
43
0.0
43
0.0
43
0.0
43
0.0
43
1.0
77
0
47
0.0208333333333333
47
0.0
47
0.0
47
0.0
47
0.0
47
0.0208333333333333
47
0.0
47
0.0
47
0.0
47
0.0
47
1.0
47
0.0
47
0.0
47
0.0
47
0.0
47
1.0
171
0
49
0.0208333333333333
49
0.0
49
0.0
49
0.0
49
0.0
49
0.0208333333333333
49
0.0
49
0.0
49
0.0
49
0.0
49
1.0
49
0.0
49
0.0
49
0.0
49
0.0
49
1.0
175
0
142
0.0208333333333333
142
0.0
142
0.0
142
0.0
142
0.0
142
0.0208333333333333
142
0.0
142
0.0
142
0.0
142
0.0
142
1.0
142
0.0
142
0.0
142
0.0
142
0.0
142
1.0
179
0
144
0.0208333333333333
144
0.0
144
0.0
144
0.0
144
0.0
144
0.0208333333333333
144
0.0
144
0.0
144
0.0
144
0.0
144
1.0
144
0.0
144
0.0
144
0.0
144
0.0
144
1.0
147
0.0208333333333333
147
0.0
147
0.0
147
0.0
147
0.0
147
0.0208333333333333
147
0.0
147
0.0
147
0.0
147
0.0
147
1.0
147
0.0
147
0.0
147
0.0
147
0.0
147
1.0
0
MATERIAL
5
F8B
102
{ACAD_XDICTIONARY
360
F8C
102
}
102
{ACAD_REACTORS
330
F7A
102
}
330
F7A
100
AcDbMaterial
1
Global
72
0
43
0.0208333333333333
43
0.0
43
0.0
43
0.0
43
0.0
43
0.0208333333333333
43
0.0
43
0.0
43
0.0
43
0.0
43
1.0
43
0.0
43
0.0
43
0.0
43
0.0
43
1.0
77
0
47
0.0208333333333333
47
0.0
47
0.0
47
0.0
47
0.0
47
0.0208333333333333
47
0.0
47
0.0
47
0.0
47
0.0
47
1.0
47
0.0
47
0.0
47
0.0
47
0.0
47
1.0
171
0
49
0.0208333333333333
49
0.0
49
0.0
49
0.0
49
0.0
49
0.0208333333333333
49
0.0
49
0.0
49
0.0
49
0.0
49
1.0
49
0.0
49
0.0
49
0.0
49
0.0
49
1.0
175
0
142
0.0208333333333333
142
0.0
142
0.0
142
0.0
142
0.0
142
0.0208333333333333
142
0.0
142
0.0
142
0.0
142
0.0
142
1.0
142
0.0
142
0.0
142
0.0
142
0.0
142
1.0
179
0
144
0.0208333333333333
144
0.0
144
0.0
144
0.0
144
0.0
144
0.0208333333333333
144
0.0
144
0.0
144
0.0
144
0.0
144
1.0
144
0.0
144
0.0
144
0.0
144
0.0
144
1.0
147
0.0208333333333333
147
0.0
147
0.0
147
0.0
147
0.0
147
0.0208333333333333
147
0.0
147
0.0
147
0.0
147
0.0
147
1.0
147
0.0
147
0.0
147
0.0
147
0.0
147
1.0
0
MLEADERSTYLE
5
FCE
102
{ACAD_REACTORS
330
FCD
102
}
330
FCD
100
AcDbMLeaderStyle
170
2
171
1
172
0
90
2
40
0.0
41
0.0
173
1
91
-1056964608
340
256
92
-2
290
1
42
0.09
291
1
43
0.36
3
Standard
44
0.18
300

342
253
174
1
178
6
175
1
176
0
93
-1056964608
45
0.18
292
0
297
0
46
0.18
94
-1056964608
47
1.0
49
1.0
140
1.0
293
1
141
0.0
294
1
177
0
142
1.0
295
0
296
0
143
0.125
1001
ACAD_MLEADERVER
1070
2
0
MLINESTYLE
5
FAA
102
{ACAD_REACTORS
330
16
102
}
330
16
100
AcDbMlineStyle
2
STANDARD
70
0
3

62
256
51
90.0
52
90.0
71
2
49
0.5
62
256
6
BYLAYER
49
-0.5
62
256
6
BYLAYER
0
ACDBPLACEHOLDER
5
19
102
{ACAD_REACTORS
330
18
102
}
330
18
0
SCALE
5
FAC
102
{ACAD_REACTORS
330
FAB
102
}
330
FAB
100
AcDbScale
70
0
300
1:1
140
1.0
141
1.0
290
1
0
SCALE
5
FAD
102
{ACAD_REACTORS
330
FAB
102
}
330
FAB
100
AcDbScale
70
0
300
1:2
140
1.0
141
2.0
290
0
0
SCALE
5
FAE
102
{ACAD_REACTORS
330
FAB
102
}
330
FAB
100
AcDbScale
70
0
300
1:4
140
1.0
141
4.0
290
0
0
SCALE
5
FAF
102
{ACAD_REACTORS
330
FAB
102
}
330
FAB
100
AcDbScale
70
0
300
1:5
140
1.0
141
5.0
290
0
0
SCALE
5
FB0
102
{ACAD_REACTORS
330
FAB
102
}
330
FAB
100
AcDbScale
70
0
300
1:8
140
1.0
141
8.0
290
0
0
SCALE
5
FB1
102
{ACAD_REACTORS
330
FAB
102
}
330
FAB
100
AcDbScale
70
0
300
1:10
140
1.0
141
10.0
290
0
0
SCALE
5
FB2
102
{ACAD_REACTORS
330
FAB
102
}
330
FAB
100
AcDbScale
70
0
300
1:16
140
1.0
141
16.0
290
0
0
SCALE
5
FB3
102
{ACAD_REACTORS
330
FAB
102
}
330
FAB
100
AcDbScale
70
0
300
1:20
140
1.0
141
20.0
290
0
0
SCALE
5
FB4
102
{ACAD_REACTORS
330
FAB
102
}
330
FAB
100
AcDbScale
70
0
300
1:30
140
1.0
141
30.0
290
0
0
SCALE
5
FB5
102
{ACAD_REACTORS
330
FAB
102
}
330
FAB
100
AcDbScale
70
0
300
1:40
140
1.0
141
40.0
290
0
0
SCALE
5
FB6
102
{ACAD_REACTORS
330
FAB
102
}
330
FAB
100
AcDbScale
70
0
300
1:50
140
1.0
141
50.0
290
0
0
SCALE
5
FB7
102
{ACAD_REACTORS
330
FAB
102
}
330
FAB
100
AcDbScale
70
0
300
1:100
140
1.0
141
100.0
290
0
0
SCALE
5
FB8
102
{ACAD_REACTORS
330
FAB
102
}
330
FAB
100
AcDbScale
70
0
300
2:1
140
2.0
141
1.0
290
0
0
SCALE
5
FB9
102
{ACAD_REACTORS
330
FAB
102
}
330
FAB
100
AcDbScale
70
0
300
4:1
140
4.0
141
1.0
290
0
0
SCALE
5
FBA
102
{ACAD_REACTORS
330
FAB
102
}
330
FAB
100
AcDbScale
70
0
300
8:1
140
8.0
141
1.0
290
0
0
SCALE
5
FBB
102
{ACAD_REACTORS
330
FAB
102
}
330
FAB
100
AcDbScale
70
0
300
10:1
140
10.0
141
1.0
290
0
0
SCALE
5
FBC
102
{ACAD_REACTORS
330
FAB
102
}
330
FAB
100
AcDbScale
70
0
300
100:1
140
100.0
141
1.0
290
0
0
SCALE
5
FBD
102
{ACAD_REACTORS
330
FAB
102
}
330
FAB
100
AcDbScale
70
0
300
1/128" = 1'-0"
140
0.0078125
141
12.0
290
0
0
SCALE
5
FBE
102
{ACAD_REACTORS
330
FAB
102
}
330
FAB
100
AcDbScale
70
0
300
1/64" = 1'-0"
140
0.015625
141
12.0
290
0
0
SCALE
5
FBF
102
{ACAD_REACTORS
330
FAB
102
}
330
FAB
100
AcDbScale
70
0
300
1/32" = 1'-0"
140
0.03125
141
12.0
290
0
0
SCALE
5
FC0
102
{ACAD_REACTORS
330
FAB
102
}
330
FAB
100
AcDbScale
70
0
300
1/16" = 1'-0"
140
0.0625
141
12.0
290
0
0
SCALE
5
FC1
102
{ACAD_REACTORS
330
FAB
102
}
330
FAB
100
AcDbScale
70
0
300
3/32" = 1'-0"
140
0.09375
141
12.0
290
0
0
SCALE
5
FC2
102
{ACAD_REACTORS
330
FAB
102
}
330
FAB
100
AcDbScale
70
0
300
1/8" = 1'-0"
140
0.125
141
12.0
290
0
0
SCALE
5
FC3
102
{ACAD_REACTORS
330
FAB
102
}
330
FAB
100
AcDbScale
70
0
300
3/16" = 1'-0"
140
0.1875
141
12.0
290
0
0
SCALE
5
FC4
102
{ACAD_REACTORS
330
FAB
102
}
330
FAB
100
AcDbScale
70
0
300
1/4" = 1'-0"
140
0.25
141
12.0
290
0
0
SCALE
5
FC5
102
{ACAD_REACTORS
330
FAB
102
}
330
FAB
100
AcDbScale
70
0
300
3/8" = 1'-0"
140
0.375
141
12.0
290
0
0
SCALE
5
FC6
102
{ACAD_REACTORS
330
FAB
102
}
330
FAB
100
AcDbScale
70
0
300
1/2" = 1'-0"
140
0.5
141
12.0
290
0
0
SCALE
5
FC7
102
{ACAD_REACTORS
330
FAB
102
}
330
FAB
100
AcDbScale
70
0
300
3/4" = 1'-0"
140
0.75
141
12.0
290
0
0
SCALE
5
FC8
102
{ACAD_REACTORS
330
FAB
102
}
330
FAB
100
AcDbScale
70
0
300
1" = 1'-0"
140
1.0
141
12.0
290
0
0
SCALE
5
FC9
102
{ACAD_REACTORS
330
FAB
102
}
330
FAB
100
AcDbScale
70
0
300
1-1/2" = 1'-0"
140
1.5
141
12.0
290
0
0
SCALE
5
FCA
102
{ACAD_REACTORS
330
FAB
102
}
330
FAB
100
AcDbScale
70
0
300
3" = 1'-0"
140
3.0
141
12.0
290
0
0
SCALE
5
FCB
102
{ACAD_REACTORS
330
FAB
102
}
330
FAB
100
AcDbScale
70
0
300
6" = 1'-0"
140
6.0
141
12.0
290
0
0
SCALE
5
FCC
102
{ACAD_REACTORS
330
FAB
102
}
330
FAB
100
AcDbScale
70
0
300
1'-0" = 1'-0"
140
12.0
141
12.0
290
0
0
TABLESTYLE
5
FA9
102
{ACAD_XDICTIONARY
360
FF8
102
}
102
{ACAD_REACTORS
330
FA8
102
}
330
FA8
100
AcDbTableStyle
3
Standard
70
0
71
0
40
0.06
41
0.06
280
0
281
0
7
Standard
140
0.18
170
2
62
0
63
7
283
0
274
-2
284
1
64
0
275
-2
285
1
65
0
276
-2
286
1
66
0
277
-2
287
1
67
0
278
-2
288
1
68
0
279
-2
289
1
69
0
7
Standard
140
0.25
170
5
62
0
63
7
283
0
274
-2
284
1
64
0
275
-2
285
1
65
0
276
-2
286
1
66
0
277
-2
287
1
67
0
278
-2
288
1
68
0
279
-2
289
1
69
0
7
Standard
140
0.18
170
5
62
0
63
7
283
0
274
-2
284
1
64
0
275
-2
285
1
65
0
276
-2
286
1
66
0
277
-2
287
1
67
0
278
-2
288
1
68
0
279
-2
289
1
69
0
0
VISUALSTYLE
5
F99
102
{ACAD_XDICTIONARY
360
108A
102
}
102
{ACAD_REACTORS
330
F93
102
}
330
F93
100
AcDbVisualStyle
2

70
4
71
0
72
2
73
0
90
0
40
-0.6
41
-30.0
62
5
63
7
74
1
91
4
64
7
65
257
75
1
175
1
42
1.0
92
0
66
257
43
1.0
76
1
77
6
78
2
67
7
79
5
170
0
171
0
290
0
174
0
93
1
44
0.0
173
0
291
0
45
0.0
1001
ACAD
1000
AcDbSavedByObjectVersion
1070
0
0
VISUALSTYLE
5
F9B
102
{ACAD_XDICTIONARY
360
108E
102
}
102
{ACAD_REACTORS
330
F93
102
}
330
F93
100
AcDbVisualStyle
2

70
6
71
1
72
2
73
2
90
0
40
-0.6
41
-30.0
62
5
63
7
74
2
91
2
64
7
65
257
75
2
175
1
42
179.0
92
0
66
257
43
1.0
76
1
77
6
78
2
67
7
79
3
170
0
171
0
290
0
174
0
93
1
44
0.0
173
0
291
0
45
0.0
1001
ACAD
1000
AcDbSavedByObjectVersion
1070
0
0
VISUALSTYLE
5
F9A
102
{ACAD_XDICTIONARY
360
108C
102
}
102
{ACAD_REACTORS
330
F93
102
}
330
F93
100
AcDbVisualStyle
2

70
5
71
0
72
2
73
0
90
0
40
-0.6
41
-30.0
62
5
63
7
74
1
91
4
64
7
65
257
75
1
175
1
42
1.0
92
0
66
257
43
1.0
76
1
77
6
78
2
67
7
79
5
170
0
171
0
290
0
174
0
93
1
44
0.0
173
0
291
0
45
0.0
1001
ACAD
1000
AcDbSavedByObjectVersion
1070
0
0
VISUALSTYLE
5
F98
102
{ACAD_XDICTIONARY
360
1088
102
}
102
{ACAD_REACTORS
330
F93
102
}
330
F93
100
AcDbVisualStyle
2

70
7
71
1
72
0
73
1
90
0
40
-0.6
41
-30.0
62
5
63
7
74
0
91
4
64
7
65
257
75
1
175
1
42
1.0
92
8
66
7
43
1.0
76
1
77
6
78
2
67
7
79
5
170
0
171
0
290
0
174
0
93
1
44
0.0
173
0
291
1
45
0.0
1001
ACAD
1000
AcDbSavedByObjectVersion
1070
0
0
VISUALSTYLE
5
F9F
102
{ACAD_XDICTIONARY
360
1096
102
}
102
{ACAD_REACTORS
330
F93
102
}
330
F93
100
AcDbVisualStyle
2

70
12
71
2
72
2
73
0
90
0
40
-0.6
41
-30.0
62
5
63
7
74
1
91
4
64
7
65
257
75
1
175
1
42
1.0
92
8
66
7
43
1.0
76
1
77
6
78
2
67
7
79
5
170
0
171
0
290
0
174
0
93
1
44
50.0
173
0
291
1
45
0.0
1001
ACAD
1000
AcDbSavedByObjectVersion
1070
0
0
VISUALSTYLE
5
FA3
102
{ACAD_XDICTIONARY
360
109E
102
}
102
{ACAD_REACTORS
330
F93
102
}
330
F93
100
AcDbVisualStyle
2

70
16
71
2
72
2
73
3
90
0
40
-0.6
41
-30.0
62
5
63
8
74
1
91
4
64
7
65
257
75
1
175
1
42
1.0
92
8
66
8
43
1.0
76
1
77
6
78
2
67
7
79
5
170
0
171
0
290
0
174
0
93
1
44
0.0
173
0
291
1
45
0.0
1001
ACAD
1000
AcDbSavedByObjectVersion
1070
0
0
VISUALSTYLE
5
F9C
102
{ACAD_XDICTIONARY
360
1090
102
}
102
{ACAD_REACTORS
330
F93
102
}
330
F93
100
AcDbVisualStyle
2

70
9
71
3
72
2
73
0
90
0
40
-0.6
41
-30.0
62
5
63
7
74
2
91
2
64
7
65
257
75
1
175
1
42
179.0
92
8
66
7
43
1.0
76
1
77
6
78
2
67
7
79
3
170
0
171
0
290
0
174
0
93
1
44
0.0
173
0
291
0
45
0.0
1001
ACAD
1000
AcDbSavedByObjectVersion
1070
0
0
VISUALSTYLE
5
F9E
102
{ACAD_XDICTIONARY
360
1094
102
}
102
{ACAD_REACTORS
330
F93
102
}
330
F93
100
AcDbVisualStyle
2

70
11
71
2
72
2
73
0
90
0
40
-0.6
41
-30.0
62
5
63
7
74
1
91
4
64
7
65
257
75
1
175
1
42
1.0
92
8
66
7
43
1.0
76
1
77
6
78
2
67
7
79
5
170
0
171
0
290
0
174
0
93
1
44
-50.0
173
0
291
1
45
0.0
1001
ACAD
1000
AcDbSavedByObjectVersion
1070
0
0
VISUALSTYLE
5
FA6
102
{ACAD_XDICTIONARY
360
10A4
102
}
102
{ACAD_REACTORS
330
F93
102
}
330
F93
100
AcDbVisualStyle
2

70
22
71
2
72
2
73
0
90
0
40
-0.6
41
-30.0
62
5
63
7
74
1
91
4
64
7
65
257
75
1
175
1
42
1.0
92
8
66
7
43
1.0
76
1
77
6
78
2
67
7
79
5
170
0
171
0
290
0
174
0
93
1
44
0.0
173
0
291
1
45
0.0
1001
ACAD
1000
AcDbSavedByObjectVersion
1070
0
0
VISUALSTYLE
5
FA2
102
{ACAD_XDICTIONARY
360
109C
102
}
102
{ACAD_REACTORS
330
F93
102
}
330
F93
100
AcDbVisualStyle
2

70
15
71
2
72
2
73
0
90
0
40
-0.6
41
-30.0
62
5
63
7
74
1
91
4
64
7
65
257
75
1
175
1
42
1.0
92
8
66
7
43
1.0
76
1
77
6
78
2
67
7
79
5
170
0
171
0
290
0
174
0
93
1
44
0.0
173
0
291
1
45
0.0
1001
ACAD
1000
AcDbSavedByObjectVersion
1070
0
0
VISUALSTYLE
5
F94
102
{ACAD_XDICTIONARY
360
1080
102
}
102
{ACAD_REACTORS
330
F93
102
}
330
F93
100
AcDbVisualStyle
2

70
0
71
2
72
1
73
1
90
2
40
-0.6
41
30.0
62
5
63
7
74
0
91
4
64
7
65
257
75
1
175
1
42
1.0
92
8
66
7
43
1.0
76
1
77
6
78
2
67
7
79
5
170
0
171
0
290
0
174
0
93
13
44
0.0
173
0
291
1
45
0.0
1001
ACAD
1000
AcDbSavedByObjectVersion
1070
0
0
VISUALSTYLE
5
F95
102
{ACAD_XDICTIONARY
360
1082
102
}
102
{ACAD_REACTORS
330
F93
102
}
330
F93
100
AcDbVisualStyle
2

70
1
71
2
72
1
73
1
90
2
40
-0.6
41
30.0
62
5
63
7
74
1
91
4
64
7
65
257
75
1
175
1
42
1.0
92
0
66
257
43
1.0
76
1
77
6
78
2
67
7
79
5
170
0
171
0
290
0
174
0
93
13
44
0.0
173
0
291
1
45
0.0
1001
ACAD
1000
AcDbSavedByObjectVersion
1070
0
0
VISUALSTYLE
5
F96
102
{ACAD_XDICTIONARY
360
1084
102
}
102
{ACAD_REACTORS
330
F93
102
}
330
F93
100
AcDbVisualStyle
2

70
2
71
2
72
2
73
1
90
2
40
-0.6
41
30.0
62
5
63
7
74
0
91
4
64
7
65
257
75
1
175
1
42
1.0
92
0
66
7
43
1.0
76
1
77
6
78
2
67
7
79
5
170
0
171
0
290
0
174
0
93
13
44
0.0
173
0
291
1
45
0.0
1001
ACAD
1000
AcDbSavedByObjectVersion
1070
0
0
VISUALSTYLE
5
F97
102
{ACAD_XDICTIONARY
360
1086
102
}
102
{ACAD_REACTORS
330
F93
102
}
330
F93
100
AcDbVisualStyle
2

70
3
71
2
72
2
73
1
90
2
40
-0.6
41
30.0
62
5
63
7
74
1
91
4
64
7
65
257
75
1
175
1
42
1.0
92
0
66
257
43
1.0
76
1
77
6
78
2
67
7
79
5
170
0
171
0
290
0
174
0
93
13
44
0.0
173
0
291
1
45
0.0
1001
ACAD
1000
AcDbSavedByObjectVersion
1070
0
0
VISUALSTYLE
5
FA4
102
{ACAD_XDICTIONARY
360
10A0
102
}
102
{ACAD_REACTORS
330
F93
102
}
330
F93
100
AcDbVisualStyle
2

70
20
71
2
72
2
73
0
90
0
40
-0.6
41
-30.0
62
5
63
7
74
1
91
4
64
7
65
257
75
1
175
1
42
1.0
92
10
66
7
43
1.0
76
1
77
6
78
2
67
7
79
5
170
0
171
0
290
0
174
0
93
1
44
0.0
173
0
291
1
45
0.0
1001
ACAD
1000
AcDbSavedByObjectVersion
1070
0
0
VISUALSTYLE
5
FA1
102
{ACAD_XDICTIONARY
360
109A
102
}
102
{ACAD_REACTORS
330
F93
102
}
330
F93
100
AcDbVisualStyle
2

70
14
71
2
72
2
73
0
90
0
40
-0.6
41
-30.0
62
5
63
7
74
1
91
4
64
7
65
257
75
7
175
7
42
1.0
92
8
66
7
43
1.0
76
1
77
6
78
2
67
7
79
5
170
0
171
0
290
0
174
0
93
1
44
0.0
173
0
291
1
45
0.0
1001
ACAD
1000
AcDbSavedByObjectVersion
1070
0
0
VISUALSTYLE
5
FA5
102
{ACAD_XDICTIONARY
360
10A2
102
}
102
{ACAD_REACTORS
330
F93
102
}
330
F93
100
AcDbVisualStyle
2

70
21
71
2
72
2
73
0
90
0
40
-0.6
41
-30.0
62
5
63
7
74
1
91
4
64
7
65
257
75
1
175
1
42
1.0
92
9
66
7
43
1.0
76
1
77
6
78
2
67
7
79
5
170
0
171
0
290
0
174
0
93
1
44
0.0
173
0
291
1
45
0.0
1001
ACAD
1000
AcDbSavedByObjectVersion
1070
0
0
VISUALSTYLE
5
F9D
102
{ACAD_XDICTIONARY
360
1092
102
}
102
{ACAD_REACTORS
330
F93
102
}
330
F93
100
AcDbVisualStyle
2

70
8
71
2
72
2
73
0
90
0
40
-0.6
41
-30.0
62
5
63
7
74
1
91
0
64
7
65
257
75
1
175
1
42
1.0
92
8
66
8
43
1.0
76
1
77
6
78
2
67
7
79
5
170
0
171
0
290
0
174
0
93
13
44
0.0
173
0
291
0
45
0.0
1001
ACAD
1000
AcDbSavedByObjectVersion
1070
0
0
VISUALSTYLE
5
FA0
102
{ACAD_XDICTIONARY
360
1098
102
}
102
{ACAD_REACTORS
330
F93
102
}
330
F93
100
AcDbVisualStyle
2

70
13
71
2
72
2
73
0
90
0
40
-0.6
41
-30.0
62
5
63
7
74
1
91
4
64
7
65
257
75
1
175
1
42
1.0
92
12
66
7
43
1.0
76
1
77
6
78
2
67
7
79
5
170
0
171
0
290
0
174
0
93
1
44
0.0
173
0
291
1
45
0.0
1001
ACAD
1000
AcDbSavedByObjectVersion
1070
0
0
DICTIONARYVAR
5
FF3
102
{ACAD_REACTORS
330
FF0
102
}
330
FF0
100
DictionaryVariables
280
0
1
1:1
0
DICTIONARYVAR
5
FF2
102
{ACAD_REACTORS
330
FF0
102
}
330
FF0
100
DictionaryVariables
280
0
1
STANDARD
0
DICTIONARYVAR
5
FF1
102
{ACAD_REACTORS
330
FF0
102
}
330
FF0
100
DictionaryVariables
280
0
1
STANDARD
0
DICTIONARYVAR
5
FF6
102
{ACAD_REACTORS
330
FF0
102
}
330
FF0
100
DictionaryVariables
280
0
1
1
0
DICTIONARYVAR
5
FF5
102
{ACAD_REACTORS
330
FF0
102
}
330
FF0
100
DictionaryVariables
280
0
1
0
0
DICTIONARYVAR
5
FF4
102
{ACAD_REACTORS
330
FF0
102
}
330
FF0
100
DictionaryVariables
280
0
1
127
0
DICTIONARYVAR
5
1078
102
{ACAD_REACTORS
330
FF0
102
}
330
FF0
100
DictionaryVariables
280
0
1
2
0
DICTIONARY
5
10A9
330
FD1
100
AcDbDictionary
280
1
281
1
3
ACAD_XREC_ROUNDTRIP
360
10AA
0
DICTIONARY
5
10A7
330
FD0
100
AcDbDictionary
280
1
281
1
3
ACAD_XREC_ROUNDTRIP
360
10A8
0
DICTIONARY
5
F84
330
F83
100
AcDbDictionary
280
1
281
1
3
ACAD_XREC_ROUNDTRIP
360
FFF
3
BUMPTILE
360
F86
3
DIFFUSETILE
360
F85
3
OPACITYTILE
360
F89
3
REFLECTIONTILE
360
F88
3
REFRACTIONTILE
360
F8A
3
SPECULARTILE
360
F87
0
DICTIONARY
5
F7C
330
F7B
100
AcDbDictionary
280
1
281
1
3
ACAD_XREC_ROUNDTRIP
360
FFE
3
BUMPTILE
360
F7E
3
DIFFUSETILE
360
F7D
3
OPACITYTILE
360
F81
3
REFLECTIONTILE
360
F80
3
REFRACTIONTILE
360
F82
3
SPECULARTILE
360
F7F
0
DICTIONARY
5
F8C
330
F8B
100
AcDbDictionary
280
1
281
1
3
ACAD_XREC_ROUNDTRIP
360
1000
3
BUMPTILE
360
F8E
3
DIFFUSETILE
360
F8D
3
OPACITYTILE
360
F91
3
REFLECTIONTILE
360
F90
3
REFRACTIONTILE
360
F92
3
SPECULARTILE
360
F8F
0
DICTIONARY
5
FF8
330
FA9
100
AcDbDictionary
280
1
281
1
3
ACAD_ROUNDTRIP_2008_TABLESTYLE_CELLSTYLEMAP
360
1079
3
ACAD_XREC_ROUNDTRIP
360
10A6
0
DICTIONARY
5
108A
330
F99
100
AcDbDictionary
280
1
281
1
3
ACAD_XREC_ROUNDTRIP
360
108B
0
DICTIONARY
5
108E
330
F9B
100
AcDbDictionary
280
1
281
1
3
ACAD_XREC_ROUNDTRIP
360
108F
0
DICTIONARY
5
108C
330
F9A
100
AcDbDictionary
280
1
281
1
3
ACAD_XREC_ROUNDTRIP
360
108D
0
DICTIONARY
5
1088
330
F98
100
AcDbDictionary
280
1
281
1
3
ACAD_XREC_ROUNDTRIP
360
1089
0
DICTIONARY
5
1096
330
F9F
100
AcDbDictionary
280
1
281
1
3
ACAD_XREC_ROUNDTRIP
360
1097
0
DICTIONARY
5
109E
330
FA3
100
AcDbDictionary
280
1
281
1
3
ACAD_XREC_ROUNDTRIP
360
109F
0
DICTIONARY
5
1090
330
F9C
100
AcDbDictionary
280
1
281
1
3
ACAD_XREC_ROUNDTRIP
360
1091
0
DICTIONARY
5
1094
330
F9E
100
AcDbDictionary
280
1
281
1
3
ACAD_XREC_ROUNDTRIP
360
1095
0
DICTIONARY
5
10A4
330
FA6
100
AcDbDictionary
280
1
281
1
3
ACAD_XREC_ROUNDTRIP
360
10A5
0
DICTIONARY
5
109C
330
FA2
100
AcDbDictionary
280
1
281
1
3
ACAD_XREC_ROUNDTRIP
360
109D
0
DICTIONARY
5
1080
330
F94
100
AcDbDictionary
280
1
281
1
3
ACAD_XREC_ROUNDTRIP
360
1081
0
DICTIONARY
5
1082
330
F95
100
AcDbDictionary
280
1
281
1
3
ACAD_XREC_ROUNDTRIP
360
1083
0
DICTIONARY
5
1084
330
F96
100
AcDbDictionary
280
1
281
1
3
ACAD_XREC_ROUNDTRIP
360
1085
0
DICTIONARY
5
1086
330
F97
100
AcDbDictionary
280
1
281
1
3
ACAD_XREC_ROUNDTRIP
360
1087
0
DICTIONARY
5
10A0
330
FA4
100
AcDbDictionary
280
1
281
1
3
ACAD_XREC_ROUNDTRIP
360
10A1
0
DICTIONARY
5
109A
330
FA1
100
AcDbDictionary
280
1
281
1
3
ACAD_XREC_ROUNDTRIP
360
109B
0
DICTIONARY
5
10A2
330
FA5
100
AcDbDictionary
280
1
281
1
3
ACAD_XREC_ROUNDTRIP
360
10A3
0
DICTIONARY
5
1092
330
F9D
100
AcDbDictionary
280
1
281
1
3
ACAD_XREC_ROUNDTRIP
360
1093
0
DICTIONARY
5
1098
330
FA0
100
AcDbDictionary
280
1
281
1
3
ACAD_XREC_ROUNDTRIP
360
1099
0
XRECORD
5
10AA
102
{ACAD_REACTORS
330
10A9
102
}
330
10A9
100
AcDbXrecord
280
1
102
SHADEPLOT
70
0
102
SHADEPLOTRESLEVEL
70
2
102
SHADEPLOTCUSTOMDPI
70
300
0
XRECORD
5
10A8
102
{ACAD_REACTORS
330
10A7
102
}
330
10A7
100
AcDbXrecord
280
1
102
SHADEPLOT
70
0
102
SHADEPLOTRESLEVEL
70
2
102
SHADEPLOTCUSTOMDPI
70
300
0
XRECORD
5
FFF
102
{ACAD_REACTORS
330
F84
102
}
330
F84
100
AcDbXrecord
280
1
102
MATERIAL
148
0.0
149
0.0
149
0.0
93
0
94
127
282
0
72
0
77
0
171
0
175
0
179
0
273
0
0
XRECORD
5
F86
102
{ACAD_REACTORS
330
F84
102
}
330
F84
100
AcDbXrecord
280
1
270
1
271
1
0
XRECORD
5
F85
102
{ACAD_REACTORS
330
F84
102
}
330
F84
100
AcDbXrecord
280
1
270
1
271
1
0
XRECORD
5
F89
102
{ACAD_REACTORS
330
F84
102
}
330
F84
100
AcDbXrecord
280
1
270
1
271
1
0
XRECORD
5
F88
102
{ACAD_REACTORS
330
F84
102
}
330
F84
100
AcDbXrecord
280
1
270
1
271
1
0
XRECORD
5
F8A
102
{ACAD_REACTORS
330
F84
102
}
330
F84
100
AcDbXrecord
280
1
270
1
271
1
0
XRECORD
5
F87
102
{ACAD_REACTORS
330
F84
102
}
330
F84
100
AcDbXrecord
280
1
270
1
271
1
0
XRECORD
5
FFE
102
{ACAD_REACTORS
330
F7C
102
}
330
F7C
100
AcDbXrecord
280
1
102
MATERIAL
148
0.0
149
0.0
149
0.0
93
0
94
127
282
0
72
0
77
0
171
0
175
0
179
0
273
0
0
XRECORD
5
F7E
102
{ACAD_REACTORS
330
F7C
102
}
330
F7C
100
AcDbXrecord
280
1
270
1
271
1
0
XRECORD
5
F7D
102
{ACAD_REACTORS
330
F7C
102
}
330
F7C
100
AcDbXrecord
280
1
270
1
271
1
0
XRECORD
5
F81
102
{ACAD_REACTORS
330
F7C
102
}
330
F7C
100
AcDbXrecord
280
1
270
1
271
1
0
XRECORD
5
F80
102
{ACAD_REACTORS
330
F7C
102
}
330
F7C
100
AcDbXrecord
280
1
270
1
271
1
0
XRECORD
5
F82
102
{ACAD_REACTORS
330
F7C
102
}
330
F7C
100
AcDbXrecord
280
1
270
1
271
1
0
XRECORD
5
F7F
102
{ACAD_REACTORS
330
F7C
102
}
330
F7C
100
AcDbXrecord
280
1
270
1
271
1
0
XRECORD
5
1000
102
{ACAD_REACTORS
330
F8C
102
}
330
F8C
100
AcDbXrecord
280
1
102
MATERIAL
148
0.0
149
0.0
149
0.0
93
0
94
127
282
0
72
0
77
0
171
0
175
0
179
0
273
0
0
XRECORD
5
F8E
102
{ACAD_REACTORS
330
F8C
102
}
330
F8C
100
AcDbXrecord
280
1
270
1
271
1
0
XRECORD
5
F8D
102
{ACAD_REACTORS
330
F8C
102
}
330
F8C
100
AcDbXrecord
280
1
270
1
271
1
0
XRECORD
5
F91
102
{ACAD_REACTORS
330
F8C
102
}
330
F8C
100
AcDbXrecord
280
1
270
1
271
1
0
XRECORD
5
F90
102
{ACAD_REACTORS
330
F8C
102
}
330
F8C
100
AcDbXrecord
280
1
270
1
271
1
0
XRECORD
5
F92
102
{ACAD_REACTORS
330
F8C
102
}
330
F8C
100
AcDbXrecord
280
1
270
1
271
1
0
XRECORD
5
F8F
102
{ACAD_REACTORS
330
F8C
102
}
330
F8C
100
AcDbXrecord
280
1
270
1
271
1
0
CELLSTYLEMAP
5
1079
102
{ACAD_REACTORS
330
FF8
102
}
330
FF8
100
AcDbCellStyleMap
90
3
300
CELLSTYLE
1
TABLEFORMAT_BEGIN
90
5
170
1
91
0
92
32768
62
257
93
1
300
CONTENTFORMAT
1
CONTENTFORMAT_BEGIN
90
0
91
0
92
512
93
0
300

40
0.0
140
1.0
94
5
62
0
340
253
144
0.25
309
CONTENTFORMAT_END
171
1
301
MARGIN
1
CELLMARGIN_BEGIN
40
0.06
40
0.06
40
0.06
40
0.06
40
0.18
40
0.18
309
CELLMARGIN_END
94
6
95
1
302
GRIDFORMAT
1
GRIDFORMAT_BEGIN
90
0
91
1
62
0
92
-2
340
0
93
0
40
0.045
309
GRIDFORMAT_END
95
2
302
GRIDFORMAT
1
GRIDFORMAT_BEGIN
90
0
91
1
62
0
92
-2
340
0
93
0
40
0.045
309
GRIDFORMAT_END
95
4
302
GRIDFORMAT
1
GRIDFORMAT_BEGIN
90
0
91
1
62
0
92
-2
340
0
93
0
40
0.045
309
GRIDFORMAT_END
95
8
302
GRIDFORMAT
1
GRIDFORMAT_BEGIN
90
0
91
1
62
0
92
-2
340
0
93
0
40
0.045
309
GRIDFORMAT_END
95
16
302
GRIDFORMAT
1
GRIDFORMAT_BEGIN
90
0
91
1
62
0
92
-2
340
0
93
0
40
0.045
309
GRIDFORMAT_END
95
32
302
GRIDFORMAT
1
GRIDFORMAT_BEGIN
90
0
91
1
62
0
92
-2
340
0
93
0
40
0.045
309
GRIDFORMAT_END
309
TABLEFORMAT_END
1
CELLSTYLE_BEGIN
90
1
91
1
300
_TITLE
309
CELLSTYLE_END
300
CELLSTYLE
1
TABLEFORMAT_BEGIN
90
5
170
1
91
0
92
0
62
257
93
1
300
CONTENTFORMAT
1
CONTENTFORMAT_BEGIN
90
0
91
0
92
512
93
0
300

40
0.0
140
1.0
94
5
62
0
340
253
144
0.18
309
CONTENTFORMAT_END
171
1
301
MARGIN
1
CELLMARGIN_BEGIN
40
0.06
40
0.06
40
0.06
40
0.06
40
0.18
40
0.18
309
CELLMARGIN_END
94
6
95
1
302
GRIDFORMAT
1
GRIDFORMAT_BEGIN
90
0
91
1
62
0
92
-2
340
0
93
0
40
0.045
309
GRIDFORMAT_END
95
2
302
GRIDFORMAT
1
GRIDFORMAT_BEGIN
90
0
91
1
62
0
92
-2
340
0
93
0
40
0.045
309
GRIDFORMAT_END
95
4
302
GRIDFORMAT
1
GRIDFORMAT_BEGIN
90
0
91
1
62
0
92
-2
340
0
93
0
40
0.045
309
GRIDFORMAT_END
95
8
302
GRIDFORMAT
1
GRIDFORMAT_BEGIN
90
0
91
1
62
0
92
-2
340
0
93
0
40
0.045
309
GRIDFORMAT_END
95
16
302
GRIDFORMAT
1
GRIDFORMAT_BEGIN
90
0
91
1
62
0
92
-2
340
0
93
0
40
0.045
309
GRIDFORMAT_END
95
32
302
GRIDFORMAT
1
GRIDFORMAT_BEGIN
90
0
91
1
62
0
92
-2
340
0
93
0
40
0.045
309
GRIDFORMAT_END
309
TABLEFORMAT_END
1
CELLSTYLE_BEGIN
90
2
91
1
300
_HEADER
309
CELLSTYLE_END
300
CELLSTYLE
1
TABLEFORMAT_BEGIN
90
5
170
1
91
0
92
0
62
257
93
1
300
CONTENTFORMAT
1
CONTENTFORMAT_BEGIN
90
0
91
0
92
512
93
0
300

40
0.0
140
1.0
94
2
62
0
340
253
144
0.18
309
CONTENTFORMAT_END
171
1
301
MARGIN
1
CELLMARGIN_BEGIN
40
0.06
40
0.06
40
0.06
40
0.06
40
0.18
40
0.18
309
CELLMARGIN_END
94
6
95
1
302
GRIDFORMAT
1
GRIDFORMAT_BEGIN
90
0
91
1
62
0
92
-2
340
0
93
0
40
0.045
309
GRIDFORMAT_END
95
2
302
GRIDFORMAT
1
GRIDFORMAT_BEGIN
90
0
91
1
62
0
92
-2
340
0
93
0
40
0.045
309
GRIDFORMAT_END
95
4
302
GRIDFORMAT
1
GRIDFORMAT_BEGIN
90
0
91
1
62
0
92
-2
340
0
93
0
40
0.045
309
GRIDFORMAT_END
95
8
302
GRIDFORMAT
1
GRIDFORMAT_BEGIN
90
0
91
1
62
0
92
-2
340
0
93
0
40
0.045
309
GRIDFORMAT_END
95
16
302
GRIDFORMAT
1
GRIDFORMAT_BEGIN
90
0
91
1
62
0
92
-2
340
0
93
0
40
0.045
309
GRIDFORMAT_END
95
32
302
GRIDFORMAT
1
GRIDFORMAT_BEGIN
90
0
91
1
62
0
92
-2
340
0
93
0
40
0.045
309
GRIDFORMAT_END
309
TABLEFORMAT_END
1
CELLSTYLE_BEGIN
90
3
91
2
300
_DATA
309
CELLSTYLE_END
0
XRECORD
5
10A6
102
{ACAD_REACTORS
330
FF8
102
}
330
FF8
100
AcDbXrecord
280
1
102
ACAD_ROUNDTRIP_PRE2007_TABLESTYLE
90
512
91
0
1

92
512
93
0
2

94
512
95
0
3

0
XRECORD
5
108B
102
{ACAD_REACTORS
330
108A
102
}
330
108A
100
AcDbXrecord
280
1
102
RTVSPropertyOp0
70
1
102
RTVSPropertyOp1
70
1
102
RTVSPropertyOp2
70
1
102
RTVSPropertyOp3
70
1
102
RTVSPropertyOp4
70
1
102
RTVSPropertyOp5
70
1
102
RTVSPropertyOp6
70
1
102
RTVSPropertyOp7
70
1
102
RTVSPropertyOp8
70
1
102
RTVSPropertyOp9
70
1
102
RTVSPropertyOp10
70
1
102
RTVSPropertyOp11
70
1
102
RTVSPropertyOp12
70
1
102
RTVSPropertyOp13
70
1
102
RTVSPropertyOp14
70
1
102
RTVSPropertyOp15
70
1
102
RTVSPropertyOp16
70
1
102
RTVSPropertyOp17
70
1
102
RTVSPropertyOp18
70
1
102
RTVSPropertyOp19
70
1
102
RTVSPropertyOp20
70
1
102
RTVSPropertyOp21
70
1
102
RTVSPropertyOp22
70
1
102
RTVSPropertyOp23
70
1
102
RTVSPropertyOp24
70
1
102
RTVSPropertyOp25
70
1
102
RTVSPropertyOp26
70
1
102
RTVSPropertyOp27
70
1
0
XRECORD
5
108F
102
{ACAD_REACTORS
330
108E
102
}
330
108E
100
AcDbXrecord
280
1
102
RTVSPropertyOp0
70
1
102
RTVSPropertyOp1
70
1
102
RTVSPropertyOp2
70
1
102
RTVSPropertyOp3
70
1
102
RTVSPropertyOp4
70
1
102
RTVSPropertyOp5
70
1
102
RTVSPropertyOp6
70
1
102
RTVSPropertyOp7
70
1
102
RTVSPropertyOp8
70
1
102
RTVSPropertyOp9
70
1
102
RTVSPropertyOp10
70
1
102
RTVSPropertyOp11
70
1
102
RTVSPropertyOp12
70
1
102
RTVSPropertyOp13
70
1
102
RTVSPropertyOp14
70
1
102
RTVSPropertyOp15
70
1
102
RTVSPropertyOp16
70
1
102
RTVSPropertyOp17
70
1
102
RTVSPropertyOp18
70
1
102
RTVSPropertyOp19
70
1
102
RTVSPropertyOp20
70
1
102
RTVSPropertyOp21
70
1
102
RTVSPropertyOp22
70
1
102
RTVSPropertyOp23
70
1
102
RTVSPropertyOp24
70
1
102
RTVSPropertyOp25
70
1
102
RTVSPropertyOp26
70
1
102
RTVSPropertyOp27
70
1
0
XRECORD
5
108D
102
{ACAD_REACTORS
330
108C
102
}
330
108C
100
AcDbXrecord
280
1
102
RTVSPropertyOp0
70
1
102
RTVSPropertyOp1
70
1
102
RTVSPropertyOp2
70
1
102
RTVSPropertyOp3
70
1
102
RTVSPropertyOp4
70
1
102
RTVSPropertyOp5
70
1
102
RTVSPropertyOp6
70
1
102
RTVSPropertyOp7
70
1
102
RTVSPropertyOp8
70
1
102
RTVSPropertyOp9
70
1
102
RTVSPropertyOp10
70
1
102
RTVSPropertyOp11
70
1
102
RTVSPropertyOp12
70
1
102
RTVSPropertyOp13
70
1
102
RTVSPropertyOp14
70
1
102
RTVSPropertyOp15
70
1
102
RTVSPropertyOp16
70
1
102
RTVSPropertyOp17
70
1
102
RTVSPropertyOp18
70
1
102
RTVSPropertyOp19
70
1
102
RTVSPropertyOp20
70
1
102
RTVSPropertyOp21
70
1
102
RTVSPropertyOp22
70
1
102
RTVSPropertyOp23
70
1
102
RTVSPropertyOp24
70
1
102
RTVSPropertyOp25
70
1
102
RTVSPropertyOp26
70
1
102
RTVSPropertyOp27
70
1
0
XRECORD
5
1089
102
{ACAD_REACTORS
330
1088
102
}
330
1088
100
AcDbXrecord
280
1
102
RTVSPropertyOp0
70
1
102
RTVSPropertyOp1
70
1
102
RTVSPropertyOp2
70
1
102
RTVSPropertyOp3
70
1
102
RTVSPropertyOp4
70
1
102
RTVSPropertyOp5
70
1
102
RTVSPropertyOp6
70
1
102
RTVSPropertyOp7
70
1
102
RTVSPropertyOp8
70
1
102
RTVSPropertyOp9
70
1
102
RTVSPropertyOp10
70
1
102
RTVSPropertyOp11
70
1
102
RTVSPropertyOp12
70
1
102
RTVSPropertyOp13
70
1
102
RTVSPropertyOp14
70
1
102
RTVSPropertyOp15
70
1
102
RTVSPropertyOp16
70
1
102
RTVSPropertyOp17
70
1
102
RTVSPropertyOp18
70
1
102
RTVSPropertyOp19
70
1
102
RTVSPropertyOp20
70
1
102
RTVSPropertyOp21
70
1
102
RTVSPropertyOp22
70
1
102
RTVSPropertyOp23
70
1
102
RTVSPropertyOp24
70
1
102
RTVSPropertyOp25
70
1
102
RTVSPropertyOp26
70
1
102
RTVSPropertyOp27
70
1
0
XRECORD
5
1097
102
{ACAD_REACTORS
330
1096
102
}
330
1096
100
AcDbXrecord
280
1
102
RTVSPropertyOp0
70
1
102
RTVSPropertyOp1
70
1
102
RTVSPropertyOp2
70
1
102
RTVSPropertyOp3
70
1
102
RTVSPropertyOp4
70
1
102
RTVSPropertyOp5
70
1
102
RTVSPropertyOp6
70
1
102
RTVSPropertyOp7
70
1
102
RTVSPropertyOp8
70
1
102
RTVSPropertyOp9
70
1
102
RTVSPropertyOp10
70
1
102
RTVSPropertyOp11
70
1
102
RTVSPropertyOp12
70
1
102
RTVSPropertyOp13
70
1
102
RTVSPropertyOp14
70
1
102
RTVSPropertyOp15
70
1
102
RTVSPropertyOp16
70
1
102
RTVSPropertyOp17
70
1
102
RTVSPropertyOp18
70
1
102
RTVSPropertyOp19
70
1
102
RTVSPropertyOp20
70
1
102
RTVSPropertyOp21
70
1
102
RTVSPropertyOp22
70
1
102
RTVSPropertyOp23
70
1
102
RTVSPropertyOp24
70
1
102
RTVSPropertyOp25
70
1
102
RTVSPropertyOp26
70
1
102
RTVSPropertyOp27
70
1
0
XRECORD
5
109F
102
{ACAD_REACTORS
330
109E
102
}
330
109E
100
AcDbXrecord
280
1
102
RTVSPropertyOp0
70
1
102
RTVSPropertyOp1
70
1
102
RTVSPropertyOp2
70
1
102
RTVSPropertyOp3
70
1
102
RTVSPropertyOp4
70
1
102
RTVSPropertyOp5
70
1
102
RTVSPropertyOp6
70
1
102
RTVSPropertyOp7
70
1
102
RTVSPropertyOp8
70
1
102
RTVSPropertyOp9
70
1
102
RTVSPropertyOp10
70
1
102
RTVSPropertyOp11
70
1
102
RTVSPropertyOp12
70
1
102
RTVSPropertyOp13
70
1
102
RTVSPropertyOp14
70
1
102
RTVSPropertyOp15
70
1
102
RTVSPropertyOp16
70
1
102
RTVSPropertyOp17
70
1
102
RTVSPropertyOp18
70
1
102
RTVSPropertyOp19
70
1
102
RTVSPropertyOp20
70
1
102
RTVSPropertyOp21
70
1
102
RTVSPropertyOp22
70
1
102
RTVSPropertyOp23
70
1
102
RTVSPropertyOp24
70
1
102
RTVSPropertyOp25
70
1
102
RTVSPropertyOp26
70
1
102
RTVSPropertyOp27
70
1
0
XRECORD
5
1091
102
{ACAD_REACTORS
330
1090
102
}
330
1090
100
AcDbXrecord
280
1
102
RTVSPropertyOp0
70
1
102
RTVSPropertyOp1
70
1
102
RTVSPropertyOp2
70
1
102
RTVSPropertyOp3
70
1
102
RTVSPropertyOp4
70
1
102
RTVSPropertyOp5
70
1
102
RTVSPropertyOp6
70
1
102
RTVSPropertyOp7
70
1
102
RTVSPropertyOp8
70
1
102
RTVSPropertyOp9
70
1
102
RTVSPropertyOp10
70
1
102
RTVSPropertyOp11
70
1
102
RTVSPropertyOp12
70
1
102
RTVSPropertyOp13
70
1
102
RTVSPropertyOp14
70
1
102
RTVSPropertyOp15
70
1
102
RTVSPropertyOp16
70
1
102
RTVSPropertyOp17
70
1
102
RTVSPropertyOp18
70
1
102
RTVSPropertyOp19
70
1
102
RTVSPropertyOp20
70
1
102
RTVSPropertyOp21
70
1
102
RTVSPropertyOp22
70
1
102
RTVSPropertyOp23
70
1
102
RTVSPropertyOp24
70
1
102
RTVSPropertyOp25
70
1
102
RTVSPropertyOp26
70
1
102
RTVSPropertyOp27
70
1
0
XRECORD
5
1095
102
{ACAD_REACTORS
330
1094
102
}
330
1094
100
AcDbXrecord
280
1
102
RTVSPropertyOp0
70
1
102
RTVSPropertyOp1
70
1
102
RTVSPropertyOp2
70
1
102
RTVSPropertyOp3
70
1
102
RTVSPropertyOp4
70
1
102
RTVSPropertyOp5
70
1
102
RTVSPropertyOp6
70
1
102
RTVSPropertyOp7
70
1
102
RTVSPropertyOp8
70
1
102
RTVSPropertyOp9
70
1
102
RTVSPropertyOp10
70
1
102
RTVSPropertyOp11
70
1
102
RTVSPropertyOp12
70
1
102
RTVSPropertyOp13
70
1
102
RTVSPropertyOp14
70
1
102
RTVSPropertyOp15
70
1
102
RTVSPropertyOp16
70
1
102
RTVSPropertyOp17
70
1
102
RTVSPropertyOp18
70
1
102
RTVSPropertyOp19
70
1
102
RTVSPropertyOp20
70
1
102
RTVSPropertyOp21
70
1
102
RTVSPropertyOp22
70
1
102
RTVSPropertyOp23
70
1
102
RTVSPropertyOp24
70
1
102
RTVSPropertyOp25
70
1
102
RTVSPropertyOp26
70
1
102
RTVSPropertyOp27
70
1
0
XRECORD
5
10A5
102
{ACAD_REACTORS
330
10A4
102
}
330
10A4
100
AcDbXrecord
280
1
102
RTVSPropertyOp0
70
0
102
RTVSPropertyOp1
70
0
102
RTVSPropertyOp2
70
0
102
RTVSPropertyOp3
70
0
102
RTVSPropertyOp4
70
0
102
RTVSPropertyOp5
70
0
102
RTVSPropertyOp6
70
0
102
RTVSPropertyOp7
70
0
102
RTVSPropertyOp8
70
0
102
RTVSPropertyOp9
70
0
102
RTVSPropertyOp10
70
0
102
RTVSPropertyOp11
70
0
102
RTVSPropertyOp12
70
0
102
RTVSPropertyOp13
70
0
102
RTVSPropertyOp14
70
2
102
RTVSPropertyOp15
70
0
102
RTVSPropertyOp16
70
0
102
RTVSPropertyOp17
70
0
102
RTVSPropertyOp18
70
0
102
RTVSPropertyOp19
70
0
102
RTVSPropertyOp20
70
0
102
RTVSPropertyOp21
70
0
102
RTVSPropertyOp22
70
0
102
RTVSPropertyOp23
70
0
102
RTVSPropertyOp24
70
0
102
RTVSPropertyOp25
70
0
102
RTVSPropertyOp26
70
0
102
RTVSPropertyOp27
70
0
0
XRECORD
5
109D
102
{ACAD_REACTORS
330
109C
102
}
330
109C
100
AcDbXrecord
280
1
102
RTVSPropertyOp0
70
1
102
RTVSPropertyOp1
70
1
102
RTVSPropertyOp2
70
1
102
RTVSPropertyOp3
70
1
102
RTVSPropertyOp4
70
1
102
RTVSPropertyOp5
70
1
102
RTVSPropertyOp6
70
1
102
RTVSPropertyOp7
70
1
102
RTVSPropertyOp8
70
1
102
RTVSPropertyOp9
70
1
102
RTVSPropertyOp10
70
1
102
RTVSPropertyOp11
70
1
102
RTVSPropertyOp12
70
1
102
RTVSPropertyOp13
70
1
102
RTVSPropertyOp14
70
1
102
RTVSPropertyOp15
70
1
102
RTVSPropertyOp16
70
1
102
RTVSPropertyOp17
70
1
102
RTVSPropertyOp18
70
1
102
RTVSPropertyOp19
70
1
102
RTVSPropertyOp20
70
1
102
RTVSPropertyOp21
70
1
102
RTVSPropertyOp22
70
1
102
RTVSPropertyOp23
70
1
102
RTVSPropertyOp24
70
1
102
RTVSPropertyOp25
70
1
102
RTVSPropertyOp26
70
1
102
RTVSPropertyOp27
70
1
0
XRECORD
5
1081
102
{ACAD_REACTORS
330
1080
102
}
330
1080
100
AcDbXrecord
280
1
102
RTVSPropertyOp0
70
1
102
RTVSPropertyOp1
70
1
102
RTVSPropertyOp2
70
1
102
RTVSPropertyOp3
70
1
102
RTVSPropertyOp4
70
1
102
RTVSPropertyOp5
70
1
102
RTVSPropertyOp6
70
1
102
RTVSPropertyOp7
70
1
102
RTVSPropertyOp8
70
1
102
RTVSPropertyOp9
70
1
102
RTVSPropertyOp10
70
1
102
RTVSPropertyOp11
70
1
102
RTVSPropertyOp12
70
1
102
RTVSPropertyOp13
70
1
102
RTVSPropertyOp14
70
1
102
RTVSPropertyOp15
70
1
102
RTVSPropertyOp16
70
1
102
RTVSPropertyOp17
70
1
102
RTVSPropertyOp18
70
1
102
RTVSPropertyOp19
70
1
102
RTVSPropertyOp20
70
1
102
RTVSPropertyOp21
70
1
102
RTVSPropertyOp22
70
1
102
RTVSPropertyOp23
70
1
102
RTVSPropertyOp24
70
1
102
RTVSPropertyOp25
70
1
102
RTVSPropertyOp26
70
1
102
RTVSPropertyOp27
70
1
0
XRECORD
5
1083
102
{ACAD_REACTORS
330
1082
102
}
330
1082
100
AcDbXrecord
280
1
102
RTVSPropertyOp0
70
1
102
RTVSPropertyOp1
70
1
102
RTVSPropertyOp2
70
1
102
RTVSPropertyOp3
70
1
102
RTVSPropertyOp4
70
1
102
RTVSPropertyOp5
70
1
102
RTVSPropertyOp6
70
1
102
RTVSPropertyOp7
70
1
102
RTVSPropertyOp8
70
1
102
RTVSPropertyOp9
70
1
102
RTVSPropertyOp10
70
1
102
RTVSPropertyOp11
70
1
102
RTVSPropertyOp12
70
1
102
RTVSPropertyOp13
70
1
102
RTVSPropertyOp14
70
1
102
RTVSPropertyOp15
70
1
102
RTVSPropertyOp16
70
1
102
RTVSPropertyOp17
70
1
102
RTVSPropertyOp18
70
1
102
RTVSPropertyOp19
70
1
102
RTVSPropertyOp20
70
1
102
RTVSPropertyOp21
70
1
102
RTVSPropertyOp22
70
1
102
RTVSPropertyOp23
70
1
102
RTVSPropertyOp24
70
1
102
RTVSPropertyOp25
70
1
102
RTVSPropertyOp26
70
1
102
RTVSPropertyOp27
70
1
0
XRECORD
5
1085
102
{ACAD_REACTORS
330
1084
102
}
330
1084
100
AcDbXrecord
280
1
102
RTVSPropertyOp0
70
1
102
RTVSPropertyOp1
70
1
102
RTVSPropertyOp2
70
1
102
RTVSPropertyOp3
70
1
102
RTVSPropertyOp4
70
1
102
RTVSPropertyOp5
70
1
102
RTVSPropertyOp6
70
1
102
RTVSPropertyOp7
70
1
102
RTVSPropertyOp8
70
1
102
RTVSPropertyOp9
70
1
102
RTVSPropertyOp10
70
1
102
RTVSPropertyOp11
70
1
102
RTVSPropertyOp12
70
1
102
RTVSPropertyOp13
70
1
102
RTVSPropertyOp14
70
1
102
RTVSPropertyOp15
70
1
102
RTVSPropertyOp16
70
1
102
RTVSPropertyOp17
70
1
102
RTVSPropertyOp18
70
1
102
RTVSPropertyOp19
70
1
102
RTVSPropertyOp20
70
1
102
RTVSPropertyOp21
70
1
102
RTVSPropertyOp22
70
1
102
RTVSPropertyOp23
70
1
102
RTVSPropertyOp24
70
1
102
RTVSPropertyOp25
70
1
102
RTVSPropertyOp26
70
1
102
RTVSPropertyOp27
70
1
0
XRECORD
5
1087
102
{ACAD_REACTORS
330
1086
102
}
330
1086
100
AcDbXrecord
280
1
102
RTVSPropertyOp0
70
1
102
RTVSPropertyOp1
70
1
102
RTVSPropertyOp2
70
1
102
RTVSPropertyOp3
70
1
102
RTVSPropertyOp4
70
1
102
RTVSPropertyOp5
70
1
102
RTVSPropertyOp6
70
1
102
RTVSPropertyOp7
70
1
102
RTVSPropertyOp8
70
1
102
RTVSPropertyOp9
70
1
102
RTVSPropertyOp10
70
1
102
RTVSPropertyOp11
70
1
102
RTVSPropertyOp12
70
1
102
RTVSPropertyOp13
70
1
102
RTVSPropertyOp14
70
1
102
RTVSPropertyOp15
70
1
102
RTVSPropertyOp16
70
1
102
RTVSPropertyOp17
70
1
102
RTVSPropertyOp18
70
1
102
RTVSPropertyOp19
70
1
102
RTVSPropertyOp20
70
1
102
RTVSPropertyOp21
70
1
102
RTVSPropertyOp22
70
1
102
RTVSPropertyOp23
70
1
102
RTVSPropertyOp24
70
1
102
RTVSPropertyOp25
70
1
102
RTVSPropertyOp26
70
1
102
RTVSPropertyOp27
70
1
0
XRECORD
5
10A1
102
{ACAD_REACTORS
330
10A0
102
}
330
10A0
100
AcDbXrecord
280
1
102
RTVSPropertyOp0
70
0
102
RTVSPropertyOp1
70
0
102
RTVSPropertyOp2
70
0
102
RTVSPropertyOp3
70
0
102
RTVSPropertyOp4
70
0
102
RTVSPropertyOp5
70
0
102
RTVSPropertyOp6
70
0
102
RTVSPropertyOp7
70
0
102
RTVSPropertyOp8
70
0
102
RTVSPropertyOp9
70
0
102
RTVSPropertyOp10
70
0
102
RTVSPropertyOp11
70
0
102
RTVSPropertyOp12
70
0
102
RTVSPropertyOp13
70
0
102
RTVSPropertyOp14
70
2
102
RTVSPropertyOp15
70
0
102
RTVSPropertyOp16
70
0
102
RTVSPropertyOp17
70
0
102
RTVSPropertyOp18
70
0
102
RTVSPropertyOp19
70
0
102
RTVSPropertyOp20
70
0
102
RTVSPropertyOp21
70
0
102
RTVSPropertyOp22
70
0
102
RTVSPropertyOp23
70
0
102
RTVSPropertyOp24
70
0
102
RTVSPropertyOp25
70
0
102
RTVSPropertyOp26
70
0
102
RTVSPropertyOp27
70
0
0
XRECORD
5
109B
102
{ACAD_REACTORS
330
109A
102
}
330
109A
100
AcDbXrecord
280
1
102
RTVSPropertyOp0
70
1
102
RTVSPropertyOp1
70
1
102
RTVSPropertyOp2
70
1
102
RTVSPropertyOp3
70
1
102
RTVSPropertyOp4
70
1
102
RTVSPropertyOp5
70
1
102
RTVSPropertyOp6
70
1
102
RTVSPropertyOp7
70
1
102
RTVSPropertyOp8
70
1
102
RTVSPropertyOp9
70
1
102
RTVSPropertyOp10
70
1
102
RTVSPropertyOp11
70
1
102
RTVSPropertyOp12
70
1
102
RTVSPropertyOp13
70
1
102
RTVSPropertyOp14
70
1
102
RTVSPropertyOp15
70
1
102
RTVSPropertyOp16
70
1
102
RTVSPropertyOp17
70
1
102
RTVSPropertyOp18
70
1
102
RTVSPropertyOp19
70
1
102
RTVSPropertyOp20
70
1
102
RTVSPropertyOp21
70
1
102
RTVSPropertyOp22
70
1
102
RTVSPropertyOp23
70
1
102
RTVSPropertyOp24
70
1
102
RTVSPropertyOp25
70
1
102
RTVSPropertyOp26
70
1
102
RTVSPropertyOp27
70
1
0
XRECORD
5
10A3
102
{ACAD_REACTORS
330
10A2
102
}
330
10A2
100
AcDbXrecord
280
1
102
RTVSPropertyOp0
70
0
102
RTVSPropertyOp1
70
0
102
RTVSPropertyOp2
70
0
102
RTVSPropertyOp3
70
0
102
RTVSPropertyOp4
70
0
102
RTVSPropertyOp5
70
0
102
RTVSPropertyOp6
70
0
102
RTVSPropertyOp7
70
0
102
RTVSPropertyOp8
70
0
102
RTVSPropertyOp9
70
0
102
RTVSPropertyOp10
70
0
102
RTVSPropertyOp11
70
0
102
RTVSPropertyOp12
70
0
102
RTVSPropertyOp13
70
0
102
RTVSPropertyOp14
70
2
102
RTVSPropertyOp15
70
0
102
RTVSPropertyOp16
70
0
102
RTVSPropertyOp17
70
0
102
RTVSPropertyOp18
70
0
102
RTVSPropertyOp19
70
0
102
RTVSPropertyOp20
70
0
102
RTVSPropertyOp21
70
0
102
RTVSPropertyOp22
70
0
102
RTVSPropertyOp23
70
0
102
RTVSPropertyOp24
70
0
102
RTVSPropertyOp25
70
0
102
RTVSPropertyOp26
70
0
102
RTVSPropertyOp27
70
0
0
XRECORD
5
1093
102
{ACAD_REACTORS
330
1092
102
}
330
1092
100
AcDbXrecord
280
1
102
RTVSPropertyOp0
70
1
102
RTVSPropertyOp1
70
1
102
RTVSPropertyOp2
70
1
102
RTVSPropertyOp3
70
1
102
RTVSPropertyOp4
70
1
102
RTVSPropertyOp5
70
1
102
RTVSPropertyOp6
70
1
102
RTVSPropertyOp7
70
1
102
RTVSPropertyOp8
70
1
102
RTVSPropertyOp9
70
1
102
RTVSPropertyOp10
70
1
102
RTVSPropertyOp11
70
1
102
RTVSPropertyOp12
70
1
102
RTVSPropertyOp13
70
1
102
RTVSPropertyOp14
70
1
102
RTVSPropertyOp15
70
1
102
RTVSPropertyOp16
70
1
102
RTVSPropertyOp17
70
1
102
RTVSPropertyOp18
70
1
102
RTVSPropertyOp19
70
1
102
RTVSPropertyOp20
70
1
102
RTVSPropertyOp21
70
1
102
RTVSPropertyOp22
70
1
102
RTVSPropertyOp23
70
1
102
RTVSPropertyOp24
70
1
102
RTVSPropertyOp25
70
1
102
RTVSPropertyOp26
70
1
102
RTVSPropertyOp27
70
1
0
XRECORD
5
1099
102
{ACAD_REACTORS
330
1098
102
}
330
1098
100
AcDbXrecord
280
1
102
RTVSPropertyOp0
70
1
102
RTVSPropertyOp1
70
1
102
RTVSPropertyOp2
70
1
102
RTVSPropertyOp3
70
1
102
RTVSPropertyOp4
70
1
102
RTVSPropertyOp5
70
1
102
RTVSPropertyOp6
70
1
102
RTVSPropertyOp7
70
1
102
RTVSPropertyOp8
70
1
102
RTVSPropertyOp9
70
1
102
RTVSPropertyOp10
70
1
102
RTVSPropertyOp11
70
1
102
RTVSPropertyOp12
70
1
102
RTVSPropertyOp13
70
1
102
RTVSPropertyOp14
70
1
102
RTVSPropertyOp15
70
1
102
RTVSPropertyOp16
70
1
102
RTVSPropertyOp17
70
1
102
RTVSPropertyOp18
70
1
102
RTVSPropertyOp19
70
1
102
RTVSPropertyOp20
70
1
102
RTVSPropertyOp21
70
1
102
RTVSPropertyOp22
70
1
102
RTVSPropertyOp23
70
1
102
RTVSPropertyOp24
70
1
102
RTVSPropertyOp25
70
1
102
RTVSPropertyOp26
70
1
102
RTVSPropertyOp27
70
1
0
ENDSEC
0
EOF
