0
SECTION
2
HEADER
9
$ACADVER
1
AC1015
9
$ACADMAINTVER
70
20
9
$DWGCODEPAGE
3
ANSI_1252
9
$INSBASE
10
0.0
20
0.0
30
0.0
9
$EXTMIN
10
-150.000000000000
20
-105.000000000000
30
0.0
9
$EXTMAX
10
150.000000000000
20
105.000000000000
30
0.0
9
$LIMMIN
10
0.0
20
0.0
9
$LIMMAX
10
12.0
20
9.0
9
$ORTHOMODE
70
0
9
$REGENMODE
70
1
9
$FILLMODE
70
1
9
$QTEXTMODE
70
0
9
$MIRRTEXT
70
1
9
$LTSCALE
40
1.0
9
$ATTMODE
70
1
9
$TEXTSIZE
40
0.2
9
$TRACEWID
40
0.05
9
$TEXTSTYLE
7
Standard
9
$CLAYER
8
0
9
$CELTYPE
6
ByLayer
9
$CECOLOR
62
256
9
$CELTSCALE
40
1.0
9
$DISPSILH
70
0
9
$DIMSCALE
40
1.0
9
$DIMASZ
40
2.5
9
$DIMEXO
40
0.625
9
$DIMDLI
40
0.38
9
$DIMRND
40
0.0
9
$DIMDLE
40
0.0
9
$DIMEXE
40
1.25
9
$DIMTP
40
0.0
9
$DIMTM
40
0.000000001
9
$DIMTXT
40
2.5
9
$DIMCEN
40
0.09
9
$DIMTSZ
40
0.0
9
$DIMTOL
70
1
9
$DIMLIM
70
0
9
$DIMTIH
70
0
9
$DIMTOH
70
0
9
$DIMSE1
70
0
9
$DIMSE2
70
0
9
$DIMTAD
70
1
9
$DIMZIN
70
0
9
$DIMBLK
1
VDDIM_DEFAULT
9
$DIMASO
70
1
9
$DIMSHO
70
1
9
$DIMPOST
1

9
$DIMAPOST
1

9
$DIMALT
70
0
9
$DIMALTD
70
2
9
$DIMALTF
40
25.4
9
$DIMLFAC
40
1.00000000000000
9
$DIMTOFL
70
0
9
$DIMTVP
40
0.0
9
$DIMTIX
70
0
9
$DIMSOXD
70
0
9
$DIMSAH
70
0
9
$DIMBLK1
1

9
$DIMBLK2
1

9
$DIMSTYLE
2
BEM-ISBE
9
$DIMCLRD
70
0
9
$DIMCLRE
70
0
9
$DIMCLRT
70
0
9
$DIMTFAC
40
0.5
9
$DIMGAP
40
0.625
9
$DIMJUST
70
0
9
$DIMSD1
70
0
9
$DIMSD2
70
0
9
$DIMTOLJ
70
1
9
$DIMTZIN
70
0
9
$DIMALTZ
70
0
9
$DIMALTTZ
70
0
9
$DIMUPT
70
0
9
$DIMDEC
70
3
9
$DIMTDEC
70
3
9
$DIMALTU
70
2
9
$DIMALTTD
70
2
9
$DIMTXSTY
7
Standard
9
$DIMAUNIT
70
0
9
$DIMADEC
70
3
9
$DIMALTRND
40
0.0
9
$DIMAZIN
70
0
9
$DIMDSEP
70
46
9
$DIMATFIT
70
3
9
$DIMFRAC
70
0
9
$DIMLDRBLK
1

9
$DIMLUNIT
70
2
9
$DIMLWD
70
-2
9
$DIMLWE
70
-2
9
$DIMTMOVE
70
0
9
$LUNITS
70
2
9
$LUPREC
70
4
9
$SKETCHINC
40
0.1
9
$FILLETRAD
40
0.5
9
$AUNITS
70
0
9
$AUPREC
70
0
9
$MENU
1
.
9
$ELEVATION
40
0.0
9
$PELEVATION
40
0.0
9
$THICKNESS
40
0.0
9
$LIMCHECK
70
0
9
$CHAMFERA
40
0.5
9
$CHAMFERB
40
0.5
9
$CHAMFERC
40
1.0
9
$CHAMFERD
40
0.0
9
$SKPOLY
70
0
9
$TDCREATE
40
0.0
9
$TDUCREATE
40
0.0
9
$TDUPDATE
40
0.0
9
$TDUUPDATE
40
0.0
9
$TDINDWG
40
0.0
9
$TDUSRTIMER
40
0.0
9
$USRTIMER
70
1
9
$ANGBASE
50
0.0
9
$ANGDIR
70
0
9
$PDMODE
70
0
9
$PDSIZE
40
0.0
9
$PLINEWID
40
0.0
9
$SPLFRAME
70
0
9
$SPLINETYPE
70
6
9
$SPLINESEGS
70
8
9
$HANDSEED
5
10AB
9
$SURFTAB1
70
6
9
$SURFTAB2
70
6
9
$SURFTYPE
70
6
9
$SURFU
70
6
9
$SURFV
70
6
9
$UCSBASE
2

9
$UCSNAME
2

9
$UCSORG
10
0.0
20
0.0
30
0.0
9
$UCSXDIR
10
1.0
20
0.0
30
0.0
9
$UCSYDIR
10
0.0
20
1.0
30
0.0
9
$UCSORTHOREF
2

9
$UCSORTHOVIEW
70
0
9
$UCSORGTOP
10
0.0
20
0.0
30
0.0
9
$UCSORGBOTTOM
10
0.0
20
0.0
30
0.0
9
$UCSORGLEFT
10
0.0
20
0.0
30
0.0
9
$UCSORGRIGHT
10
0.0
20
0.0
30
0.0
9
$UCSORGFRONT
10
0.0
20
0.0
30
0.0
9
$UCSORGBACK
10
0.0
20
0.0
30
0.0
9
$PUCSBASE
2

9
$PUCSNAME
2

9
$PUCSORG
10
0.0
20
0.0
30
0.0
9
$PUCSXDIR
10
1.0
20
0.0
30
0.0
9
$PUCSYDIR
10
0.0
20
1.0
30
0.0
9
$PUCSORTHOREF
2

9
$PUCSORTHOVIEW
70
0
9
$PUCSORGTOP
10
0.0
20
0.0
30
0.0
9
$PUCSORGBOTTOM
10
0.0
20
0.0
30
0.0
9
$PUCSORGLEFT
10
0.0
20
0.0
30
0.0
9
$PUCSORGRIGHT
10
0.0
20
0.0
30
0.0
9
$PUCSORGFRONT
10
0.0
20
0.0
30
0.0
9
$PUCSORGBACK
10
0.0
20
0.0
30
0.0
9
$USERI1
70
0
9
$USERI2
70
0
9
$USERI3
70
0
9
$USERI4
70
0
9
$USERI5
70
0
9
$USERR1
40
0.0
9
$USERR2
40
0.0
9
$USERR3
40
0.0
9
$USERR4
40
0.0
9
$USERR5
40
0.0
9
$WORLDVIEW
70
1
9
$SHADEDGE
70
3
9
$SHADEDIF
70
70
9
$TILEMODE
70
1
9
$MAXACTVP
70
64
9
$PINSBASE
10
0.0
20
0.0
30
0.0
9
$PLIMCHECK
70
0
9
$PEXTMIN
10
1.000000000000000E+20
20
1.000000000000000E+20
30
1.000000000000000E+20
9
$PEXTMAX
10
-1.000000000000000E+20
20
-1.000000000000000E+20
30
-1.000000000000000E+20
9
$PLIMMIN
10
0.0
20
0.0
9
$PLIMMAX
10
12.0
20
9.0
9
$UNITMODE
70
0
9
$VISRETAIN
70
1
9
$PLINEGEN
70
0
9
$PSLTSCALE
70
1
9
$TREEDEPTH
70
3020
9
$CMLSTYLE
2
Standard
9
$CMLJUST
70
0
9
$CMLSCALE
40
1.0
9
$PROXYGRAPHICS
70
1
9
$MEASUREMENT
70
0
9
$CELWEIGHT
370
-1
9
$ENDCAPS
280
0
9
$JOINSTYLE
280
0
9
$LWDISPLAY
290
0
9
$INSUNITS
70
4
9
$HYPERLINKBASE
1

9
$STYLESHEET
1

9
$XEDIT
290
1
9
$CEPSNTYPE
380
0
9
$PSTYLEMODE
290
0
9
$FINGERPRINTGUID
2
{FAEB1C30-E019-11D5-929B-00C0DF256EC4}
9
$VERSIONGUID
2
{04C5C4E4-4947-4D90-8812-D401569E61F7}
9
$EXTNAMES
290
1
9
$PSVPSCALE
40
0.0
9
$OLESTARTUP
290
0
0
ENDSEC
0
SECTION
2
CLASSES
0
CLASS
1
ACDBDICTIONARYWDFLT
2
AcDbDictionaryWithDefault
3
ObjectDBX Classes
90
0
280
0
281
0
0
CLASS
1
ACDBPLACEHOLDER
2
AcDbPlaceHolder
3
ObjectDBX Classes
90
0
280
0
281
0
0
CLASS
1
LAYOUT
2
AcDbLayout
3
ObjectDBX Classes
90
0
280
0
281
0
0
CLASS
1
MATERIAL
2
AcDbMaterial
3
ObjectDBX Classes
90
1153
280
0
281
0
0
CLASS
1
VISUALSTYLE
2
AcDbVisualStyle
3
ObjectDBX Classes
90
4095
280
0
281
0
0
CLASS
1
TABLESTYLE
2
AcDbTableStyle
3
ObjectDBX Classes
90
4095
280
0
281
0
0
CLASS
1
SCALE
2
AcDbScale
3
ObjectDBX Classes
90
1153
280
0
281
0
0
CLASS
1
MLEADERSTYLE
2
AcDbMLeaderStyle
3
ACDB_MLEADERSTYLE_CLASS
90
4095
280
0
281
0
0
CLASS
1
DICTIONARYVAR
2
AcDbDictionaryVar
3
ObjectDBX Classes
90
0
280
0
281
0
0
CLASS
1
CELLSTYLEMAP
2
AcDbCellStyleMap
3
ObjectDBX Classes
90
1152
280
0
281
0
0
ENDSEC
0
SECTION
2
TABLES
0
TABLE
2
VPORT
5
24A
330
0
100
AcDbSymbolTable
70
1
0
VPORT
5
26B
330
24A
100
AcDbSymbolTableRecord
100
AcDbViewportTableRecord
2
*Active
70
0
10
0.0
20
0.0
11
1.0
21
1.0
12
0.00000000000000
22
0.00000000000000
13
0.0
23
0.0
14
10.0
24
10.0
15
10.0
25
10.0
16
0.0
26
0.0
36
1.0
17
0.0
27
0.0
37
0.0
40
210.000000000000
41
1.42857142857143
42
1.0
43
0.0
44
0.0
50
0.0
51
0.0000000000007958
71
0
72
100
73
1
74
3
75
0
76
0
77
0
78
1
281
0
65
1
110
0.0
120
0.0
130
0.0
111
1.0
121
0.0
131
0.0
112
0.0
122
1.0
132
0.0
79
0
146
0.0
0
ENDTAB
0
TABLE
2
LTYPE
5
247
330
0
100
AcDbSymbolTable
70
25
0
LTYPE
5
256
330
247
100
AcDbSymbolTableRecord
100
AcDbLinetypeTableRecord
2
ByBlock
70
0
3

72
65
73
0
40
0.0
0
LTYPE
5
257
330
247
100
AcDbSymbolTableRecord
100
AcDbLinetypeTableRecord
2
ByLayer
70
0
3

72
65
73
0
40
0.0
0
LTYPE
5
258
330
247
100
AcDbSymbolTableRecord
100
AcDbLinetypeTableRecord
2
Continuous
70
0
3
Solid line
72
65
73
0
40
0.0
0
LTYPE
5
273
330
247
100
AcDbSymbolTableRecord
100
AcDbLinetypeTableRecord
2
CENTER
70
0
3
Center ____ _ ____ _ ____ _ ____ _ ____ _ ____
72
65
73
4
40
2.0
49
1.25
74
0
49
-0.25
74
0
49
0.25
74
0
49
-0.25
74
0
0
LTYPE
5
274
330
247
100
AcDbSymbolTableRecord
100
AcDbLinetypeTableRecord
2
DASHDOT
70
0
3
Dashdot __ . __ . __ . __ . __ . __ . __ . __
72
65
73
4
40
1.0
49
0.5
74
0
49
-0.25
74
0
49
0.0
74
0
49
-0.25
74
0
0
LTYPE
5
275
330
247
100
AcDbSymbolTableRecord
100
AcDbLinetypeTableRecord
2
DASHED
70
0
3
Dashed __ __ __ __ __ __ __ __ __ __ __ __ __ _
72
65
73
2
40
0.75
49
0.5
74
0
49
-0.25
74
0
0
LTYPE
5
276
330
247
100
AcDbSymbolTableRecord
100
AcDbLinetypeTableRecord
2
HIDDEN
70
0
3
Hidden __ __ __ __ __ __ __ __ __ __ __ __ __ __
72
65
73
2
40
0.375
49
0.25
74
0
49
-0.125
74
0
0
LTYPE
5
277
330
247
100
AcDbSymbolTableRecord
100
AcDbLinetypeTableRecord
2
HIDDEN2
70
0
3
Hidden2 _ _ _ _ _ _ _ _ _ _ _ _ _ _ _ _ _
72
65
73
2
40
0.1875
49
0.125
74
0
49
-0.0625
74
0
0
LTYPE
5
278
330
247
100
AcDbSymbolTableRecord
100
AcDbLinetypeTableRecord
2
BORDER
70
0
3
Border __ __ . __ __ . __ __ . __ __ . __ __ .
72
65
73
6
40
1.75
49
0.5
74
0
49
-0.25
74
0
49
0.5
74
0
49
-0.25
74
0
49
0.0
74
0
49
-0.25
74
0
0
LTYPE
5
279
330
247
100
AcDbSymbolTableRecord
100
AcDbLinetypeTableRecord
2
BORDER2
70
0
3
Border2 __.__.__.__.__.__.__.__.__.__.__.
72
65
73
6
40
0.875
49
0.25
74
0
49
-0.125
74
0
49
0.25
74
0
49
-0.125
74
0
49
0.0
74
0
49
-0.125
74
0
0
LTYPE
5
27A
330
247
100
AcDbSymbolTableRecord
100
AcDbLinetypeTableRecord
2
BORDERX2
70
0
3
Borderx2  ____  ____  .  ____  ____  .  ___
72
65
73
6
40
3.5
49
1.0
74
0
49
-0.5
74
0
49
1.0
74
0
49
-0.5
74
0
49
0.0
74
0
49
-0.5
74
0
0
LTYPE
5
27B
330
247
100
AcDbSymbolTableRecord
100
AcDbLinetypeTableRecord
2
CENTER2
70
0
3
Center2  ___ _ ___ _ ___ _ ___ _ ___ _ ___
72
65
73
4
40
1.125
49
0.75
74
0
49
-0.125
74
0
49
0.125
74
0
49
-0.125
74
0
0
LTYPE
5
27C
330
247
100
AcDbSymbolTableRecord
100
AcDbLinetypeTableRecord
2
CENTERX2
70
0
3
Centerx2  ________  __  ________  __  _____
72
65
73
4
40
4.0
49
2.5
74
0
49
-0.5
74
0
49
0.5
74
0
49
-0.5
74
0
0
LTYPE
5
27D
330
247
100
AcDbSymbolTableRecord
100
AcDbLinetypeTableRecord
2
DASHDOT2
70
0
3
Dashdot2  _._._._._._._._._._._._._._._.
72
65
73
4
40
0.5
49
0.25
74
0
49
-0.125
74
0
49
0.0
74
0
49
-0.125
74
0
0
LTYPE
5
27E
330
247
100
AcDbSymbolTableRecord
100
AcDbLinetypeTableRecord
2
DASHDOTX2
70
0
3
Dashdotx2 ____  .  ____  .  ____  .  ___
72
65
73
4
40
2.0
49
1.0
74
0
49
-0.5
74
0
49
0.0
74
0
49
-0.5
74
0
0
LTYPE
5
27F
330
247
100
AcDbSymbolTableRecord
100
AcDbLinetypeTableRecord
2
DASHED2
70
0
3
Dashed2 _ _ _ _ _ _ _ _ _ _ _ _ _ _ _ _ _
72
65
73
2
40
0.375
49
0.25
74
0
49
-0.125
74
0
0
LTYPE
5
280
330
247
100
AcDbSymbolTableRecord
100
AcDbLinetypeTableRecord
2
DASHEDX2
70
0
3
Dashedx2 ____  ____  ____  ____  ____  ___
72
65
73
2
40
1.5
49
1.0
74
0
49
-0.5
74
0
0
LTYPE
5
281
330
247
100
AcDbSymbolTableRecord
100
AcDbLinetypeTableRecord
2
DIVIDE
70
0
3
Divide ____ . . ____ . . ____ . . ____ . . ____
72
65
73
6
40
1.25
49
0.5
74
0
49
-0.25
74
0
49
0.0
74
0
49
-0.25
74
0
49
0.0
74
0
49
-0.25
74
0
0
LTYPE
5
282
330
247
100
AcDbSymbolTableRecord
100
AcDbLinetypeTableRecord
2
DIVIDE2
70
0
3
Divide2 __..__..__..__..__..__..__..__.._
72
65
73
6
40
0.625
49
0.25
74
0
49
-0.125
74
0
49
0.0
74
0
49
-0.125
74
0
49
0.0
74
0
49
-0.125
74
0
0
LTYPE
5
283
330
247
100
AcDbSymbolTableRecord
100
AcDbLinetypeTableRecord
2
DIVIDEX2
70
0
3
Dividex2 ________  .  .  ________  .  .  _
72
65
73
6
40
2.5
49
1.0
74
0
49
-0.5
74
0
49
0.0
74
0
49
-0.5
74
0
49
0.0
74
0
49
-0.5
74
0
0
LTYPE
5
284
330
247
100
AcDbSymbolTableRecord
100
AcDbLinetypeTableRecord
2
DOT
70
0
3
Dot . . . . . . . . . . . . . . . . . . . . . . . .
72
65
73
2
40
0.25
49
0.0
74
0
49
-0.25
74
0
0
LTYPE
5
285
330
247
100
AcDbSymbolTableRecord
100
AcDbLinetypeTableRecord
2
DOT2
70
0
3
Dot2 ........................................
72
65
73
2
40
0.125
49
0.0
74
0
49
-0.125
74
0
0
LTYPE
5
286
330
247
100
AcDbSymbolTableRecord
100
AcDbLinetypeTableRecord
2
DOTX2
70
0
3
Dotx2 .  .  .  .  .  .  .  .  .  .  .  .  .  .
72
65
73
2
40
0.5
49
0.0
74
0
49
-0.5
74
0
0
LTYPE
5
287
330
247
100
AcDbSymbolTableRecord
100
AcDbLinetypeTableRecord
2
HIDDENX2
70
0
3
Hiddenx2 ____ ____ ____ ____ ____ ____ ____
72
65
73
2
40
0.75
49
0.5
74
0
49
-0.25
74
0
0
LTYPE
5
288
330
247
100
AcDbSymbolTableRecord
100
AcDbLinetypeTableRecord
2
PHANTOM
70
0
3
Phantom ______  __  __  ______  __  __  ______
72
65
73
6
40
2.5
49
1.25
74
0
49
-0.25
74
0
49
0.25
74
0
49
-0.25
74
0
49
0.25
74
0
49
-0.25
74
0
0
LTYPE
5
289
330
247
100
AcDbSymbolTableRecord
100
AcDbLinetypeTableRecord
2
PHANTOM2
70
0
3
Phantom2 ___ _ _ ___ _ _ ___ _ _ ___ _ _
72
65
73
6
40
1.25
49
0.625
74
0
49
-0.125
74
0
49
0.125
74
0
49
-0.125
74
0
49
0.125
74
0
49
-0.125
74
0
0
LTYPE
5
28A
330
247
100
AcDbSymbolTableRecord
100
AcDbLinetypeTableRecord
2
PHANTOMX2
70
0
3
Phantomx2 ____________    ____    ____   _
72
65
73
6
40
5.0
49
2.5
74
0
49
-0.5
74
0
49
0.5
74
0
49
-0.5
74
0
49
0.5
74
0
49
-0.5
74
0
0
ENDTAB
0
TABLE
2
LAYER
5
244
330
0
100
AcDbSymbolTable
70
6
0
LAYER
5
252
330
244
100
AcDbSymbolTableRecord
100
AcDbLayerTableRecord
2
0
70
0
62
7
6
Continuous
370
0
390
251
0
LAYER
5
23F
330
244
100
AcDbSymbolTableRecord
100
AcDbLayerTableRecord
2
Bemassung
70
0
 62
   7
6
Continuous
370
0
390
251
0
LAYER
5
240
330
244
100
AcDbSymbolTableRecord
100
AcDbLayerTableRecord
2
Rahmen
70
0
 62
   7
6
Continuous
370
0
390
251
0
LAYER
5
241
330
244
100
AcDbSymbolTableRecord
100
AcDbLayerTableRecord
2
Geo
70
0
 62
   7
6
Continuous
370
0
390
251
0
LAYER
5
33A
330
244
100
AcDbSymbolTableRecord
100
AcDbLayerTableRecord
2
Defpoints
70
0
62
7
6
Continuous
290
0
370
-3
390
251
0
LAYER
5
57E
330
244
100
AcDbSymbolTableRecord
100
AcDbLayerTableRecord
2
Text
70
0
 62
   7
6
Continuous
370
0
390
251
1001
AcAecLayerStandard
1000

1000

0
ENDTAB
0
TABLE
2
STYLE
5
245
330
0
100
AcDbSymbolTable
70
2
0
STYLE
5
253
330
245
100
AcDbSymbolTableRecord
100
AcDbTextStyleTableRecord
2
Standard
70
0
40
0.0
41
1.0
50
0.0
71
0
42
0.2
3
Arial
4

1001
ACAD
1000
Arial
1071
0
0
STYLE
5
132
330
245
100
AcDbSymbolTableRecord
100
AcDbTextStyleTableRecord
2
Beschriftung
70
0
40
0.0
41
1.0
50
0.0
71
0
42
0.2
3
Arial
4

1001
ACAD
1000
Arial
1071
0
1001
AcadAnnotative
1000
AnnotativeData
1070
1
1070
1
0
ENDTAB
0
TABLE
2
VIEW
5
248
330
0
100
AcDbSymbolTable
70
0
0
ENDTAB
0
TABLE
2
UCS
5
249
330
0
100
AcDbSymbolTable
70
0
0
ENDTAB
0
TABLE
2
APPID
5
24B
330
0
100
AcDbSymbolTable
70
13
0
APPID
5
254
330
24B
100
AcDbSymbolTableRecord
100
AcDbRegAppTableRecord
2
ACAD
70
0
0
APPID
5
26C
330
24B
100
AcDbSymbolTableRecord
100
AcDbRegAppTableRecord
2
VD_INVISIBLE_NOT_FOR_READ
70
0
0
APPID
5
26D
330
24B
100
AcDbSymbolTableRecord
100
AcDbRegAppTableRecord
2
VD_TEMPHATCH
70
0
0
APPID
5
26E
330
24B
100
AcDbSymbolTableRecord
100
AcDbRegAppTableRecord
2
VDEXTRAPARAM
70
0
0
APPID
5
26F
330
24B
100
AcDbSymbolTableRecord
100
AcDbRegAppTableRecord
2
PE_URL
70
0
0
APPID
5
270
330
24B
100
AcDbSymbolTableRecord
100
AcDbRegAppTableRecord
2
VD_UNKNOWN
70
0
0
APPID
5
28F
330
24B
100
AcDbSymbolTableRecord
100
AcDbRegAppTableRecord
2
AcadAnnotative
70
0
0
APPID
5
290
330
24B
100
AcDbSymbolTableRecord
100
AcDbRegAppTableRecord
2
ACAD_DSTYLE_DIMJAG
70
0
0
APPID
5
291
330
24B
100
AcDbSymbolTableRecord
100
AcDbRegAppTableRecord
2
ACAD_DSTYLE_DIMTALN
70
0
0
APPID
5
293
330
24B
100
AcDbSymbolTableRecord
100
AcDbRegAppTableRecord
2
ACAD_PSEXT
70
0
0
APPID
5
42A
330
24B
100
AcDbSymbolTableRecord
100
AcDbRegAppTableRecord
2
ACAD_MLEADERVER
70
0
0
APPID
5
532
330
24B
100
AcDbSymbolTableRecord
100
AcDbRegAppTableRecord
2
ACAD_EXEMPT_FROM_CAD_STANDARDS
70
0
0
APPID
5
57F
330
24B
100
AcDbSymbolTableRecord
100
AcDbRegAppTableRecord
2
AcAecLayerStandard
70
0
0
ENDTAB
0
TABLE
2
DIMSTYLE
5
24C
330
0
100
AcDbSymbolTable
70
3
100
AcDbDimStyleTable
71
2
340
27
340
269
0
DIMSTYLE
105
269
330
24C
100
AcDbSymbolTableRecord
100
AcDbDimStyleTableRecord
2
Standard
70
0
172
1
174
1
288
1
340
253
342
23C
0
DIMSTYLE
105
137
330
24C
100
AcDbSymbolTableRecord
100
AcDbDimStyleTableRecord
2
Beschriftung
70
0
41
2.5
42
0.625
44
1.25
73
0
74
0
77
1
140
2.5
147
0.625
172
1
174
1
271
2
288
1
340
253
342
23C
1001
AcadAnnotative
1000
AnnotativeData
1070
1
1070
1
1001
ACAD_DSTYLE_DIMJAG
1070
388
1040
1.5
1001
ACAD_DSTYLE_DIMTALN
1070
392
1070
0
0
DIMSTYLE
105
27
102
{ACAD_REACTORS
102
}
330
24C
100
AcDbSymbolTableRecord
100
AcDbDimStyleTableRecord
2
BEM-ISBE
70
0
41
2.5
42
0.625
44
1.25
48
0.000000001
71
1
73
0
74
0
77
1
140
2.5
144
1.00000000000000
146
0.5
147
0.625
171
 3
172
 1
179
 3
271
 3
272
 3
274
 3
340
253
342
23C
1001
ACAD_DSTYLE_DIMJAG
1070
388
1040
1.5
1001
ACAD_DSTYLE_DIMTALN
1070
392
1070
1
0
ENDTAB
0
TABLE
2
BLOCK_RECORD
5
243
330
0
100
AcDbSymbolTable
70
5
0
BLOCK_RECORD
5
261
330
243
100
AcDbSymbolTableRecord
100
AcDbBlockTableRecord
2
*Model_Space
340
FD0
0
BLOCK_RECORD
5
25D
330
243
100
AcDbSymbolTableRecord
100
AcDbBlockTableRecord
2
*Paper_Space
340
FD1
0
BLOCK_RECORD
5
265
330
243
100
AcDbSymbolTableRecord
100
AcDbBlockTableRecord
2
*Paper_Space0
340
0
0
BLOCK_RECORD
5
23C
330
243
100
AcDbSymbolTableRecord
100
AcDbBlockTableRecord
2
VDDIM_DEFAULT
340
0
102
{BLKREFS
102
}
0
BLOCK_RECORD
5
23E
330
243
100
AcDbSymbolTableRecord
100
AcDbBlockTableRecord
2
VDDIM_NONE
340
0
0
ENDTAB
0
ENDSEC
0
SECTION
2
BLOCKS
0
BLOCK
5
262
330
261
100
AcDbEntity
8
0
100
AcDbBlockBegin
2
*Model_Space
70
0
10
0.0
20
0.0
30
0.0
3
*Model_Space
1

0
ENDBLK
5
263
330
261
100
AcDbEntity
8
0
100
AcDbBlockEnd
0
BLOCK
5
25E
330
25D
100
AcDbEntity
67
1
8
0
100
AcDbBlockBegin
2
*Paper_Space
70
0
10
0.0
20
0.0
30
0.0
3
*Paper_Space
1

0
ENDBLK
5
25F
330
25D
100
AcDbEntity
67
1
8
0
100
AcDbBlockEnd
0
BLOCK
5
266
330
265
100
AcDbEntity
8
0
100
AcDbBlockBegin
2
*Paper_Space0
70
0
10
0.0
20
0.0
30
0.0
3
*Paper_Space0
1

0
VIEWPORT
5
296
102
{ACAD_XDICTIONARY
360
58E
102
}
330
265
100
AcDbEntity
8
0
60
1
100
AcDbViewport
10
0.0
20
0.0
30
0.0
40
10.0
41
10.0
69
0
12
0.0
22
0.0
13
0.0
23
0.0
14
1.0
24
1.0
15
0.0
25
0.0
16
0.0
26
0.0
36
1.0
17
0.0
27
0.0
37
0.0
42
0.0
43
0.0
44
0.0
45
10.0
50
0.0
51
0.0000000000007958
72
100
90
163872
1

281
0
71
0
74
0
110
0.0
120
0.0
130
0.0
111
1.0
121
0.0
131
0.0
112
0.0
122
1.0
132
0.0
79
0
146
0.0
1001
VD_INVISIBLE_NOT_FOR_READ
1000
VD_INVISIBLE_NOT_FOR_READ
0
VIEWPORT
5
297
102
{ACAD_XDICTIONARY
360
590
102
}
330
265
100
AcDbEntity
8
0
60
1
100
AcDbViewport
10
0.0
20
0.0
30
0.0
40
10.0
41
10.0
69
0
12
0.0
22
0.0
13
0.0
23
0.0
14
1.0
24
1.0
15
0.0
25
0.0
16
0.0
26
0.0
36
1.0
17
0.0
27
0.0
37
0.0
42
0.0
43
0.0
44
0.0
45
10.0
50
0.0
51
0.0000000000007958
72
100
90
163872
1

281
0
71
0
74
0
110
0.0
120
0.0
130
0.0
111
1.0
121
0.0
131
0.0
112
0.0
122
1.0
132
0.0
79
0
146
0.0
1001
VD_INVISIBLE_NOT_FOR_READ
1000
VD_INVISIBLE_NOT_FOR_READ
0
ENDBLK
5
267
330
265
100
AcDbEntity
8
0
100
AcDbBlockEnd
0
BLOCK
5
28B
330
23C
100
AcDbEntity
8
0
100
AcDbBlockBegin
2
VDDIM_DEFAULT
70
0
10
0.0
20
0.0
30
0.0
3
VDDIM_DEFAULT
1

0
LWPOLYLINE
5
23D
330
23C
100
AcDbEntity
8
0
6
Continuous
62
0
100
AcDbPolyline
90
4
70
0
43
0.0
10
0.0
20
0.0
10
-1.0
20
-0.1665
10
-1.0
20
0.1665
10
0.0
20
0.0
1001
VDEXTRAPARAM
1071
1
1071
0
1071
0
1040
1.0
1000

1000

1040
0.0
1040
0.0
0
HATCH
5
292
330
23C
100
AcDbEntity
8
0
6
Continuous
62
0
100
AcDbHatch
10
0.0
20
0.0
30
0.0
210
0.0
220
0.0
230
1.0
2
SOLID
70
1
71
0
91
1
92
2
72
0
73
1
93
3
10
0.0
20
0.0
10
-1.0
20
-0.1665
10
-1.0
20
0.1665
97
0
75
0
76
1
98
1
10
0.0
20
0.0
1001
VDEXTRAPARAM
1071
1
1071
0
1071
0
1040
1.0
1000

1000

1040
0.0
1040
0.0
1001
VD_TEMPHATCH
1000
VD_TEMPHATCH
0
ENDBLK
5
28C
330
23C
100
AcDbEntity
8
0
100
AcDbBlockEnd
0
BLOCK
5
28D
330
23E
100
AcDbEntity
8
0
100
AcDbBlockBegin
2
VDDIM_NONE
70
0
10
0.0
20
0.0
30
0.0
3
VDDIM_NONE
1

0
ENDBLK
5
28E
330
23E
100
AcDbEntity
8
0
100
AcDbBlockEnd
0
ENDSEC
0
SECTION
2
ENTITIES
  0
ARC
  5
F10002
330
F10003
100
AcDbEntity
8
Geo
100
AcDbCircle
10
-58.1883173424312
20
14.5073958766953
30
0.00000000000000
 40
0.150000000000000
100
AcDbArc
 50
90.0000000000000
 51
180.000000000000
  0
LINE
  5
F10004
330
F10005
100
AcDbEntity
8
Geo
100
AcDbLine
10
-58.1883173424312
20
14.6573958766953
30
0.00000000000000
11
-57.7383173424312
21
14.6573958766953
31
0.00000000000000
  0
LINE
  5
F10006
330
F10007
100
AcDbEntity
8
Geo
100
AcDbLine
10
-57.7383173424312
20
14.6573958766953
30
0.00000000000000
11
-57.7376113364336
21
14.6573958766953
31
0.00000000000000
  0
LINE
  5
F10008
330
F10009
100
AcDbEntity
8
Geo
100
AcDbLine
10
-57.7376113364336
20
14.6573958766953
30
0.00000000000000
11
-50.8333173424312
21
16.5073958766953
31
0.00000000000000
  0
LINE
  5
F1000A
330
F1000B
100
AcDbEntity
8
Geo
100
AcDbLine
10
-50.8333173424312
20
16.5073958766953
30
0.00000000000000
11
-18.9383173424312
21
16.5073958766953
31
0.00000000000000
  0
LINE
  5
F1000C
330
F1000D
100
AcDbEntity
8
Geo
100
AcDbLine
10
-18.9383173424312
20
16.5073958766953
30
0.00000000000000
11
-18.3383173424312
21
15.9073958766953
31
0.00000000000000
  0
LINE
  5
F1000E
330
F1000F
100
AcDbEntity
8
Geo
100
AcDbLine
10
-58.3163052968437
20
14.5856204478050
30
0.00000000000000
11
-58.3149840090978
21
14.5876437747201
31
0.00000000000000
  0
LINE
  5
F10010
330
F10011
100
AcDbEntity
8
Geo
100
AcDbLine
10
-58.3149840090978
20
14.5876437747201
30
0.00000000000000
11
-58.3126506757645
21
14.5908892253476
31
0.00000000000000
  0
LINE
  5
F10012
330
F10013
100
AcDbEntity
8
Geo
100
AcDbLine
10
-58.3126506757645
20
14.5908892253476
30
0.00000000000000
11
-58.3103173424312
21
14.5938765199996
31
0.00000000000000
  0
LINE
  5
F10014
330
F10015
100
AcDbEntity
8
Geo
100
AcDbLine
10
-58.3103173424312
20
14.5938765199996
30
0.00000000000000
11
-58.3079840090978
21
14.5966819054743
31
0.00000000000000
  0
LINE
  5
F10016
330
F10017
100
AcDbEntity
8
Geo
100
AcDbLine
10
-58.3079840090978
20
14.5966819054743
30
0.00000000000000
11
-58.3056506757645
21
14.5993441809693
31
0.00000000000000
  0
LINE
  5
F10018
330
F10019
100
AcDbEntity
8
Geo
100
AcDbLine
10
-58.3056506757645
20
14.5993441809693
30
0.00000000000000
11
-58.3033173424312
21
14.6018852168943
31
0.00000000000000
  0
LINE
  5
F1001A
330
F1001B
100
AcDbEntity
8
Geo
100
AcDbLine
10
-58.3033173424312
20
14.6018852168943
30
0.00000000000000
11
-58.3009840090978
21
14.6043215776085
31
0.00000000000000
  0
LINE
  5
F1001C
330
F1001D
100
AcDbEntity
8
Geo
100
AcDbLine
10
-58.3009840090978
20
14.6043215776085
30
0.00000000000000
11
-58.2986506757645
21
14.6066624224459
31
0.00000000000000
  0
LINE
  5
F1001E
330
F1001F
100
AcDbEntity
8
Geo
100
AcDbLine
10
-58.2986506757645
20
14.6066624224459
30
0.00000000000000
11
-58.2963173424312
21
14.6089190576206
31
0.00000000000000
  0
LINE
  5
F10020
330
F10021
100
AcDbEntity
8
Geo
100
AcDbLine
10
-58.2963173424312
20
14.6089190576206
30
0.00000000000000
11
-58.2939840090978
21
14.6110962531543
31
0.00000000000000
  0
LINE
  5
F10022
330
F10023
100
AcDbEntity
8
Geo
100
AcDbLine
10
-58.2939840090978
20
14.6110962531543
30
0.00000000000000
11
-58.2916506757645
21
14.6131830156713
31
0.00000000000000
  0
LINE
  5
F10024
330
F10025
100
AcDbEntity
8
Geo
100
AcDbLine
10
-58.2916506757645
20
14.6131830156713
30
0.00000000000000
11
-58.2893173424312
21
14.6151615854991
31
0.00000000000000
  0
LINE
  5
F10026
330
F10027
100
AcDbEntity
8
Geo
100
AcDbLine
10
-58.2893173424312
20
14.6151615854991
30
0.00000000000000
11
-58.2869840090978
21
14.6170366492398
31
0.00000000000000
  0
LINE
  5
F10028
330
F10029
100
AcDbEntity
8
Geo
100
AcDbLine
10
-58.2869840090978
20
14.6170366492398
30
0.00000000000000
11
-58.2846506757645
21
14.6188130648534
31
0.00000000000000
  0
LINE
  5
F1002A
330
F1002B
100
AcDbEntity
8
Geo
100
AcDbLine
10
-58.2846506757645
20
14.6188130648534
30
0.00000000000000
11
-58.2823173424312
21
14.6204951461161
31
0.00000000000000
  0
LINE
  5
F1002C
330
F1002D
100
AcDbEntity
8
Geo
100
AcDbLine
10
-58.2823173424312
20
14.6204951461161
30
0.00000000000000
11
-58.2799840090978
21
14.6220867445777
31
0.00000000000000
  0
LINE
  5
F1002E
330
F1002F
100
AcDbEntity
8
Geo
100
AcDbLine
10
-58.2799840090978
20
14.6220867445777
30
0.00000000000000
11
-58.2776506757645
21
14.6235913165264
31
0.00000000000000
  0
LINE
  5
F10030
330
F10031
100
AcDbEntity
8
Geo
100
AcDbLine
10
-58.2776506757645
20
14.6235913165264
30
0.00000000000000
11
-58.2753173424312
21
14.6250119781798
31
0.00000000000000
  0
LINE
  5
F10032
330
F10033
100
AcDbEntity
8
Geo
100
AcDbLine
10
-58.2753173424312
20
14.6250119781798
30
0.00000000000000
11
-58.2729840090978
21
14.6263515515343
31
0.00000000000000
  0
LINE
  5
F10034
330
F10035
100
AcDbEntity
8
Geo
100
AcDbLine
10
-58.2729840090978
20
14.6263515515343
30
0.00000000000000
11
-58.2706506757645
21
14.6276126027331
31
0.00000000000000
  0
LINE
  5
F10036
330
F10037
100
AcDbEntity
8
Geo
100
AcDbLine
10
-58.2706506757645
20
14.6276126027331
30
0.00000000000000
11
-58.2683173424312
21
14.6287974743906
31
0.00000000000000
  0
LINE
  5
F10038
330
F10039
100
AcDbEntity
8
Geo
100
AcDbLine
10
-58.2683173424312
20
14.6287974743906
30
0.00000000000000
11
-58.2659840090978
21
14.6299083129929
31
0.00000000000000
  0
LINE
  5
F1003A
330
F1003B
100
AcDbEntity
8
Geo
100
AcDbLine
10
-58.2659840090978
20
14.6299083129929
30
0.00000000000000
11
-58.2636506757645
21
14.6309470922622
31
0.00000000000000
  0
LINE
  5
F1003C
330
F1003D
100
AcDbEntity
8
Geo
100
AcDbLine
10
-58.2636506757645
20
14.6309470922622
30
0.00000000000000
11
-58.2613173424312
21
14.6319156331830
31
0.00000000000000
  0
LINE
  5
F1003E
330
F1003F
100
AcDbEntity
8
Geo
100
AcDbLine
10
-58.2613173424312
20
14.6319156331830
30
0.00000000000000
11
-58.2589840090978
21
14.6328156212547
31
0.00000000000000
  0
LINE
  5
F10040
330
F10041
100
AcDbEntity
8
Geo
100
AcDbLine
10
-58.2589840090978
20
14.6328156212547
30
0.00000000000000
11
-58.2566506757645
21
14.6336486214246
31
0.00000000000000
  0
LINE
  5
F10042
330
F10043
100
AcDbEntity
8
Geo
100
AcDbLine
10
-58.2566506757645
20
14.6336486214246
30
0.00000000000000
11
-58.2543173424312
21
14.6344160910671
31
0.00000000000000
  0
LINE
  5
F10044
330
F10045
100
AcDbEntity
8
Geo
100
AcDbLine
10
-58.2543173424312
20
14.6344160910671
30
0.00000000000000
11
-58.2519840090978
21
14.6351193913124
31
0.00000000000000
  0
LINE
  5
F10046
330
F10047
100
AcDbEntity
8
Geo
100
AcDbLine
10
-58.2519840090978
20
14.6351193913124
30
0.00000000000000
11
-58.2496506757645
21
14.6357597969722
31
0.00000000000000
  0
LINE
  5
F10048
330
F10049
100
AcDbEntity
8
Geo
100
AcDbLine
10
-58.2496506757645
20
14.6357597969722
30
0.00000000000000
11
-58.2473173424312
21
14.6363385052660
31
0.00000000000000
  0
LINE
  5
F1004A
330
F1004B
100
AcDbEntity
8
Geo
100
AcDbLine
10
-58.2473173424312
20
14.6363385052660
30
0.00000000000000
11
-58.2449840090978
21
14.6368566435193
31
0.00000000000000
  0
LINE
  5
F1004C
330
F1004D
100
AcDbEntity
8
Geo
100
AcDbLine
10
-58.2449840090978
20
14.6368566435193
30
0.00000000000000
11
-58.2426506757645
21
14.6373152759758
31
0.00000000000000
  0
LINE
  5
F1004E
330
F1004F
100
AcDbEntity
8
Geo
100
AcDbLine
10
-58.2426506757645
20
14.6373152759758
30
0.00000000000000
11
-58.2403173424312
21
14.6377154098435
31
0.00000000000000
  0
LINE
  5
F10050
330
F10051
100
AcDbEntity
8
Geo
100
AcDbLine
10
-58.2403173424312
20
14.6377154098435
30
0.00000000000000
11
-58.2379840090978
21
14.6380580006744
31
0.00000000000000
  0
LINE
  5
F10052
330
F10053
100
AcDbEntity
8
Geo
100
AcDbLine
10
-58.2379840090978
20
14.6380580006744
30
0.00000000000000
11
-58.2356506757645
21
14.6383439571654
31
0.00000000000000
  0
LINE
  5
F10054
330
F10055
100
AcDbEntity
8
Geo
100
AcDbLine
10
-58.2356506757645
20
14.6383439571654
30
0.00000000000000
11
-58.2333173424312
21
14.6385741454501
31
0.00000000000000
  0
LINE
  5
F10056
330
F10057
100
AcDbEntity
8
Geo
100
AcDbLine
10
-58.2333173424312
20
14.6385741454501
30
0.00000000000000
11
-58.2309840090978
21
14.6387493929462
31
0.00000000000000
  0
LINE
  5
F10058
330
F10059
100
AcDbEntity
8
Geo
100
AcDbLine
10
-58.2309840090978
20
14.6387493929462
30
0.00000000000000
11
-58.2286506757645
21
14.6388704918104
31
0.00000000000000
  0
LINE
  5
F1005A
330
F1005B
100
AcDbEntity
8
Geo
100
AcDbLine
10
-58.2286506757645
20
14.6388704918104
30
0.00000000000000
11
-58.2263173424312
21
14.6389382020462
31
0.00000000000000
  0
LINE
  5
F1005C
330
F1005D
100
AcDbEntity
8
Geo
100
AcDbLine
10
-58.2263173424312
20
14.6389382020462
30
0.00000000000000
11
-58.2239840090978
21
14.6389532543045
31
0.00000000000000
  0
LINE
  5
F1005E
330
F1005F
100
AcDbEntity
8
Geo
100
AcDbLine
10
-58.2239840090978
20
14.6389532543045
30
0.00000000000000
11
-58.2216506757645
21
14.6389163524116
31
0.00000000000000
  0
LINE
  5
F10060
330
F10061
100
AcDbEntity
8
Geo
100
AcDbLine
10
-58.2216506757645
20
14.6389163524116
30
0.00000000000000
11
-58.2193173424312
21
14.6388281756523
31
0.00000000000000
  0
LINE
  5
F10062
330
F10063
100
AcDbEntity
8
Geo
100
AcDbLine
10
-58.2193173424312
20
14.6388281756523
30
0.00000000000000
11
-58.2169840090978
21
14.6386893808361
31
0.00000000000000
  0
LINE
  5
F10064
330
F10065
100
AcDbEntity
8
Geo
100
AcDbLine
10
-58.2169840090978
20
14.6386893808361
30
0.00000000000000
11
-58.2146506757645
21
14.6385006041666
31
0.00000000000000
  0
LINE
  5
F10066
330
F10067
100
AcDbEntity
8
Geo
100
AcDbLine
10
-58.2146506757645
20
14.6385006041666
30
0.00000000000000
11
-58.2123173424312
21
14.6382624629356
31
0.00000000000000
  0
LINE
  5
F10068
330
F10069
100
AcDbEntity
8
Geo
100
AcDbLine
10
-58.2123173424312
20
14.6382624629356
30
0.00000000000000
11
-58.2099840090978
21
14.6379755570572
31
0.00000000000000
  0
LINE
  5
F1006A
330
F1006B
100
AcDbEntity
8
Geo
100
AcDbLine
10
-58.2099840090978
20
14.6379755570572
30
0.00000000000000
11
-58.2076506757645
21
14.6376404704585
31
0.00000000000000
  0
LINE
  5
F1006C
330
F1006D
100
AcDbEntity
8
Geo
100
AcDbLine
10
-58.2076506757645
20
14.6376404704585
30
0.00000000000000
11
-58.2053173424312
21
14.6372577723379
31
0.00000000000000
  0
LINE
  5
F1006E
330
F1006F
100
AcDbEntity
8
Geo
100
AcDbLine
10
-58.2053173424312
20
14.6372577723379
30
0.00000000000000
11
-58.2029840090978
21
14.6368280183048
31
0.00000000000000
  0
LINE
  5
F10070
330
F10071
100
AcDbEntity
8
Geo
100
AcDbLine
10
-58.2029840090978
20
14.6368280183048
30
0.00000000000000
11
-58.2006506757645
21
14.6363517514086
31
0.00000000000000
  0
LINE
  5
F10072
330
F10073
100
AcDbEntity
8
Geo
100
AcDbLine
10
-58.2006506757645
20
14.6363517514086
30
0.00000000000000
11
-58.1983173424312
21
14.6358295030675
31
0.00000000000000
  0
LINE
  5
F10074
330
F10075
100
AcDbEntity
8
Geo
100
AcDbLine
10
-58.1983173424312
20
14.6358295030675
30
0.00000000000000
11
-58.1959840090978
21
14.6352617939032
31
0.00000000000000
  0
LINE
  5
F10076
330
F10077
100
AcDbEntity
8
Geo
100
AcDbLine
10
-58.1959840090978
20
14.6352617939032
30
0.00000000000000
11
-58.1936506757645
21
14.6346491344891
31
0.00000000000000
  0
LINE
  5
F10078
330
F10079
100
AcDbEntity
8
Geo
100
AcDbLine
10
-58.1936506757645
20
14.6346491344891
30
0.00000000000000
11
-58.1913173424312
21
14.6339920260179
31
0.00000000000000
  0
LINE
  5
F1007A
330
F1007B
100
AcDbEntity
8
Geo
100
AcDbLine
10
-58.1913173424312
20
14.6339920260179
30
0.00000000000000
11
-58.1889840090978
21
14.6332909608928
31
0.00000000000000
  0
LINE
  5
F1007C
330
F1007D
100
AcDbEntity
8
Geo
100
AcDbLine
10
-58.1889840090978
20
14.6332909608928
30
0.00000000000000
11
-58.1866506757645
21
14.6325548666154
31
0.00000000000000
  0
LINE
  5
F1007E
330
F1007F
100
AcDbEntity
8
Geo
100
AcDbLine
10
-58.1866506757645
20
14.6325548666154
30
0.00000000000000
11
-58.1843173424312
21
14.6318073206556
31
0.00000000000000
  0
LINE
  5
F10080
330
F10081
100
AcDbEntity
8
Geo
100
AcDbLine
10
-58.1843173424312
20
14.6318073206556
30
0.00000000000000
11
-58.1819840090978
21
14.6310497399308
31
0.00000000000000
  0
LINE
  5
F10082
330
F10083
100
AcDbEntity
8
Geo
100
AcDbLine
10
-58.1819840090978
20
14.6310497399308
30
0.00000000000000
11
-58.1796506757645
21
14.6302821855457
31
0.00000000000000
  0
LINE
  5
F10084
330
F10085
100
AcDbEntity
8
Geo
100
AcDbLine
10
-58.1796506757645
20
14.6302821855457
30
0.00000000000000
11
-58.1773173424312
21
14.6295047194098
31
0.00000000000000
  0
LINE
  5
F10086
330
F10087
100
AcDbEntity
8
Geo
100
AcDbLine
10
-58.1773173424312
20
14.6295047194098
30
0.00000000000000
11
-58.1749840090978
21
14.6287174042317
31
0.00000000000000
  0
LINE
  5
F10088
330
F10089
100
AcDbEntity
8
Geo
100
AcDbLine
10
-58.1749840090978
20
14.6287174042317
30
0.00000000000000
11
-58.1726506757645
21
14.6279203035147
31
0.00000000000000
  0
LINE
  5
F1008A
330
F1008B
100
AcDbEntity
8
Geo
100
AcDbLine
10
-58.1726506757645
20
14.6279203035147
30
0.00000000000000
11
-58.1703173424312
21
14.6271134815513
31
0.00000000000000
  0
LINE
  5
F1008C
330
F1008D
100
AcDbEntity
8
Geo
100
AcDbLine
10
-58.1703173424312
20
14.6271134815513
30
0.00000000000000
11
-58.1679840090978
21
14.6262970034180
31
0.00000000000000
  0
LINE
  5
F1008E
330
F1008F
100
AcDbEntity
8
Geo
100
AcDbLine
10
-58.1679840090978
20
14.6262970034180
30
0.00000000000000
11
-58.1656506757645
21
14.6254709349702
31
0.00000000000000
  0
LINE
  5
F10090
330
F10091
100
AcDbEntity
8
Geo
100
AcDbLine
10
-58.1656506757645
20
14.6254709349702
30
0.00000000000000
11
-58.1633173424312
21
14.6246353428369
31
0.00000000000000
  0
LINE
  5
F10092
330
F10093
100
AcDbEntity
8
Geo
100
AcDbLine
10
-58.1633173424312
20
14.6246353428369
30
0.00000000000000
11
-58.1609840090978
21
14.6237902944151
31
0.00000000000000
  0
LINE
  5
F10094
330
F10095
100
AcDbEntity
8
Geo
100
AcDbLine
10
-58.1609840090978
20
14.6237902944151
30
0.00000000000000
11
-58.1586506757645
21
14.6229358578647
31
0.00000000000000
  0
LINE
  5
F10096
330
F10097
100
AcDbEntity
8
Geo
100
AcDbLine
10
-58.1586506757645
20
14.6229358578647
30
0.00000000000000
11
-58.1563173424312
21
14.6220721021028
31
0.00000000000000
  0
LINE
  5
F10098
330
F10099
100
AcDbEntity
8
Geo
100
AcDbLine
10
-58.1563173424312
20
14.6220721021028
30
0.00000000000000
11
-58.1539840090978
21
14.6211990967980
31
0.00000000000000
  0
LINE
  5
F1009A
330
F1009B
100
AcDbEntity
8
Geo
100
AcDbLine
10
-58.1539840090978
20
14.6211990967980
30
0.00000000000000
11
-58.1516506757645
21
14.6203169123651
31
0.00000000000000
  0
LINE
  5
F1009C
330
F1009D
100
AcDbEntity
8
Geo
100
AcDbLine
10
-58.1516506757645
20
14.6203169123651
30
0.00000000000000
11
-58.1493173424312
21
14.6194256199593
31
0.00000000000000
  0
LINE
  5
F1009E
330
F1009F
100
AcDbEntity
8
Geo
100
AcDbLine
10
-58.1493173424312
20
14.6194256199593
30
0.00000000000000
11
-58.1469840090978
21
14.6185252914704
31
0.00000000000000
  0
LINE
  5
F100A0
330
F100A1
100
AcDbEntity
8
Geo
100
AcDbLine
10
-58.1469840090978
20
14.6185252914704
30
0.00000000000000
11
-58.1446506757645
21
14.6176159995169
31
0.00000000000000
  0
LINE
  5
F100A2
330
F100A3
100
AcDbEntity
8
Geo
100
AcDbLine
10
-58.1446506757645
20
14.6176159995169
30
0.00000000000000
11
-58.1423173424312
21
14.6166978174403
31
0.00000000000000
  0
LINE
  5
F100A4
330
F100A5
100
AcDbEntity
8
Geo
100
AcDbLine
10
-58.1423173424312
20
14.6166978174403
30
0.00000000000000
11
-58.1399840090978
21
14.6157708192995
31
0.00000000000000
  0
LINE
  5
F100A6
330
F100A7
100
AcDbEntity
8
Geo
100
AcDbLine
10
-58.1399840090978
20
14.6157708192995
30
0.00000000000000
11
-58.1376506757645
21
14.6148350798640
31
0.00000000000000
  0
LINE
  5
F100A8
330
F100A9
100
AcDbEntity
8
Geo
100
AcDbLine
10
-58.1376506757645
20
14.6148350798640
30
0.00000000000000
11
-58.1353173424312
21
14.6138906746086
31
0.00000000000000
  0
LINE
  5
F100AA
330
F100AB
100
AcDbEntity
8
Geo
100
AcDbLine
10
-58.1353173424312
20
14.6138906746086
30
0.00000000000000
11
-58.1329840090978
21
14.6129376797071
31
0.00000000000000
  0
LINE
  5
F100AC
330
F100AD
100
AcDbEntity
8
Geo
100
AcDbLine
10
-58.1329840090978
20
14.6129376797071
30
0.00000000000000
11
-58.1306506757645
21
14.6119761720260
31
0.00000000000000
  0
LINE
  5
F100AE
330
F100AF
100
AcDbEntity
8
Geo
100
AcDbLine
10
-58.1306506757645
20
14.6119761720260
30
0.00000000000000
11
-58.1283173424312
21
14.6110062291185
31
0.00000000000000
  0
LINE
  5
F100B0
330
F100B1
100
AcDbEntity
8
Geo
100
AcDbLine
10
-58.1283173424312
20
14.6110062291185
30
0.00000000000000
11
-58.1259840090978
21
14.6100279292182
31
0.00000000000000
  0
LINE
  5
F100B2
330
F100B3
100
AcDbEntity
8
Geo
100
AcDbLine
10
-58.1259840090978
20
14.6100279292182
30
0.00000000000000
11
-58.1236506757645
21
14.6090413512327
31
0.00000000000000
  0
LINE
  5
F100B4
330
F100B5
100
AcDbEntity
8
Geo
100
AcDbLine
10
-58.1236506757645
20
14.6090413512327
30
0.00000000000000
11
-58.1213173424312
21
14.6080465747373
31
0.00000000000000
  0
LINE
  5
F100B6
330
F100B7
100
AcDbEntity
8
Geo
100
AcDbLine
10
-58.1213173424312
20
14.6080465747373
30
0.00000000000000
11
-58.1189840090978
21
14.6070436799685
31
0.00000000000000
  0
LINE
  5
F100B8
330
F100B9
100
AcDbEntity
8
Geo
100
AcDbLine
10
-58.1189840090978
20
14.6070436799685
30
0.00000000000000
11
-58.1166506757645
21
14.6060327478178
31
0.00000000000000
  0
LINE
  5
F100BA
330
F100BB
100
AcDbEntity
8
Geo
100
AcDbLine
10
-58.1166506757645
20
14.6060327478178
30
0.00000000000000
11
-58.1143173424312
21
14.6050138598248
31
0.00000000000000
  0
LINE
  5
F100BC
330
F100BD
100
AcDbEntity
8
Geo
100
AcDbLine
10
-58.1143173424312
20
14.6050138598248
30
0.00000000000000
11
-58.1119840090978
21
14.6039870981708
31
0.00000000000000
  0
LINE
  5
F100BE
330
F100BF
100
AcDbEntity
8
Geo
100
AcDbLine
10
-58.1119840090978
20
14.6039870981708
30
0.00000000000000
11
-58.1096506757645
21
14.6029525456723
31
0.00000000000000
  0
LINE
  5
F100C0
330
F100C1
100
AcDbEntity
8
Geo
100
AcDbLine
10
-58.1096506757645
20
14.6029525456723
30
0.00000000000000
11
-58.1073173424312
21
14.6019102857742
31
0.00000000000000
  0
LINE
  5
F100C2
330
F100C3
100
AcDbEntity
8
Geo
100
AcDbLine
10
-58.1073173424312
20
14.6019102857742
30
0.00000000000000
11
-58.1049840090978
21
14.6008604025428
31
0.00000000000000
  0
LINE
  5
F100C4
330
F100C5
100
AcDbEntity
8
Geo
100
AcDbLine
10
-58.1049840090978
20
14.6008604025428
30
0.00000000000000
11
-58.1026506757645
21
14.5998029806596
31
0.00000000000000
  0
LINE
  5
F100C6
330
F100C7
100
AcDbEntity
8
Geo
100
AcDbLine
10
-58.1026506757645
20
14.5998029806596
30
0.00000000000000
11
-58.1003173424312
21
14.5987381054140
31
0.00000000000000
  0
LINE
  5
F100C8
330
F100C9
100
AcDbEntity
8
Geo
100
AcDbLine
10
-58.1003173424312
20
14.5987381054140
30
0.00000000000000
11
-58.0979840090978
21
14.5976658626966
31
0.00000000000000
  0
LINE
  5
F100CA
330
F100CB
100
AcDbEntity
8
Geo
100
AcDbLine
10
-58.0979840090978
20
14.5976658626966
30
0.00000000000000
11
-58.0956506757645
21
14.5965863389923
31
0.00000000000000
  0
LINE
  5
F100CC
330
F100CD
100
AcDbEntity
8
Geo
100
AcDbLine
10
-58.0956506757645
20
14.5965863389923
30
0.00000000000000
11
-58.0933173424312
21
14.5954996213730
31
0.00000000000000
  0
LINE
  5
F100CE
330
F100CF
100
AcDbEntity
8
Geo
100
AcDbLine
10
-58.0933173424312
20
14.5954996213730
30
0.00000000000000
11
-58.0909840090978
21
14.5944057974913
31
0.00000000000000
  0
LINE
  5
F100D0
330
F100D1
100
AcDbEntity
8
Geo
100
AcDbLine
10
-58.0909840090978
20
14.5944057974913
30
0.00000000000000
11
-58.0886506757645
21
14.5933049555726
31
0.00000000000000
  0
LINE
  5
F100D2
330
F100D3
100
AcDbEntity
8
Geo
100
AcDbLine
10
-58.0886506757645
20
14.5933049555726
30
0.00000000000000
11
-58.0863173424312
21
14.5921971844085
31
0.00000000000000
  0
LINE
  5
F100D4
330
F100D5
100
AcDbEntity
8
Geo
100
AcDbLine
10
-58.0863173424312
20
14.5921971844085
30
0.00000000000000
11
-58.0839840090978
21
14.5910825733495
31
0.00000000000000
  0
LINE
  5
F100D6
330
F100D7
100
AcDbEntity
8
Geo
100
AcDbLine
10
-58.0839840090978
20
14.5910825733495
30
0.00000000000000
11
-58.0816506757645
21
14.5899612122979
31
0.00000000000000
  0
LINE
  5
F100D8
330
F100D9
100
AcDbEntity
8
Geo
100
AcDbLine
10
-58.0816506757645
20
14.5899612122979
30
0.00000000000000
11
-58.0793173424312
21
14.5888331917001
31
0.00000000000000
  0
LINE
  5
F100DA
330
F100DB
100
AcDbEntity
8
Geo
100
AcDbLine
10
-58.0793173424312
20
14.5888331917001
30
0.00000000000000
11
-58.0769840090978
21
14.5876986025400
31
0.00000000000000
  0
LINE
  5
F100DC
330
F100DD
100
AcDbEntity
8
Geo
100
AcDbLine
10
-58.0769840090978
20
14.5876986025400
30
0.00000000000000
11
-58.0746506757645
21
14.5865575363311
31
0.00000000000000
  0
LINE
  5
F100DE
330
F100DF
100
AcDbEntity
8
Geo
100
AcDbLine
10
-58.0746506757645
20
14.5865575363311
30
0.00000000000000
11
-58.0723173424312
21
14.5854100851095
31
0.00000000000000
  0
LINE
  5
F100E0
330
F100E1
100
AcDbEntity
8
Geo
100
AcDbLine
10
-58.0723173424312
20
14.5854100851095
30
0.00000000000000
11
-58.0699840090978
21
14.5842563414261
31
0.00000000000000
  0
LINE
  5
F100E2
330
F100E3
100
AcDbEntity
8
Geo
100
AcDbLine
10
-58.0699840090978
20
14.5842563414261
30
0.00000000000000
11
-58.0676506757645
21
14.5830963983395
31
0.00000000000000
  0
LINE
  5
F100E4
330
F100E5
100
AcDbEntity
8
Geo
100
AcDbLine
10
-58.0676506757645
20
14.5830963983395
30
0.00000000000000
11
-58.0653173424312
21
14.5819303494082
31
0.00000000000000
  0
LINE
  5
F100E6
330
F100E7
100
AcDbEntity
8
Geo
100
AcDbLine
10
-58.0653173424312
20
14.5819303494082
30
0.00000000000000
11
-58.0629840090978
21
14.5807582886833
31
0.00000000000000
  0
LINE
  5
F100E8
330
F100E9
100
AcDbEntity
8
Geo
100
AcDbLine
10
-58.0629840090978
20
14.5807582886833
30
0.00000000000000
11
-58.0606506757645
21
14.5795803107008
31
0.00000000000000
  0
LINE
  5
F100EA
330
F100EB
100
AcDbEntity
8
Geo
100
AcDbLine
10
-58.0606506757645
20
14.5795803107008
30
0.00000000000000
11
-58.0583173424312
21
14.5783965104739
31
0.00000000000000
  0
LINE
  5
F100EC
330
F100ED
100
AcDbEntity
8
Geo
100
AcDbLine
10
-58.0583173424312
20
14.5783965104739
30
0.00000000000000
11
-58.0559840090978
21
14.5772069834853
31
0.00000000000000
  0
LINE
  5
F100EE
330
F100EF
100
AcDbEntity
8
Geo
100
AcDbLine
10
-58.0559840090978
20
14.5772069834853
30
0.00000000000000
11
-58.0536506757645
21
14.5760118256799
31
0.00000000000000
  0
LINE
  5
F100F0
330
F100F1
100
AcDbEntity
8
Geo
100
AcDbLine
10
-58.0536506757645
20
14.5760118256799
30
0.00000000000000
11
-58.0513173424312
21
14.5748111334566
31
0.00000000000000
  0
LINE
  5
F100F2
330
F100F3
100
AcDbEntity
8
Geo
100
AcDbLine
10
-58.0513173424312
20
14.5748111334566
30
0.00000000000000
11
-58.0489840090978
21
14.5736050036606
31
0.00000000000000
  0
LINE
  5
F100F4
330
F100F5
100
AcDbEntity
8
Geo
100
AcDbLine
10
-58.0489840090978
20
14.5736050036606
30
0.00000000000000
11
-58.0466506757645
21
14.5723935335758
31
0.00000000000000
  0
LINE
  5
F100F6
330
F100F7
100
AcDbEntity
8
Geo
100
AcDbLine
10
-58.0466506757645
20
14.5723935335758
30
0.00000000000000
11
-58.0443173424312
21
14.5711768209170
31
0.00000000000000
  0
LINE
  5
F100F8
330
F100F9
100
AcDbEntity
8
Geo
100
AcDbLine
10
-58.0443173424312
20
14.5711768209170
30
0.00000000000000
11
-58.0419840090978
21
14.5699549638215
31
0.00000000000000
  0
LINE
  5
F100FA
330
F100FB
100
AcDbEntity
8
Geo
100
AcDbLine
10
-58.0419840090978
20
14.5699549638215
30
0.00000000000000
11
-58.0396506757645
21
14.5687280608418
31
0.00000000000000
  0
LINE
  5
F100FC
330
F100FD
100
AcDbEntity
8
Geo
100
AcDbLine
10
-58.0396506757645
20
14.5687280608418
30
0.00000000000000
11
-58.0373173424312
21
14.5674962109372
31
0.00000000000000
  0
LINE
  5
F100FE
330
F100FF
100
AcDbEntity
8
Geo
100
AcDbLine
10
-58.0373173424312
20
14.5674962109372
30
0.00000000000000
11
-58.0349840090978
21
14.5662595134663
31
0.00000000000000
  0
LINE
  5
F10100
330
F10101
100
AcDbEntity
8
Geo
100
AcDbLine
10
-58.0349840090978
20
14.5662595134663
30
0.00000000000000
11
-58.0326506757645
21
14.5650180681784
31
0.00000000000000
  0
LINE
  5
F10102
330
F10103
100
AcDbEntity
8
Geo
100
AcDbLine
10
-58.0326506757645
20
14.5650180681784
30
0.00000000000000
11
-58.0303173424312
21
14.5637719752059
31
0.00000000000000
  0
LINE
  5
F10104
330
F10105
100
AcDbEntity
8
Geo
100
AcDbLine
10
-58.0303173424312
20
14.5637719752059
30
0.00000000000000
11
-58.0279840090978
21
14.5625213350559
31
0.00000000000000
  0
LINE
  5
F10106
330
F10107
100
AcDbEntity
8
Geo
100
AcDbLine
10
-58.0279840090978
20
14.5625213350559
30
0.00000000000000
11
-58.0256506757645
21
14.5612662486027
31
0.00000000000000
  0
LINE
  5
F10108
330
F10109
100
AcDbEntity
8
Geo
100
AcDbLine
10
-58.0256506757645
20
14.5612662486027
30
0.00000000000000
11
-58.0233173424312
21
14.5600068170786
31
0.00000000000000
  0
LINE
  5
F1010A
330
F1010B
100
AcDbEntity
8
Geo
100
AcDbLine
10
-58.0233173424312
20
14.5600068170786
30
0.00000000000000
11
-58.0209840090978
21
14.5587431420669
31
0.00000000000000
  0
LINE
  5
F1010C
330
F1010D
100
AcDbEntity
8
Geo
100
AcDbLine
10
-58.0209840090978
20
14.5587431420669
30
0.00000000000000
11
-58.0186506757645
21
14.5574753254929
31
0.00000000000000
  0
LINE
  5
F1010E
330
F1010F
100
AcDbEntity
8
Geo
100
AcDbLine
10
-58.0186506757645
20
14.5574753254929
30
0.00000000000000
11
-58.0163173424312
21
14.5562034696161
31
0.00000000000000
  0
LINE
  5
F10110
330
F10111
100
AcDbEntity
8
Geo
100
AcDbLine
10
-58.0163173424312
20
14.5562034696161
30
0.00000000000000
11
-58.0139840090978
21
14.5549276770216
31
0.00000000000000
  0
LINE
  5
F10112
330
F10113
100
AcDbEntity
8
Geo
100
AcDbLine
10
-58.0139840090978
20
14.5549276770216
30
0.00000000000000
11
-58.0116506757645
21
14.5536480506121
31
0.00000000000000
  0
LINE
  5
F10114
330
F10115
100
AcDbEntity
8
Geo
100
AcDbLine
10
-58.0116506757645
20
14.5536480506121
30
0.00000000000000
11
-58.0093173424312
21
14.5523646935997
31
0.00000000000000
  0
LINE
  5
F10116
330
F10117
100
AcDbEntity
8
Geo
100
AcDbLine
10
-58.0093173424312
20
14.5523646935997
30
0.00000000000000
11
-58.0069840090978
21
14.5510777094973
31
0.00000000000000
  0
LINE
  5
F10118
330
F10119
100
AcDbEntity
8
Geo
100
AcDbLine
10
-58.0069840090978
20
14.5510777094973
30
0.00000000000000
11
-58.0046506757645
21
14.5497872021102
31
0.00000000000000
  0
LINE
  5
F1011A
330
F1011B
100
AcDbEntity
8
Geo
100
AcDbLine
10
-58.0046506757645
20
14.5497872021102
30
0.00000000000000
11
-58.0023173424312
21
14.5484932755281
31
0.00000000000000
  0
LINE
  5
F1011C
330
F1011D
100
AcDbEntity
8
Geo
100
AcDbLine
10
-58.0023173424312
20
14.5484932755281
30
0.00000000000000
11
-57.9999840090978
21
14.5471960341163
31
0.00000000000000
  0
LINE
  5
F1011E
330
F1011F
100
AcDbEntity
8
Geo
100
AcDbLine
10
-57.9999840090978
20
14.5471960341163
30
0.00000000000000
11
-57.9976506757645
21
14.5458955825077
31
0.00000000000000
  0
LINE
  5
F10120
330
F10121
100
AcDbEntity
8
Geo
100
AcDbLine
10
-57.9976506757645
20
14.5458955825077
30
0.00000000000000
11
-57.9953173424312
21
14.5445920255938
31
0.00000000000000
  0
LINE
  5
F10122
330
F10123
100
AcDbEntity
8
Geo
100
AcDbLine
10
-57.9953173424312
20
14.5445920255938
30
0.00000000000000
11
-57.9929840090978
21
14.5432854685169
31
0.00000000000000
  0
LINE
  5
F10124
330
F10125
100
AcDbEntity
8
Geo
100
AcDbLine
10
-57.9929840090978
20
14.5432854685169
30
0.00000000000000
11
-57.9906506757645
21
14.5419760166611
31
0.00000000000000
  0
LINE
  5
F10126
330
F10127
100
AcDbEntity
8
Geo
100
AcDbLine
10
-57.9906506757645
20
14.5419760166611
30
0.00000000000000
11
-57.9883173424312
21
14.5406637756441
31
0.00000000000000
  0
LINE
  5
F10128
330
F10129
100
AcDbEntity
8
Geo
100
AcDbLine
10
-57.9883173424312
20
14.5406637756441
30
0.00000000000000
11
-57.9859840090978
21
14.5393488513084
31
0.00000000000000
  0
LINE
  5
F1012A
330
F1012B
100
AcDbEntity
8
Geo
100
AcDbLine
10
-57.9859840090978
20
14.5393488513084
30
0.00000000000000
11
-57.9836506757645
21
14.5380313497130
31
0.00000000000000
  0
LINE
  5
F1012C
330
F1012D
100
AcDbEntity
8
Geo
100
AcDbLine
10
-57.9836506757645
20
14.5380313497130
30
0.00000000000000
11
-57.9813173424312
21
14.5367113771249
31
0.00000000000000
  0
LINE
  5
F1012E
330
F1012F
100
AcDbEntity
8
Geo
100
AcDbLine
10
-57.9813173424312
20
14.5367113771249
30
0.00000000000000
11
-57.9789840090978
21
14.5353890400103
31
0.00000000000000
  0
LINE
  5
F10130
330
F10131
100
AcDbEntity
8
Geo
100
AcDbLine
10
-57.9789840090978
20
14.5353890400103
30
0.00000000000000
11
-57.9766506757645
21
14.5340644450261
31
0.00000000000000
  0
LINE
  5
F10132
330
F10133
100
AcDbEntity
8
Geo
100
AcDbLine
10
-57.9766506757645
20
14.5340644450261
30
0.00000000000000
11
-57.9743173424312
21
14.5327376990113
31
0.00000000000000
  0
LINE
  5
F10134
330
F10135
100
AcDbEntity
8
Geo
100
AcDbLine
10
-57.9743173424312
20
14.5327376990113
30
0.00000000000000
11
-57.9719840090978
21
14.5314089089785
31
0.00000000000000
  0
LINE
  5
F10136
330
F10137
100
AcDbEntity
8
Geo
100
AcDbLine
10
-57.9719840090978
20
14.5314089089785
30
0.00000000000000
11
-57.9696506757645
21
14.5300781821051
31
0.00000000000000
  0
LINE
  5
F10138
330
F10139
100
AcDbEntity
8
Geo
100
AcDbLine
10
-57.9696506757645
20
14.5300781821051
30
0.00000000000000
11
-57.9673173424312
21
14.5287456257247
31
0.00000000000000
  0
LINE
  5
F1013A
330
F1013B
100
AcDbEntity
8
Geo
100
AcDbLine
10
-57.9673173424312
20
14.5287456257247
30
0.00000000000000
11
-57.9649840090978
21
14.5274113473185
31
0.00000000000000
  0
LINE
  5
F1013C
330
F1013D
100
AcDbEntity
8
Geo
100
AcDbLine
10
-57.9649840090978
20
14.5274113473185
30
0.00000000000000
11
-57.9626506757645
21
14.5260754545066
31
0.00000000000000
  0
LINE
  5
F1013E
330
F1013F
100
AcDbEntity
8
Geo
100
AcDbLine
10
-57.9626506757645
20
14.5260754545066
30
0.00000000000000
11
-57.9603173424312
21
14.5247380550393
31
0.00000000000000
  0
LINE
  5
F10140
330
F10141
100
AcDbEntity
8
Geo
100
AcDbLine
10
-57.9603173424312
20
14.5247380550393
30
0.00000000000000
11
-57.9579840090978
21
14.5233992567884
31
0.00000000000000
  0
LINE
  5
F10142
330
F10143
100
AcDbEntity
8
Geo
100
AcDbLine
10
-57.9579840090978
20
14.5233992567884
30
0.00000000000000
11
-57.9556506757645
21
14.5220591677386
31
0.00000000000000
  0
LINE
  5
F10144
330
F10145
100
AcDbEntity
8
Geo
100
AcDbLine
10
-57.9556506757645
20
14.5220591677386
30
0.00000000000000
11
-57.9533173424312
21
14.5207178959786
31
0.00000000000000
  0
LINE
  5
F10146
330
F10147
100
AcDbEntity
8
Geo
100
AcDbLine
10
-57.9533173424312
20
14.5207178959786
30
0.00000000000000
11
-57.9509840090978
21
14.5193755496925
31
0.00000000000000
  0
LINE
  5
F10148
330
F10149
100
AcDbEntity
8
Geo
100
AcDbLine
10
-57.9509840090978
20
14.5193755496925
30
0.00000000000000
11
-57.9486506757645
21
14.5180322371513
31
0.00000000000000
  0
LINE
  5
F1014A
330
F1014B
100
AcDbEntity
8
Geo
100
AcDbLine
10
-57.9486506757645
20
14.5180322371513
30
0.00000000000000
11
-57.9463173424312
21
14.5166880667036
31
0.00000000000000
  0
LINE
  5
F1014C
330
F1014D
100
AcDbEntity
8
Geo
100
AcDbLine
10
-57.9463173424312
20
14.5166880667036
30
0.00000000000000
11
-57.9439840090978
21
14.5153431467675
31
0.00000000000000
  0
LINE
  5
F1014E
330
F1014F
100
AcDbEntity
8
Geo
100
AcDbLine
10
-57.9439840090978
20
14.5153431467675
30
0.00000000000000
11
-57.9416506757645
21
14.5139975858213
31
0.00000000000000
  0
LINE
  5
F10150
330
F10151
100
AcDbEntity
8
Geo
100
AcDbLine
10
-57.9416506757645
20
14.5139975858213
30
0.00000000000000
11
-57.9393173424312
21
14.5126514923951
31
0.00000000000000
  0
LINE
  5
F10152
330
F10153
100
AcDbEntity
8
Geo
100
AcDbLine
10
-57.9393173424312
20
14.5126514923951
30
0.00000000000000
11
-57.9369840090978
21
14.5113049750621
31
0.00000000000000
  0
LINE
  5
F10154
330
F10155
100
AcDbEntity
8
Geo
100
AcDbLine
10
-57.9369840090978
20
14.5113049750621
30
0.00000000000000
11
-57.9346506757645
21
14.5099581424294
31
0.00000000000000
  0
LINE
  5
F10156
330
F10157
100
AcDbEntity
8
Geo
100
AcDbLine
10
-57.9346506757645
20
14.5099581424294
30
0.00000000000000
11
-57.9323173424312
21
14.5086111031297
31
0.00000000000000
  0
LINE
  5
F10158
330
F10159
100
AcDbEntity
8
Geo
100
AcDbLine
10
-57.9323173424312
20
14.5086111031297
30
0.00000000000000
11
-57.9299840090978
21
14.5072639658125
31
0.00000000000000
  0
LINE
  5
F1015A
330
F1015B
100
AcDbEntity
8
Geo
100
AcDbLine
10
-57.9299840090978
20
14.5072639658125
30
0.00000000000000
11
-57.9276506757645
21
14.5059168391349
31
0.00000000000000
  0
LINE
  5
F1015C
330
F1015D
100
AcDbEntity
8
Geo
100
AcDbLine
10
-57.9276506757645
20
14.5059168391349
30
0.00000000000000
11
-57.9253173424311
21
14.5045698317533
31
0.00000000000000
  0
LINE
  5
F1015E
330
F1015F
100
AcDbEntity
8
Geo
100
AcDbLine
10
-57.9253173424311
20
14.5045698317533
30
0.00000000000000
11
-57.9229840090978
21
14.5032230523146
31
0.00000000000000
  0
LINE
  5
F10160
330
F10161
100
AcDbEntity
8
Geo
100
AcDbLine
10
-57.9229840090978
20
14.5032230523146
30
0.00000000000000
11
-57.9206506757645
21
14.5018766094471
31
0.00000000000000
  0
LINE
  5
F10162
330
F10163
100
AcDbEntity
8
Geo
100
AcDbLine
10
-57.9206506757645
20
14.5018766094471
30
0.00000000000000
11
-57.9183173424312
21
14.5005306117521
31
0.00000000000000
  0
LINE
  5
F10164
330
F10165
100
AcDbEntity
8
Geo
100
AcDbLine
10
-57.9183173424312
20
14.5005306117521
30
0.00000000000000
11
-57.9159840090978
21
14.4991851677949
31
0.00000000000000
  0
LINE
  5
F10166
330
F10167
100
AcDbEntity
8
Geo
100
AcDbLine
10
-57.9159840090978
20
14.4991851677949
30
0.00000000000000
11
-57.9136506757645
21
14.4978403860962
31
0.00000000000000
  0
LINE
  5
F10168
330
F10169
100
AcDbEntity
8
Geo
100
AcDbLine
10
-57.9136506757645
20
14.4978403860962
30
0.00000000000000
11
-57.9113173424312
21
14.4964963751232
31
0.00000000000000
  0
LINE
  5
F1016A
330
F1016B
100
AcDbEntity
8
Geo
100
AcDbLine
10
-57.9113173424312
20
14.4964963751232
30
0.00000000000000
11
-57.9089840090978
21
14.4951532432811
31
0.00000000000000
  0
LINE
  5
F1016C
330
F1016D
100
AcDbEntity
8
Geo
100
AcDbLine
10
-57.9089840090978
20
14.4951532432811
30
0.00000000000000
11
-57.9066506757645
21
14.4938110989040
31
0.00000000000000
  0
LINE
  5
F1016E
330
F1016F
100
AcDbEntity
8
Geo
100
AcDbLine
10
-57.9066506757645
20
14.4938110989040
30
0.00000000000000
11
-57.9043173424312
21
14.4924700502465
31
0.00000000000000
  0
LINE
  5
F10170
330
F10171
100
AcDbEntity
8
Geo
100
AcDbLine
10
-57.9043173424312
20
14.4924700502465
30
0.00000000000000
11
-57.9019840090978
21
14.4911302054747
31
0.00000000000000
  0
LINE
  5
F10172
330
F10173
100
AcDbEntity
8
Geo
100
AcDbLine
10
-57.9019840090978
20
14.4911302054747
30
0.00000000000000
11
-57.8996506757645
21
14.4897916726577
31
0.00000000000000
  0
LINE
  5
F10174
330
F10175
100
AcDbEntity
8
Geo
100
AcDbLine
10
-57.8996506757645
20
14.4897916726577
30
0.00000000000000
11
-57.8973173424312
21
14.4884545597587
31
0.00000000000000
  0
LINE
  5
F10176
330
F10177
100
AcDbEntity
8
Geo
100
AcDbLine
10
-57.8973173424312
20
14.4884545597587
30
0.00000000000000
11
-57.8949840090978
21
14.4871189746264
31
0.00000000000000
  0
LINE
  5
F10178
330
F10179
100
AcDbEntity
8
Geo
100
AcDbLine
10
-57.8949840090978
20
14.4871189746264
30
0.00000000000000
11
-57.8926506757645
21
14.4857850249864
31
0.00000000000000
  0
LINE
  5
F1017A
330
F1017B
100
AcDbEntity
8
Geo
100
AcDbLine
10
-57.8926506757645
20
14.4857850249864
30
0.00000000000000
11
-57.8903173424312
21
14.4844528184321
31
0.00000000000000
  0
LINE
  5
F1017C
330
F1017D
100
AcDbEntity
8
Geo
100
AcDbLine
10
-57.8903173424312
20
14.4844528184321
30
0.00000000000000
11
-57.8879840090978
21
14.4831224624166
31
0.00000000000000
  0
LINE
  5
F1017E
330
F1017F
100
AcDbEntity
8
Geo
100
AcDbLine
10
-57.8879840090978
20
14.4831224624166
30
0.00000000000000
11
-57.8856506757645
21
14.4817940642436
31
0.00000000000000
  0
LINE
  5
F10180
330
F10181
100
AcDbEntity
8
Geo
100
AcDbLine
10
-57.8856506757645
20
14.4817940642436
30
0.00000000000000
11
-57.8833173424312
21
14.4804677310589
31
0.00000000000000
  0
LINE
  5
F10182
330
F10183
100
AcDbEntity
8
Geo
100
AcDbLine
10
-57.8833173424312
20
14.4804677310589
30
0.00000000000000
11
-57.8809840090978
21
14.4791435698417
31
0.00000000000000
  0
LINE
  5
F10184
330
F10185
100
AcDbEntity
8
Geo
100
AcDbLine
10
-57.8809840090978
20
14.4791435698417
30
0.00000000000000
11
-57.8786506757645
21
14.4778216873961
31
0.00000000000000
  0
LINE
  5
F10186
330
F10187
100
AcDbEntity
8
Geo
100
AcDbLine
10
-57.8786506757645
20
14.4778216873961
30
0.00000000000000
11
-57.8763173424312
21
14.4765021903423
31
0.00000000000000
  0
LINE
  5
F10188
330
F10189
100
AcDbEntity
8
Geo
100
AcDbLine
10
-57.8763173424312
20
14.4765021903423
30
0.00000000000000
11
-57.8739840090978
21
14.4751851851081
31
0.00000000000000
  0
LINE
  5
F1018A
330
F1018B
100
AcDbEntity
8
Geo
100
AcDbLine
10
-57.8739840090978
20
14.4751851851081
30
0.00000000000000
11
-57.8716506757645
21
14.4738707779205
31
0.00000000000000
  0
LINE
  5
F1018C
330
F1018D
100
AcDbEntity
8
Geo
100
AcDbLine
10
-57.8716506757645
20
14.4738707779205
30
0.00000000000000
11
-57.8693173424312
21
14.4725590747968
31
0.00000000000000
  0
LINE
  5
F1018E
330
F1018F
100
AcDbEntity
8
Geo
100
AcDbLine
10
-57.8693173424312
20
14.4725590747968
30
0.00000000000000
11
-57.8669840090978
21
14.4712501815362
31
0.00000000000000
  0
LINE
  5
F10190
330
F10191
100
AcDbEntity
8
Geo
100
AcDbLine
10
-57.8669840090978
20
14.4712501815362
30
0.00000000000000
11
-57.8646506757645
21
14.4699442037112
31
0.00000000000000
  0
LINE
  5
F10192
330
F10193
100
AcDbEntity
8
Geo
100
AcDbLine
10
-57.8646506757645
20
14.4699442037112
30
0.00000000000000
11
-57.8623173424312
21
14.4686412466593
31
0.00000000000000
  0
LINE
  5
F10194
330
F10195
100
AcDbEntity
8
Geo
100
AcDbLine
10
-57.8623173424312
20
14.4686412466593
30
0.00000000000000
11
-57.8599840090978
21
14.4673414154742
31
0.00000000000000
  0
LINE
  5
F10196
330
F10197
100
AcDbEntity
8
Geo
100
AcDbLine
10
-57.8599840090978
20
14.4673414154742
30
0.00000000000000
11
-57.8576506757645
21
14.4660448149977
31
0.00000000000000
  0
LINE
  5
F10198
330
F10199
100
AcDbEntity
8
Geo
100
AcDbLine
10
-57.8576506757645
20
14.4660448149977
30
0.00000000000000
11
-57.8553173424311
21
14.4647515498106
31
0.00000000000000
  0
LINE
  5
F1019A
330
F1019B
100
AcDbEntity
8
Geo
100
AcDbLine
10
-57.8553173424311
20
14.4647515498106
30
0.00000000000000
11
-57.8529840090978
21
14.4634617242252
31
0.00000000000000
  0
LINE
  5
F1019C
330
F1019D
100
AcDbEntity
8
Geo
100
AcDbLine
10
-57.8529840090978
20
14.4634617242252
30
0.00000000000000
11
-57.8506506757645
21
14.4621754422760
31
0.00000000000000
  0
LINE
  5
F1019E
330
F1019F
100
AcDbEntity
8
Geo
100
AcDbLine
10
-57.8506506757645
20
14.4621754422760
30
0.00000000000000
11
-57.8483173424312
21
14.4608928077118
31
0.00000000000000
  0
LINE
  5
F101A0
330
F101A1
100
AcDbEntity
8
Geo
100
AcDbLine
10
-57.8483173424312
20
14.4608928077118
30
0.00000000000000
11
-57.8459840090978
21
14.4596139239872
31
0.00000000000000
  0
LINE
  5
F101A2
330
F101A3
100
AcDbEntity
8
Geo
100
AcDbLine
10
-57.8459840090978
20
14.4596139239872
30
0.00000000000000
11
-57.8436506757645
21
14.4583388942543
31
0.00000000000000
  0
LINE
  5
F101A4
330
F101A5
100
AcDbEntity
8
Geo
100
AcDbLine
10
-57.8436506757645
20
14.4583388942543
30
0.00000000000000
11
-57.8413173424312
21
14.4570678213543
31
0.00000000000000
  0
LINE
  5
F101A6
330
F101A7
100
AcDbEntity
8
Geo
100
AcDbLine
10
-57.8413173424312
20
14.4570678213543
30
0.00000000000000
11
-57.8389840090978
21
14.4558008078092
31
0.00000000000000
  0
LINE
  5
F101A8
330
F101A9
100
AcDbEntity
8
Geo
100
AcDbLine
10
-57.8389840090978
20
14.4558008078092
30
0.00000000000000
11
-57.8366506757645
21
14.4545379558138
31
0.00000000000000
  0
LINE
  5
F101AA
330
F101AB
100
AcDbEntity
8
Geo
100
AcDbLine
10
-57.8366506757645
20
14.4545379558138
30
0.00000000000000
11
-57.8343173424311
21
14.4532793672269
31
0.00000000000000
  0
LINE
  5
F101AC
330
F101AD
100
AcDbEntity
8
Geo
100
AcDbLine
10
-57.8343173424311
20
14.4532793672269
30
0.00000000000000
11
-57.8319840090978
21
14.4520251435637
31
0.00000000000000
  0
LINE
  5
F101AE
330
F101AF
100
AcDbEntity
8
Geo
100
AcDbLine
10
-57.8319840090978
20
14.4520251435637
30
0.00000000000000
11
-57.8296506757645
21
14.4507753859872
31
0.00000000000000
  0
LINE
  5
F101B0
330
F101B1
100
AcDbEntity
8
Geo
100
AcDbLine
10
-57.8296506757645
20
14.4507753859872
30
0.00000000000000
11
-57.8273173424312
21
14.4495301953003
31
0.00000000000000
  0
LINE
  5
F101B2
330
F101B3
100
AcDbEntity
8
Geo
100
AcDbLine
10
-57.8273173424312
20
14.4495301953003
30
0.00000000000000
11
-57.8249840090978
21
14.4482896719374
31
0.00000000000000
  0
LINE
  5
F101B4
330
F101B5
100
AcDbEntity
8
Geo
100
AcDbLine
10
-57.8249840090978
20
14.4482896719374
30
0.00000000000000
11
-57.8226506757645
21
14.4470539159565
31
0.00000000000000
  0
LINE
  5
F101B6
330
F101B7
100
AcDbEntity
8
Geo
100
AcDbLine
10
-57.8226506757645
20
14.4470539159565
30
0.00000000000000
11
-57.8203173424312
21
14.4458230270311
31
0.00000000000000
  0
LINE
  5
F101B8
330
F101B9
100
AcDbEntity
8
Geo
100
AcDbLine
10
-57.8203173424312
20
14.4458230270311
30
0.00000000000000
11
-57.8179840090978
21
14.4445971044420
31
0.00000000000000
  0
LINE
  5
F101BA
330
F101BB
100
AcDbEntity
8
Geo
100
AcDbLine
10
-57.8179840090978
20
14.4445971044420
30
0.00000000000000
11
-57.8156506757645
21
14.4433762470697
31
0.00000000000000
  0
LINE
  5
F101BC
330
F101BD
100
AcDbEntity
8
Geo
100
AcDbLine
10
-57.8156506757645
20
14.4433762470697
30
0.00000000000000
11
-57.8133173424312
21
14.4421605533858
31
0.00000000000000
  0
LINE
  5
F101BE
330
F101BF
100
AcDbEntity
8
Geo
100
AcDbLine
10
-57.8133173424312
20
14.4421605533858
30
0.00000000000000
11
-57.8109840090978
21
14.4409501214458
31
0.00000000000000
  0
LINE
  5
F101C0
330
F101C1
100
AcDbEntity
8
Geo
100
AcDbLine
10
-57.8109840090978
20
14.4409501214458
30
0.00000000000000
11
-57.8086506757645
21
14.4397450488805
31
0.00000000000000
  0
LINE
  5
F101C2
330
F101C3
100
AcDbEntity
8
Geo
100
AcDbLine
10
-57.8086506757645
20
14.4397450488805
30
0.00000000000000
11
-57.8063173424312
21
14.4385454328884
31
0.00000000000000
  0
LINE
  5
F101C4
330
F101C5
100
AcDbEntity
8
Geo
100
AcDbLine
10
-57.8063173424312
20
14.4385454328884
30
0.00000000000000
11
-57.8039840090978
21
14.4373513702282
31
0.00000000000000
  0
LINE
  5
F101C6
330
F101C7
100
AcDbEntity
8
Geo
100
AcDbLine
10
-57.8039840090978
20
14.4373513702282
30
0.00000000000000
11
-57.8016506757645
21
14.4361629572103
31
0.00000000000000
  0
LINE
  5
F101C8
330
F101C9
100
AcDbEntity
8
Geo
100
AcDbLine
10
-57.8016506757645
20
14.4361629572103
30
0.00000000000000
11
-57.7993173424312
21
14.4349802896898
31
0.00000000000000
  0
LINE
  5
F101CA
330
F101CB
100
AcDbEntity
8
Geo
100
AcDbLine
10
-57.7993173424312
20
14.4349802896898
30
0.00000000000000
11
-57.7969840090978
21
14.4338034630579
31
0.00000000000000
  0
LINE
  5
F101CC
330
F101CD
100
AcDbEntity
8
Geo
100
AcDbLine
10
-57.7969840090978
20
14.4338034630579
30
0.00000000000000
11
-57.7946506757645
21
14.4326325722352
31
0.00000000000000
  0
LINE
  5
F101CE
330
F101CF
100
AcDbEntity
8
Geo
100
AcDbLine
10
-57.7946506757645
20
14.4326325722352
30
0.00000000000000
11
-57.7923173424312
21
14.4314677116631
31
0.00000000000000
  0
LINE
  5
F101D0
330
F101D1
100
AcDbEntity
8
Geo
100
AcDbLine
10
-57.7923173424312
20
14.4314677116631
30
0.00000000000000
11
-57.7899840090978
21
14.4303089752970
31
0.00000000000000
  0
LINE
  5
F101D2
330
F101D3
100
AcDbEntity
8
Geo
100
AcDbLine
10
-57.7899840090978
20
14.4303089752970
30
0.00000000000000
11
-57.7876506757645
21
14.4291564565980
31
0.00000000000000
  0
LINE
  5
F101D4
330
F101D5
100
AcDbEntity
8
Geo
100
AcDbLine
10
-57.7876506757645
20
14.4291564565980
30
0.00000000000000
11
-57.7853173424312
21
14.4280102485258
31
0.00000000000000
  0
LINE
  5
F101D6
330
F101D7
100
AcDbEntity
8
Geo
100
AcDbLine
10
-57.7853173424312
20
14.4280102485258
30
0.00000000000000
11
-57.7829840090978
21
14.4268704435312
31
0.00000000000000
  0
LINE
  5
F101D8
330
F101D9
100
AcDbEntity
8
Geo
100
AcDbLine
10
-57.7829840090978
20
14.4268704435312
30
0.00000000000000
11
-57.7806506757645
21
14.4257371335485
31
0.00000000000000
  0
LINE
  5
F101DA
330
F101DB
100
AcDbEntity
8
Geo
100
AcDbLine
10
-57.7806506757645
20
14.4257371335485
30
0.00000000000000
11
-57.7783173424312
21
14.4246104099881
31
0.00000000000000
  0
LINE
  5
F101DC
330
F101DD
100
AcDbEntity
8
Geo
100
AcDbLine
10
-57.7783173424312
20
14.4246104099881
30
0.00000000000000
11
-57.7759840090978
21
14.4234903637290
31
0.00000000000000
  0
LINE
  5
F101DE
330
F101DF
100
AcDbEntity
8
Geo
100
AcDbLine
10
-57.7759840090978
20
14.4234903637290
30
0.00000000000000
11
-57.7736506757645
21
14.4223770851119
31
0.00000000000000
  0
LINE
  5
F101E0
330
F101E1
100
AcDbEntity
8
Geo
100
AcDbLine
10
-57.7736506757645
20
14.4223770851119
30
0.00000000000000
11
-57.7713173424312
21
14.4212706639315
31
0.00000000000000
  0
LINE
  5
F101E2
330
F101E3
100
AcDbEntity
8
Geo
100
AcDbLine
10
-57.7713173424312
20
14.4212706639315
30
0.00000000000000
11
-57.7689840090978
21
14.4201711894294
31
0.00000000000000
  0
LINE
  5
F101E4
330
F101E5
100
AcDbEntity
8
Geo
100
AcDbLine
10
-57.7689840090978
20
14.4201711894294
30
0.00000000000000
11
-57.7666506757645
21
14.4190787502869
31
0.00000000000000
  0
LINE
  5
F101E6
330
F101E7
100
AcDbEntity
8
Geo
100
AcDbLine
10
-57.7666506757645
20
14.4190787502869
30
0.00000000000000
11
-57.7643173424312
21
14.4179934346178
31
0.00000000000000
  0
LINE
  5
F101E8
330
F101E9
100
AcDbEntity
8
Geo
100
AcDbLine
10
-57.7643173424312
20
14.4179934346178
30
0.00000000000000
11
-57.7619840090978
21
14.4169153299614
31
0.00000000000000
  0
LINE
  5
F101EA
330
F101EB
100
AcDbEntity
8
Geo
100
AcDbLine
10
-57.7619840090978
20
14.4169153299614
30
0.00000000000000
11
-57.7596506757645
21
14.4158445232753
31
0.00000000000000
  0
LINE
  5
F101EC
330
F101ED
100
AcDbEntity
8
Geo
100
AcDbLine
10
-57.7596506757645
20
14.4158445232753
30
0.00000000000000
11
-57.7573173424312
21
14.4147811009287
31
0.00000000000000
  0
LINE
  5
F101EE
330
F101EF
100
AcDbEntity
8
Geo
100
AcDbLine
10
-57.7573173424312
20
14.4147811009287
30
0.00000000000000
11
-57.7549840090978
21
14.4137251486948
31
0.00000000000000
  0
LINE
  5
F101F0
330
F101F1
100
AcDbEntity
8
Geo
100
AcDbLine
10
-57.7549840090978
20
14.4137251486948
30
0.00000000000000
11
-57.7526506757645
21
14.4126767517445
31
0.00000000000000
  0
LINE
  5
F101F2
330
F101F3
100
AcDbEntity
8
Geo
100
AcDbLine
10
-57.7526506757645
20
14.4126767517445
30
0.00000000000000
11
-57.7503173424312
21
14.4116359946394
31
0.00000000000000
  0
LINE
  5
F101F4
330
F101F5
100
AcDbEntity
8
Geo
100
AcDbLine
10
-57.7503173424312
20
14.4116359946394
30
0.00000000000000
11
-57.7479840090978
21
14.4106029613247
31
0.00000000000000
  0
LINE
  5
F101F6
330
F101F7
100
AcDbEntity
8
Geo
100
AcDbLine
10
-57.7479840090978
20
14.4106029613247
30
0.00000000000000
11
-57.7456506757645
21
14.4095777351228
31
0.00000000000000
  0
LINE
  5
F101F8
330
F101F9
100
AcDbEntity
8
Geo
100
AcDbLine
10
-57.7456506757645
20
14.4095777351228
30
0.00000000000000
11
-57.7433173424312
21
14.4085603987261
31
0.00000000000000
  0
LINE
  5
F101FA
330
F101FB
100
AcDbEntity
8
Geo
100
AcDbLine
10
-57.7433173424312
20
14.4085603987261
30
0.00000000000000
11
-57.7409840090978
21
14.4075510341909
31
0.00000000000000
  0
LINE
  5
F101FC
330
F101FD
100
AcDbEntity
8
Geo
100
AcDbLine
10
-57.7409840090978
20
14.4075510341909
30
0.00000000000000
11
-57.7386506757645
21
14.4065497229305
31
0.00000000000000
  0
LINE
  5
F101FE
330
F101FF
100
AcDbEntity
8
Geo
100
AcDbLine
10
-58.3173173424312
20
14.5296433386584
30
0.00000000000000
11
-58.3173173424312
21
14.4309124633066
31
0.00000000000000
  0
LINE
  5
F10200
330
F10201
100
AcDbEntity
8
Geo
100
AcDbLine
10
-58.3173173424312
20
14.4309124633066
30
0.00000000000000
11
-58.3163052968437
21
14.4291713055857
31
0.00000000000000
  0
LINE
  5
F10202
330
F10203
100
AcDbEntity
8
Geo
100
AcDbLine
10
-58.3173173424312
20
14.4309124633066
30
0.00000000000000
11
-58.3173173424312
21
14.5296433386584
31
0.00000000000000
  0
LINE
  5
F10204
330
F10205
100
AcDbEntity
8
Geo
100
AcDbLine
10
-58.3173173424312
20
14.5296433386584
30
0.00000000000000
11
-58.3149840090978
21
14.5424584843680
31
0.00000000000000
  0
LINE
  5
F10206
330
F10207
100
AcDbEntity
8
Geo
100
AcDbLine
10
-58.3149840090978
20
14.5424584843680
30
0.00000000000000
11
-58.3126506757645
21
14.5505959210527
31
0.00000000000000
  0
LINE
  5
F10208
330
F10209
100
AcDbEntity
8
Geo
100
AcDbLine
10
-58.3126506757645
20
14.5505959210527
30
0.00000000000000
11
-58.3103173424312
21
14.5569204462999
31
0.00000000000000
  0
LINE
  5
F1020A
330
F1020B
100
AcDbEntity
8
Geo
100
AcDbLine
10
-58.3103173424312
20
14.5569204462999
30
0.00000000000000
11
-58.3079840090978
21
14.5621885142672
31
0.00000000000000
  0
LINE
  5
F1020C
330
F1020D
100
AcDbEntity
8
Geo
100
AcDbLine
10
-58.3079840090978
20
14.5621885142672
30
0.00000000000000
11
-58.3056506757645
21
14.5667364176810
31
0.00000000000000
  0
LINE
  5
F1020E
330
F1020F
100
AcDbEntity
8
Geo
100
AcDbLine
10
-58.3056506757645
20
14.5667364176810
30
0.00000000000000
11
-58.3033173424312
21
14.5707487704804
31
0.00000000000000
  0
LINE
  5
F10210
330
F10211
100
AcDbEntity
8
Geo
100
AcDbLine
10
-58.3033173424312
20
14.5707487704804
30
0.00000000000000
11
-58.3009840090978
21
14.5743399038596
31
0.00000000000000
  0
LINE
  5
F10212
330
F10213
100
AcDbEntity
8
Geo
100
AcDbLine
10
-58.3009840090978
20
14.5743399038596
30
0.00000000000000
11
-58.2986506757645
21
14.5775864493224
31
0.00000000000000
  0
LINE
  5
F10214
330
F10215
100
AcDbEntity
8
Geo
100
AcDbLine
10
-58.2986506757645
20
14.5775864493224
30
0.00000000000000
11
-58.2963173424312
21
14.5805427373880
31
0.00000000000000
  0
LINE
  5
F10216
330
F10217
100
AcDbEntity
8
Geo
100
AcDbLine
10
-58.2963173424312
20
14.5805427373880
30
0.00000000000000
11
-58.2939840090978
21
14.5832489426126
31
0.00000000000000
  0
LINE
  5
F10218
330
F10219
100
AcDbEntity
8
Geo
100
AcDbLine
10
-58.2939840090978
20
14.5832489426126
30
0.00000000000000
11
-58.2916506757645
21
14.5857357606734
31
0.00000000000000
  0
LINE
  5
F1021A
330
F1021B
100
AcDbEntity
8
Geo
100
AcDbLine
10
-58.2916506757645
20
14.5857357606734
30
0.00000000000000
11
-58.2893173424312
21
14.5880272682733
31
0.00000000000000
  0
LINE
  5
F1021C
330
F1021D
100
AcDbEntity
8
Geo
100
AcDbLine
10
-58.2893173424312
20
14.5880272682733
30
0.00000000000000
11
-58.2869840090978
21
14.5901427611110
31
0.00000000000000
  0
LINE
  5
F1021E
330
F1021F
100
AcDbEntity
8
Geo
100
AcDbLine
10
-58.2869840090978
20
14.5901427611110
30
0.00000000000000
11
-58.2846506757645
21
14.5920979838371
31
0.00000000000000
  0
LINE
  5
F10220
330
F10221
100
AcDbEntity
8
Geo
100
AcDbLine
10
-58.2846506757645
20
14.5920979838371
30
0.00000000000000
11
-58.2823173424312
21
14.5939059812134
31
0.00000000000000
  0
LINE
  5
F10222
330
F10223
100
AcDbEntity
8
Geo
100
AcDbLine
10
-58.2823173424312
20
14.5939059812134
30
0.00000000000000
11
-58.2799840090978
21
14.5955777040470
31
0.00000000000000
  0
LINE
  5
F10224
330
F10225
100
AcDbEntity
8
Geo
100
AcDbLine
10
-58.2799840090978
20
14.5955777040470
30
0.00000000000000
11
-58.2776506757645
21
14.5971224511162
31
0.00000000000000
  0
LINE
  5
F10226
330
F10227
100
AcDbEntity
8
Geo
100
AcDbLine
10
-58.2776506757645
20
14.5971224511162
30
0.00000000000000
11
-58.2753173424312
21
14.5985481983044
31
0.00000000000000
  0
LINE
  5
F10228
330
F10229
100
AcDbEntity
8
Geo
100
AcDbLine
10
-58.2753173424312
20
14.5985481983044
30
0.00000000000000
11
-58.2729840090978
21
14.5998618482572
31
0.00000000000000
  0
LINE
  5
F1022A
330
F1022B
100
AcDbEntity
8
Geo
100
AcDbLine
10
-58.2729840090978
20
14.5998618482572
30
0.00000000000000
11
-58.2706506757645
21
14.6010694228341
31
0.00000000000000
  0
LINE
  5
F1022C
330
F1022D
100
AcDbEntity
8
Geo
100
AcDbLine
10
-58.2706506757645
20
14.6010694228341
30
0.00000000000000
11
-58.2683173424312
21
14.6021762136040
31
0.00000000000000
  0
LINE
  5
F1022E
330
F1022F
100
AcDbEntity
8
Geo
100
AcDbLine
10
-58.2683173424312
20
14.6021762136040
30
0.00000000000000
11
-58.2659840090978
21
14.6031869010483
31
0.00000000000000
  0
LINE
  5
F10230
330
F10231
100
AcDbEntity
8
Geo
100
AcDbLine
10
-58.2659840090978
20
14.6031869010483
30
0.00000000000000
11
-58.2636506757645
21
14.6041056500717
31
0.00000000000000
  0
LINE
  5
F10232
330
F10233
100
AcDbEntity
8
Geo
100
AcDbLine
10
-58.2636506757645
20
14.6041056500717
30
0.00000000000000
11
-58.2613173424312
21
14.6049361873309
31
0.00000000000000
  0
LINE
  5
F10234
330
F10235
100
AcDbEntity
8
Geo
100
AcDbLine
10
-58.2613173424312
20
14.6049361873309
30
0.00000000000000
11
-58.2589840090978
21
14.6056818644362
31
0.00000000000000
  0
LINE
  5
F10236
330
F10237
100
AcDbEntity
8
Geo
100
AcDbLine
10
-58.2589840090978
20
14.6056818644362
30
0.00000000000000
11
-58.2566506757645
21
14.6063457100537
31
0.00000000000000
  0
LINE
  5
F10238
330
F10239
100
AcDbEntity
8
Geo
100
AcDbLine
10
-58.2566506757645
20
14.6063457100537
30
0.00000000000000
11
-58.2543173424312
21
14.6069304731979
31
0.00000000000000
  0
LINE
  5
F1023A
330
F1023B
100
AcDbEntity
8
Geo
100
AcDbLine
10
-58.2543173424312
20
14.6069304731979
30
0.00000000000000
11
-58.2519840090978
21
14.6074386594638
31
0.00000000000000
  0
LINE
  5
F1023C
330
F1023D
100
AcDbEntity
8
Geo
100
AcDbLine
10
-58.2519840090978
20
14.6074386594638
30
0.00000000000000
11
-58.2496506757645
21
14.6078725615542
31
0.00000000000000
  0
LINE
  5
F1023E
330
F1023F
100
AcDbEntity
8
Geo
100
AcDbLine
10
-58.2496506757645
20
14.6078725615542
30
0.00000000000000
11
-58.2473173424312
21
14.6082342851562
31
0.00000000000000
  0
LINE
  5
F10240
330
F10241
100
AcDbEntity
8
Geo
100
AcDbLine
10
-58.2473173424312
20
14.6082342851562
30
0.00000000000000
11
-58.2449840090978
21
14.6085257710021
31
0.00000000000000
  0
LINE
  5
F10242
330
F10243
100
AcDbEntity
8
Geo
100
AcDbLine
10
-58.2449840090978
20
14.6085257710021
30
0.00000000000000
11
-58.2426506757645
21
14.6087488137752
31
0.00000000000000
  0
LINE
  5
F10244
330
F10245
100
AcDbEntity
8
Geo
100
AcDbLine
10
-58.2426506757645
20
14.6087488137752
30
0.00000000000000
11
-58.2403173424312
21
14.6089050783897
31
0.00000000000000
  0
LINE
  5
F10246
330
F10247
100
AcDbEntity
8
Geo
100
AcDbLine
10
-58.2403173424312
20
14.6089050783897
30
0.00000000000000
11
-58.2379840090978
21
14.6089961140737
31
0.00000000000000
  0
LINE
  5
F10248
330
F10249
100
AcDbEntity
8
Geo
100
AcDbLine
10
-58.2379840090978
20
14.6089961140737
30
0.00000000000000
11
-58.2356506757645
21
14.6090233666012
31
0.00000000000000
  0
LINE
  5
F1024A
330
F1024B
100
AcDbEntity
8
Geo
100
AcDbLine
10
-58.2356506757645
20
14.6090233666012
30
0.00000000000000
11
-58.2333173424312
21
14.6089881889581
31
0.00000000000000
  0
LINE
  5
F1024C
330
F1024D
100
AcDbEntity
8
Geo
100
AcDbLine
10
-58.2333173424312
20
14.6089881889581
30
0.00000000000000
11
-58.2309840090978
21
14.6088918506743
31
0.00000000000000
  0
LINE
  5
F1024E
330
F1024F
100
AcDbEntity
8
Geo
100
AcDbLine
10
-58.2309840090978
20
14.6088918506743
30
0.00000000000000
11
-58.2286506757645
21
14.6087355460161
31
0.00000000000000
  0
LINE
  5
F10250
330
F10251
100
AcDbEntity
8
Geo
100
AcDbLine
10
-58.2286506757645
20
14.6087355460161
30
0.00000000000000
11
-58.2263173424312
21
14.6085204011987
31
0.00000000000000
  0
LINE
  5
F10252
330
F10253
100
AcDbEntity
8
Geo
100
AcDbLine
10
-58.2263173424312
20
14.6085204011987
30
0.00000000000000
11
-58.2239840090978
21
14.6082474807533
31
0.00000000000000
  0
LINE
  5
F10254
330
F10255
100
AcDbEntity
8
Geo
100
AcDbLine
10
-58.2239840090978
20
14.6082474807533
30
0.00000000000000
11
-58.2216506757645
21
14.6079177931599
31
0.00000000000000
  0
LINE
  5
F10256
330
F10257
100
AcDbEntity
8
Geo
100
AcDbLine
10
-58.2216506757645
20
14.6079177931599
30
0.00000000000000
11
-58.2193173424312
21
14.6075322958430
31
0.00000000000000
  0
LINE
  5
F10258
330
F10259
100
AcDbEntity
8
Geo
100
AcDbLine
10
-58.2193173424312
20
14.6075322958430
30
0.00000000000000
11
-58.2169840090978
21
14.6070918996070
31
0.00000000000000
  0
LINE
  5
F1025A
330
F1025B
100
AcDbEntity
8
Geo
100
AcDbLine
10
-58.2169840090978
20
14.6070918996070
30
0.00000000000000
11
-58.2146506757645
21
14.6065974725828
31
0.00000000000000
  0
LINE
  5
F1025C
330
F1025D
100
AcDbEntity
8
Geo
100
AcDbLine
10
-58.2146506757645
20
14.6065974725828
30
0.00000000000000
11
-58.2123173424312
21
14.6060498437397
31
0.00000000000000
  0
LINE
  5
F1025E
330
F1025F
100
AcDbEntity
8
Geo
100
AcDbLine
10
-58.2123173424312
20
14.6060498437397
30
0.00000000000000
11
-58.2099840090978
21
14.6054498060157
31
0.00000000000000
  0
LINE
  5
F10260
330
F10261
100
AcDbEntity
8
Geo
100
AcDbLine
10
-58.2099840090978
20
14.6054498060157
30
0.00000000000000
11
-58.2076506757645
21
14.6047981191050
31
0.00000000000000
  0
LINE
  5
F10262
330
F10263
100
AcDbEntity
8
Geo
100
AcDbLine
10
-58.2076506757645
20
14.6047981191050
30
0.00000000000000
11
-58.2053173424312
21
14.6040955119411
31
0.00000000000000
  0
LINE
  5
F10264
330
F10265
100
AcDbEntity
8
Geo
100
AcDbLine
10
-58.2053173424312
20
14.6040955119411
30
0.00000000000000
11
-58.2029840090978
21
14.6033426849056
31
0.00000000000000
  0
LINE
  5
F10266
330
F10267
100
AcDbEntity
8
Geo
100
AcDbLine
10
-58.2029840090978
20
14.6033426849056
30
0.00000000000000
11
-58.2006506757645
21
14.6025403117888
31
0.00000000000000
  0
LINE
  5
F10268
330
F10269
100
AcDbEntity
8
Geo
100
AcDbLine
10
-58.2006506757645
20
14.6025403117888
30
0.00000000000000
11
-58.1983173424312
21
14.6016890415259
31
0.00000000000000
  0
LINE
  5
F1026A
330
F1026B
100
AcDbEntity
8
Geo
100
AcDbLine
10
-58.1983173424312
20
14.6016890415259
30
0.00000000000000
11
-58.1959840090978
21
14.6007894997266
31
0.00000000000000
  0
LINE
  5
F1026C
330
F1026D
100
AcDbEntity
8
Geo
100
AcDbLine
10
-58.1959840090978
20
14.6007894997266
30
0.00000000000000
11
-58.1936506757645
21
14.5998422900160
31
0.00000000000000
  0
LINE
  5
F1026E
330
F1026F
100
AcDbEntity
8
Geo
100
AcDbLine
10
-58.1936506757645
20
14.5998422900160
30
0.00000000000000
11
-58.1913173424312
21
14.5988479952002
31
0.00000000000000
  0
LINE
  5
F10270
330
F10271
100
AcDbEntity
8
Geo
100
AcDbLine
10
-58.1913173424312
20
14.5988479952002
30
0.00000000000000
11
-58.1889840090978
21
14.5978071782673
31
0.00000000000000
  0
LINE
  5
F10272
330
F10273
100
AcDbEntity
8
Geo
100
AcDbLine
10
-58.1889840090978
20
14.5978071782673
30
0.00000000000000
11
-58.1866506757645
21
14.5967301924618
31
0.00000000000000
  0
LINE
  5
F10274
330
F10275
100
AcDbEntity
8
Geo
100
AcDbLine
10
-58.1866506757645
20
14.5967301924618
30
0.00000000000000
11
-58.1843173424312
21
14.5956444256667
31
0.00000000000000
  0
LINE
  5
F10276
330
F10277
100
AcDbEntity
8
Geo
100
AcDbLine
10
-58.1843173424312
20
14.5956444256667
30
0.00000000000000
11
-58.1819840090978
21
14.5945515409294
31
0.00000000000000
  0
LINE
  5
F10278
330
F10279
100
AcDbEntity
8
Geo
100
AcDbLine
10
-58.1819840090978
20
14.5945515409294
30
0.00000000000000
11
-58.1796506757645
21
14.5934516263997
31
0.00000000000000
  0
LINE
  5
F1027A
330
F1027B
100
AcDbEntity
8
Geo
100
AcDbLine
10
-58.1796506757645
20
14.5934516263997
30
0.00000000000000
11
-58.1773173424312
21
14.5923447707946
31
0.00000000000000
  0
LINE
  5
F1027C
330
F1027D
100
AcDbEntity
8
Geo
100
AcDbLine
10
-58.1773173424312
20
14.5923447707946
30
0.00000000000000
11
-58.1749840090978
21
14.5912310633905
31
0.00000000000000
  0
LINE
  5
F1027E
330
F1027F
100
AcDbEntity
8
Geo
100
AcDbLine
10
-58.1749840090978
20
14.5912310633905
30
0.00000000000000
11
-58.1726506757645
21
14.5901105940168
31
0.00000000000000
  0
LINE
  5
F10280
330
F10281
100
AcDbEntity
8
Geo
100
AcDbLine
10
-58.1726506757645
20
14.5901105940168
30
0.00000000000000
11
-58.1703173424312
21
14.5889834530483
31
0.00000000000000
  0
LINE
  5
F10282
330
F10283
100
AcDbEntity
8
Geo
100
AcDbLine
10
-58.1703173424312
20
14.5889834530483
30
0.00000000000000
11
-58.1679840090978
21
14.5878497313976
31
0.00000000000000
  0
LINE
  5
F10284
330
F10285
100
AcDbEntity
8
Geo
100
AcDbLine
10
-58.1679840090978
20
14.5878497313976
30
0.00000000000000
11
-58.1656506757645
21
14.5867095205084
31
0.00000000000000
  0
LINE
  5
F10286
330
F10287
100
AcDbEntity
8
Geo
100
AcDbLine
10
-58.1656506757645
20
14.5867095205084
30
0.00000000000000
11
-58.1633173424312
21
14.5855629123478
31
0.00000000000000
  0
LINE
  5
F10288
330
F10289
100
AcDbEntity
8
Geo
100
AcDbLine
10
-58.1633173424312
20
14.5855629123478
30
0.00000000000000
11
-58.1609840090978
21
14.5844099993987
31
0.00000000000000
  0
LINE
  5
F1028A
330
F1028B
100
AcDbEntity
8
Geo
100
AcDbLine
10
-58.1609840090978
20
14.5844099993987
30
0.00000000000000
11
-58.1586506757645
21
14.5832508746526
31
0.00000000000000
  0
LINE
  5
F1028C
330
F1028D
100
AcDbEntity
8
Geo
100
AcDbLine
10
-58.1586506757645
20
14.5832508746526
30
0.00000000000000
11
-58.1563173424312
21
14.5820856316021
31
0.00000000000000
  0
LINE
  5
F1028E
330
F1028F
100
AcDbEntity
8
Geo
100
AcDbLine
10
-58.1563173424312
20
14.5820856316021
30
0.00000000000000
11
-58.1539840090978
21
14.5809143642333
31
0.00000000000000
  0
LINE
  5
F10290
330
F10291
100
AcDbEntity
8
Geo
100
AcDbLine
10
-58.1539840090978
20
14.5809143642333
30
0.00000000000000
11
-58.1516506757645
21
14.5797371670181
31
0.00000000000000
  0
LINE
  5
F10292
330
F10293
100
AcDbEntity
8
Geo
100
AcDbLine
10
-58.1516506757645
20
14.5797371670181
30
0.00000000000000
11
-58.1493173424312
21
14.5785541349068
31
0.00000000000000
  0
LINE
  5
F10294
330
F10295
100
AcDbEntity
8
Geo
100
AcDbLine
10
-58.1493173424312
20
14.5785541349068
30
0.00000000000000
11
-58.1469840090978
21
14.5773653633203
31
0.00000000000000
  0
LINE
  5
F10296
330
F10297
100
AcDbEntity
8
Geo
100
AcDbLine
10
-58.1469840090978
20
14.5773653633203
30
0.00000000000000
11
-58.1446506757645
21
14.5761709481422
31
0.00000000000000
  0
LINE
  5
F10298
330
F10299
100
AcDbEntity
8
Geo
100
AcDbLine
10
-58.1446506757645
20
14.5761709481422
30
0.00000000000000
11
-58.1423173424312
21
14.5749709857118
31
0.00000000000000
  0
LINE
  5
F1029A
330
F1029B
100
AcDbEntity
8
Geo
100
AcDbLine
10
-58.1423173424312
20
14.5749709857118
30
0.00000000000000
11
-58.1399840090978
21
14.5737655728154
31
0.00000000000000
  0
LINE
  5
F1029C
330
F1029D
100
AcDbEntity
8
Geo
100
AcDbLine
10
-58.1399840090978
20
14.5737655728154
30
0.00000000000000
11
-58.1376506757645
21
14.5725548066791
31
0.00000000000000
  0
LINE
  5
F1029E
330
F1029F
100
AcDbEntity
8
Geo
100
AcDbLine
10
-58.1376506757645
20
14.5725548066791
30
0.00000000000000
11
-58.1353173424312
21
14.5713387849606
31
0.00000000000000
  0
LINE
  5
F102A0
330
F102A1
100
AcDbEntity
8
Geo
100
AcDbLine
10
-58.1353173424312
20
14.5713387849606
30
0.00000000000000
11
-58.1329840090978
21
14.5701176057419
31
0.00000000000000
  0
LINE
  5
F102A2
330
F102A3
100
AcDbEntity
8
Geo
100
AcDbLine
10
-58.1329840090978
20
14.5701176057419
30
0.00000000000000
11
-58.1306506757645
21
14.5688913675206
31
0.00000000000000
  0
LINE
  5
F102A4
330
F102A5
100
AcDbEntity
8
Geo
100
AcDbLine
10
-58.1306506757645
20
14.5688913675206
30
0.00000000000000
11
-58.1283173424312
21
14.5676601692025
31
0.00000000000000
  0
LINE
  5
F102A6
330
F102A7
100
AcDbEntity
8
Geo
100
AcDbLine
10
-58.1283173424312
20
14.5676601692025
30
0.00000000000000
11
-58.1259840090978
21
14.5664241100935
31
0.00000000000000
  0
LINE
  5
F102A8
330
F102A9
100
AcDbEntity
8
Geo
100
AcDbLine
10
-58.1259840090978
20
14.5664241100935
30
0.00000000000000
11
-58.1236506757645
21
14.5651832898915
31
0.00000000000000
  0
LINE
  5
F102AA
330
F102AB
100
AcDbEntity
8
Geo
100
AcDbLine
10
-58.1236506757645
20
14.5651832898915
30
0.00000000000000
11
-58.1213173424312
21
14.5639378086784
31
0.00000000000000
  0
LINE
  5
F102AC
330
F102AD
100
AcDbEntity
8
Geo
100
AcDbLine
10
-58.1213173424312
20
14.5639378086784
30
0.00000000000000
11
-58.1189840090978
21
14.5626877669122
31
0.00000000000000
  0
LINE
  5
F102AE
330
F102AF
100
AcDbEntity
8
Geo
100
AcDbLine
10
-58.1189840090978
20
14.5626877669122
30
0.00000000000000
11
-58.1166506757645
21
14.5614332654186
31
0.00000000000000
  0
LINE
  5
F102B0
330
F102B1
100
AcDbEntity
8
Geo
100
AcDbLine
10
-58.1166506757645
20
14.5614332654186
30
0.00000000000000
11
-58.1143173424312
21
14.5601744053829
31
0.00000000000000
  0
LINE
  5
F102B2
330
F102B3
100
AcDbEntity
8
Geo
100
AcDbLine
10
-58.1143173424312
20
14.5601744053829
30
0.00000000000000
11
-58.1119840090978
21
14.5589112883423
31
0.00000000000000
  0
LINE
  5
F102B4
330
F102B5
100
AcDbEntity
8
Geo
100
AcDbLine
10
-58.1119840090978
20
14.5589112883423
30
0.00000000000000
11
-58.1096506757645
21
14.5576440161771
31
0.00000000000000
  0
LINE
  5
F102B6
330
F102B7
100
AcDbEntity
8
Geo
100
AcDbLine
10
-58.1096506757645
20
14.5576440161771
30
0.00000000000000
11
-58.1073173424312
21
14.5563726911028
31
0.00000000000000
  0
LINE
  5
F102B8
330
F102B9
100
AcDbEntity
8
Geo
100
AcDbLine
10
-58.1073173424312
20
14.5563726911028
30
0.00000000000000
11
-58.1049840090978
21
14.5550974156618
31
0.00000000000000
  0
LINE
  5
F102BA
330
F102BB
100
AcDbEntity
8
Geo
100
AcDbLine
10
-58.1049840090978
20
14.5550974156618
30
0.00000000000000
11
-58.1026506757645
21
14.5538182927151
31
0.00000000000000
  0
LINE
  5
F102BC
330
F102BD
100
AcDbEntity
8
Geo
100
AcDbLine
10
-58.1026506757645
20
14.5538182927151
30
0.00000000000000
11
-58.1003173424312
21
14.5525354254340
31
0.00000000000000
  0
LINE
  5
F102BE
330
F102BF
100
AcDbEntity
8
Geo
100
AcDbLine
10
-58.1003173424312
20
14.5525354254340
30
0.00000000000000
11
-58.0979840090978
21
14.5512489172921
31
0.00000000000000
  0
LINE
  5
F102C0
330
F102C1
100
AcDbEntity
8
Geo
100
AcDbLine
10
-58.0979840090978
20
14.5512489172921
30
0.00000000000000
11
-58.0956506757645
21
14.5499588720562
31
0.00000000000000
  0
LINE
  5
F102C2
330
F102C3
100
AcDbEntity
8
Geo
100
AcDbLine
10
-58.0956506757645
20
14.5499588720562
30
0.00000000000000
11
-58.0933173424312
21
14.5486653937788
31
0.00000000000000
  0
LINE
  5
F102C4
330
F102C5
100
AcDbEntity
8
Geo
100
AcDbLine
10
-58.0933173424312
20
14.5486653937788
30
0.00000000000000
11
-58.0909840090978
21
14.5473685867890
31
0.00000000000000
  0
LINE
  5
F102C6
330
F102C7
100
AcDbEntity
8
Geo
100
AcDbLine
10
-58.0909840090978
20
14.5473685867890
30
0.00000000000000
11
-58.0886506757645
21
14.5460685556846
31
0.00000000000000
  0
LINE
  5
F102C8
330
F102C9
100
AcDbEntity
8
Geo
100
AcDbLine
10
-58.0886506757645
20
14.5460685556846
30
0.00000000000000
11
-58.0863173424312
21
14.5447654053234
31
0.00000000000000
  0
LINE
  5
F102CA
330
F102CB
100
AcDbEntity
8
Geo
100
AcDbLine
10
-58.0863173424312
20
14.5447654053234
30
0.00000000000000
11
-58.0839840090978
21
14.5434592408146
31
0.00000000000000
  0
LINE
  5
F102CC
330
F102CD
100
AcDbEntity
8
Geo
100
AcDbLine
10
-58.0839840090978
20
14.5434592408146
30
0.00000000000000
11
-58.0816506757645
21
14.5421501675109
31
0.00000000000000
  0
LINE
  5
F102CE
330
F102CF
100
AcDbEntity
8
Geo
100
AcDbLine
10
-58.0816506757645
20
14.5421501675109
30
0.00000000000000
11
-58.0793173424312
21
14.5408382909993
31
0.00000000000000
  0
LINE
  5
F102D0
330
F102D1
100
AcDbEntity
8
Geo
100
AcDbLine
10
-58.0793173424312
20
14.5408382909993
30
0.00000000000000
11
-58.0769840090978
21
14.5395237170930
31
0.00000000000000
  0
LINE
  5
F102D2
330
F102D3
100
AcDbEntity
8
Geo
100
AcDbLine
10
-58.0769840090978
20
14.5395237170930
30
0.00000000000000
11
-58.0746506757645
21
14.5382065518227
31
0.00000000000000
  0
LINE
  5
F102D4
330
F102D5
100
AcDbEntity
8
Geo
100
AcDbLine
10
-58.0746506757645
20
14.5382065518227
30
0.00000000000000
11
-58.0723173424312
21
14.5368869014282
31
0.00000000000000
  0
LINE
  5
F102D6
330
F102D7
100
AcDbEntity
8
Geo
100
AcDbLine
10
-58.0723173424312
20
14.5368869014282
30
0.00000000000000
11
-58.0699840090978
21
14.5355648723498
31
0.00000000000000
  0
LINE
  5
F102D8
330
F102D9
100
AcDbEntity
8
Geo
100
AcDbLine
10
-58.0699840090978
20
14.5355648723498
30
0.00000000000000
11
-58.0676506757645
21
14.5342405712195
31
0.00000000000000
  0
LINE
  5
F102DA
330
F102DB
100
AcDbEntity
8
Geo
100
AcDbLine
10
-58.0676506757645
20
14.5342405712195
30
0.00000000000000
11
-58.0653173424312
21
14.5329141048527
31
0.00000000000000
  0
LINE
  5
F102DC
330
F102DD
100
AcDbEntity
8
Geo
100
AcDbLine
10
-58.0653173424312
20
14.5329141048527
30
0.00000000000000
11
-58.0629840090978
21
14.5315855802394
31
0.00000000000000
  0
LINE
  5
F102DE
330
F102DF
100
AcDbEntity
8
Geo
100
AcDbLine
10
-58.0629840090978
20
14.5315855802394
30
0.00000000000000
11
-58.0606506757645
21
14.5302551045355
31
0.00000000000000
  0
LINE
  5
F102E0
330
F102E1
100
AcDbEntity
8
Geo
100
AcDbLine
10
-58.0606506757645
20
14.5302551045355
30
0.00000000000000
11
-58.0583173424312
21
14.5289227850544
31
0.00000000000000
  0
LINE
  5
F102E2
330
F102E3
100
AcDbEntity
8
Geo
100
AcDbLine
10
-58.0583173424312
20
14.5289227850544
30
0.00000000000000
11
-58.0559840090978
21
14.5275887292583
31
0.00000000000000
  0
LINE
  5
F102E4
330
F102E5
100
AcDbEntity
8
Geo
100
AcDbLine
10
-58.0559840090978
20
14.5275887292583
30
0.00000000000000
11
-58.0536506757645
21
14.5262530447492
31
0.00000000000000
  0
LINE
  5
F102E6
330
F102E7
100
AcDbEntity
8
Geo
100
AcDbLine
10
-58.0536506757645
20
14.5262530447492
30
0.00000000000000
11
-58.0513173424312
21
14.5249158392606
31
0.00000000000000
  0
LINE
  5
F102E8
330
F102E9
100
AcDbEntity
8
Geo
100
AcDbLine
10
-58.0513173424312
20
14.5249158392606
30
0.00000000000000
11
-58.0489840090978
21
14.5235772206487
31
0.00000000000000
  0
LINE
  5
F102EA
330
F102EB
100
AcDbEntity
8
Geo
100
AcDbLine
10
-58.0489840090978
20
14.5235772206487
30
0.00000000000000
11
-58.0466506757645
21
14.5222372968837
31
0.00000000000000
  0
LINE
  5
F102EC
330
F102ED
100
AcDbEntity
8
Geo
100
AcDbLine
10
-58.0466506757645
20
14.5222372968837
30
0.00000000000000
11
-58.0443173424312
21
14.5208961760410
31
0.00000000000000
  0
LINE
  5
F102EE
330
F102EF
100
AcDbEntity
8
Geo
100
AcDbLine
10
-58.0443173424312
20
14.5208961760410
30
0.00000000000000
11
-58.0419840090978
21
14.5195539662926
31
0.00000000000000
  0
LINE
  5
F102F0
330
F102F1
100
AcDbEntity
8
Geo
100
AcDbLine
10
-58.0419840090978
20
14.5195539662926
30
0.00000000000000
11
-58.0396506757645
21
14.5182107758983
31
0.00000000000000
  0
LINE
  5
F102F2
330
F102F3
100
AcDbEntity
8
Geo
100
AcDbLine
10
-58.0396506757645
20
14.5182107758983
30
0.00000000000000
11
-58.0373173424312
21
14.5168667131970
31
0.00000000000000
  0
LINE
  5
F102F4
330
F102F5
100
AcDbEntity
8
Geo
100
AcDbLine
10
-58.0373173424312
20
14.5168667131970
30
0.00000000000000
11
-58.0349840090978
21
14.5155218865980
31
0.00000000000000
  0
LINE
  5
F102F6
330
F102F7
100
AcDbEntity
8
Geo
100
AcDbLine
10
-58.0349840090978
20
14.5155218865980
30
0.00000000000000
11
-58.0326506757645
21
14.5141764045721
31
0.00000000000000
  0
LINE
  5
F102F8
330
F102F9
100
AcDbEntity
8
Geo
100
AcDbLine
10
-58.0326506757645
20
14.5141764045721
30
0.00000000000000
11
-58.0303173424312
21
14.5128303756431
31
0.00000000000000
  0
LINE
  5
F102FA
330
F102FB
100
AcDbEntity
8
Geo
100
AcDbLine
10
-58.0303173424312
20
14.5128303756431
30
0.00000000000000
11
-58.0279840090978
21
14.5114839083789
31
0.00000000000000
  0
LINE
  5
F102FC
330
F102FD
100
AcDbEntity
8
Geo
100
AcDbLine
10
-58.0279840090978
20
14.5114839083789
30
0.00000000000000
11
-58.0256506757645
21
14.5101371113826
31
0.00000000000000
  0
LINE
  5
F102FE
330
F102FF
100
AcDbEntity
8
Geo
100
AcDbLine
10
-58.0256506757645
20
14.5101371113826
30
0.00000000000000
11
-58.0233173424312
21
14.5087900932842
31
0.00000000000000
  0
LINE
  5
F10300
330
F10301
100
AcDbEntity
8
Geo
100
AcDbLine
10
-58.0233173424312
20
14.5087900932842
30
0.00000000000000
11
-58.0209840090978
21
14.5074429627311
31
0.00000000000000
  0
LINE
  5
F10302
330
F10303
100
AcDbEntity
8
Geo
100
AcDbLine
10
-58.0209840090978
20
14.5074429627311
30
0.00000000000000
11
-58.0186506757645
21
14.5060958283802
31
0.00000000000000
  0
LINE
  5
F10304
330
F10305
100
AcDbEntity
8
Geo
100
AcDbLine
10
-58.0186506757645
20
14.5060958283802
30
0.00000000000000
11
-58.0163173424312
21
14.5047487988885
31
0.00000000000000
  0
LINE
  5
F10306
330
F10307
100
AcDbEntity
8
Geo
100
AcDbLine
10
-58.0163173424312
20
14.5047487988885
30
0.00000000000000
11
-58.0139840090978
21
14.5034019829045
31
0.00000000000000
  0
LINE
  5
F10308
330
F10309
100
AcDbEntity
8
Geo
100
AcDbLine
10
-58.0139840090978
20
14.5034019829045
30
0.00000000000000
11
-58.0116506757645
21
14.5020554890595
31
0.00000000000000
  0
LINE
  5
F1030A
330
F1030B
100
AcDbEntity
8
Geo
100
AcDbLine
10
-58.0116506757645
20
14.5020554890595
30
0.00000000000000
11
-58.0093173424312
21
14.5007094259590
31
0.00000000000000
  0
LINE
  5
F1030C
330
F1030D
100
AcDbEntity
8
Geo
100
AcDbLine
10
-58.0093173424312
20
14.5007094259590
30
0.00000000000000
11
-58.0069840090978
21
14.4993639021735
31
0.00000000000000
  0
LINE
  5
F1030E
330
F1030F
100
AcDbEntity
8
Geo
100
AcDbLine
10
-58.0069840090978
20
14.4993639021735
30
0.00000000000000
11
-58.0046506757645
21
14.4980190262301
31
0.00000000000000
  0
LINE
  5
F10310
330
F10311
100
AcDbEntity
8
Geo
100
AcDbLine
10
-58.0046506757645
20
14.4980190262301
30
0.00000000000000
11
-58.0023173424312
21
14.4966749066038
31
0.00000000000000
  0
LINE
  5
F10312
330
F10313
100
AcDbEntity
8
Geo
100
AcDbLine
10
-58.0023173424312
20
14.4966749066038
30
0.00000000000000
11
-57.9999840090978
21
14.4953316517083
31
0.00000000000000
  0
LINE
  5
F10314
330
F10315
100
AcDbEntity
8
Geo
100
AcDbLine
10
-57.9999840090978
20
14.4953316517083
30
0.00000000000000
11
-57.9976506757645
21
14.4939893698879
31
0.00000000000000
  0
LINE
  5
F10316
330
F10317
100
AcDbEntity
8
Geo
100
AcDbLine
10
-57.9976506757645
20
14.4939893698879
30
0.00000000000000
11
-57.9953173424312
21
14.4926481694080
31
0.00000000000000
  0
LINE
  5
F10318
330
F10319
100
AcDbEntity
8
Geo
100
AcDbLine
10
-57.9953173424312
20
14.4926481694080
30
0.00000000000000
11
-57.9929840090978
21
14.4913081584471
31
0.00000000000000
  0
LINE
  5
F1031A
330
F1031B
100
AcDbEntity
8
Geo
100
AcDbLine
10
-57.9929840090978
20
14.4913081584471
30
0.00000000000000
11
-57.9906506757645
21
14.4899694450877
31
0.00000000000000
  0
LINE
  5
F1031C
330
F1031D
100
AcDbEntity
8
Geo
100
AcDbLine
10
-57.9906506757645
20
14.4899694450877
30
0.00000000000000
11
-57.9883173424312
21
14.4886321373076
31
0.00000000000000
  0
LINE
  5
F1031E
330
F1031F
100
AcDbEntity
8
Geo
100
AcDbLine
10
-57.9883173424312
20
14.4886321373076
30
0.00000000000000
11
-57.9859840090978
21
14.4872963429712
31
0.00000000000000
  0
LINE
  5
F10320
330
F10321
100
AcDbEntity
8
Geo
100
AcDbLine
10
-57.9859840090978
20
14.4872963429712
30
0.00000000000000
11
-57.9836506757645
21
14.4859621698208
31
0.00000000000000
  0
LINE
  5
F10322
330
F10323
100
AcDbEntity
8
Geo
100
AcDbLine
10
-57.9836506757645
20
14.4859621698208
30
0.00000000000000
11
-57.9813173424312
21
14.4846297254681
31
0.00000000000000
  0
LINE
  5
F10324
330
F10325
100
AcDbEntity
8
Geo
100
AcDbLine
10
-57.9813173424312
20
14.4846297254681
30
0.00000000000000
11
-57.9789840090978
21
14.4832991173852
31
0.00000000000000
  0
LINE
  5
F10326
330
F10327
100
AcDbEntity
8
Geo
100
AcDbLine
10
-57.9789840090978
20
14.4832991173852
30
0.00000000000000
11
-57.9766506757645
21
14.4819704528962
31
0.00000000000000
  0
LINE
  5
F10328
330
F10329
100
AcDbEntity
8
Geo
100
AcDbLine
10
-57.9766506757645
20
14.4819704528962
30
0.00000000000000
11
-57.9743173424312
21
14.4806438391683
31
0.00000000000000
  0
LINE
  5
F1032A
330
F1032B
100
AcDbEntity
8
Geo
100
AcDbLine
10
-57.9743173424312
20
14.4806438391683
30
0.00000000000000
11
-57.9719840090978
21
14.4793193832035
31
0.00000000000000
  0
LINE
  5
F1032C
330
F1032D
100
AcDbEntity
8
Geo
100
AcDbLine
10
-57.9719840090978
20
14.4793193832035
30
0.00000000000000
11
-57.9696506757645
21
14.4779971918294
31
0.00000000000000
  0
LINE
  5
F1032E
330
F1032F
100
AcDbEntity
8
Geo
100
AcDbLine
10
-57.9696506757645
20
14.4779971918294
30
0.00000000000000
11
-57.9673173424312
21
14.4766773716914
31
0.00000000000000
  0
LINE
  5
F10330
330
F10331
100
AcDbEntity
8
Geo
100
AcDbLine
10
-57.9673173424312
20
14.4766773716914
30
0.00000000000000
11
-57.9649840090978
21
14.4753600292433
31
0.00000000000000
  0
LINE
  5
F10332
330
F10333
100
AcDbEntity
8
Geo
100
AcDbLine
10
-57.9649840090978
20
14.4753600292433
30
0.00000000000000
11
-57.9626506757645
21
14.4740452707392
31
0.00000000000000
  0
LINE
  5
F10334
330
F10335
100
AcDbEntity
8
Geo
100
AcDbLine
10
-57.9626506757645
20
14.4740452707392
30
0.00000000000000
11
-57.9603173424312
21
14.4727332022247
31
0.00000000000000
  0
LINE
  5
F10336
330
F10337
100
AcDbEntity
8
Geo
100
AcDbLine
10
-57.9603173424312
20
14.4727332022247
30
0.00000000000000
11
-57.9579840090978
21
14.4714239295286
31
0.00000000000000
  0
LINE
  5
F10338
330
F10339
100
AcDbEntity
8
Geo
100
AcDbLine
10
-57.9579840090978
20
14.4714239295286
30
0.00000000000000
11
-57.9556506757645
21
14.4701175582539
31
0.00000000000000
  0
LINE
  5
F1033A
330
F1033B
100
AcDbEntity
8
Geo
100
AcDbLine
10
-57.9556506757645
20
14.4701175582539
30
0.00000000000000
11
-57.9533173424312
21
14.4688141937700
31
0.00000000000000
  0
LINE
  5
F1033C
330
F1033D
100
AcDbEntity
8
Geo
100
AcDbLine
10
-57.9533173424312
20
14.4688141937700
30
0.00000000000000
11
-57.9509840090978
21
14.4675139412033
31
0.00000000000000
  0
LINE
  5
F1033E
330
F1033F
100
AcDbEntity
8
Geo
100
AcDbLine
10
-57.9509840090978
20
14.4675139412033
30
0.00000000000000
11
-57.9486506757645
21
14.4662169054295
31
0.00000000000000
  0
LINE
  5
F10340
330
F10341
100
AcDbEntity
8
Geo
100
AcDbLine
10
-57.9486506757645
20
14.4662169054295
30
0.00000000000000
11
-57.9463173424312
21
14.4649231910649
31
0.00000000000000
  0
LINE
  5
F10342
330
F10343
100
AcDbEntity
8
Geo
100
AcDbLine
10
-57.9463173424312
20
14.4649231910649
30
0.00000000000000
11
-57.9439840090978
21
14.4636329024576
31
0.00000000000000
  0
LINE
  5
F10344
330
F10345
100
AcDbEntity
8
Geo
100
AcDbLine
10
-57.9439840090978
20
14.4636329024576
30
0.00000000000000
11
-57.9416506757645
21
14.4623461436796
31
0.00000000000000
  0
LINE
  5
F10346
330
F10347
100
AcDbEntity
8
Geo
100
AcDbLine
10
-57.9416506757645
20
14.4623461436796
30
0.00000000000000
11
-57.9393173424312
21
14.4610630185183
31
0.00000000000000
  0
LINE
  5
F10348
330
F10349
100
AcDbEntity
8
Geo
100
AcDbLine
10
-57.9393173424312
20
14.4610630185183
30
0.00000000000000
11
-57.9369840090978
21
14.4597836304677
31
0.00000000000000
  0
LINE
  5
F1034A
330
F1034B
100
AcDbEntity
8
Geo
100
AcDbLine
10
-57.9369840090978
20
14.4597836304677
30
0.00000000000000
11
-57.9346506757645
21
14.4585080827206
31
0.00000000000000
  0
LINE
  5
F1034C
330
F1034D
100
AcDbEntity
8
Geo
100
AcDbLine
10
-57.9346506757645
20
14.4585080827206
30
0.00000000000000
11
-57.9323173424312
21
14.4572364781601
31
0.00000000000000
  0
LINE
  5
F1034E
330
F1034F
100
AcDbEntity
8
Geo
100
AcDbLine
10
-57.9323173424312
20
14.4572364781601
30
0.00000000000000
11
-57.9299840090978
21
14.4559689193510
31
0.00000000000000
  0
LINE
  5
F10350
330
F10351
100
AcDbEntity
8
Geo
100
AcDbLine
10
-57.9299840090978
20
14.4559689193510
30
0.00000000000000
11
-57.9276506757645
21
14.4547055085320
31
0.00000000000000
  0
LINE
  5
F10352
330
F10353
100
AcDbEntity
8
Geo
100
AcDbLine
10
-57.9276506757645
20
14.4547055085320
30
0.00000000000000
11
-57.9253173424311
21
14.4534463476071
31
0.00000000000000
  0
LINE
  5
F10354
330
F10355
100
AcDbEntity
8
Geo
100
AcDbLine
10
-57.9253173424311
20
14.4534463476071
30
0.00000000000000
11
-57.9229840090978
21
14.4521915381376
31
0.00000000000000
  0
LINE
  5
F10356
330
F10357
100
AcDbEntity
8
Geo
100
AcDbLine
10
-57.9229840090978
20
14.4521915381376
30
0.00000000000000
11
-57.9206506757645
21
14.4509411813338
31
0.00000000000000
  0
LINE
  5
F10358
330
F10359
100
AcDbEntity
8
Geo
100
AcDbLine
10
-57.9206506757645
20
14.4509411813338
30
0.00000000000000
11
-57.9183173424312
21
14.4496953780468
31
0.00000000000000
  0
LINE
  5
F1035A
330
F1035B
100
AcDbEntity
8
Geo
100
AcDbLine
10
-57.9183173424312
20
14.4496953780468
30
0.00000000000000
11
-57.9159840090978
21
14.4484542287606
31
0.00000000000000
  0
LINE
  5
F1035C
330
F1035D
100
AcDbEntity
8
Geo
100
AcDbLine
10
-57.9159840090978
20
14.4484542287606
30
0.00000000000000
11
-57.9136506757645
21
14.4472178335835
31
0.00000000000000
  0
LINE
  5
F1035E
330
F1035F
100
AcDbEntity
8
Geo
100
AcDbLine
10
-57.9136506757645
20
14.4472178335835
30
0.00000000000000
11
-57.9113173424312
21
14.4459862922407
31
0.00000000000000
  0
LINE
  5
F10360
330
F10361
100
AcDbEntity
8
Geo
100
AcDbLine
10
-57.9113173424312
20
14.4459862922407
30
0.00000000000000
11
-57.9089840090978
21
14.4447597040656
31
0.00000000000000
  0
LINE
  5
F10362
330
F10363
100
AcDbEntity
8
Geo
100
AcDbLine
10
-57.9089840090978
20
14.4447597040656
30
0.00000000000000
11
-57.9066506757645
21
14.4435381679923
31
0.00000000000000
  0
LINE
  5
F10364
330
F10365
100
AcDbEntity
8
Geo
100
AcDbLine
10
-57.9066506757645
20
14.4435381679923
30
0.00000000000000
11
-57.9043173424312
21
14.4423217825473
31
0.00000000000000
  0
LINE
  5
F10366
330
F10367
100
AcDbEntity
8
Geo
100
AcDbLine
10
-57.9043173424312
20
14.4423217825473
30
0.00000000000000
11
-57.9019840090978
21
14.4411106458417
31
0.00000000000000
  0
LINE
  5
F10368
330
F10369
100
AcDbEntity
8
Geo
100
AcDbLine
10
-57.9019840090978
20
14.4411106458417
30
0.00000000000000
11
-57.8996506757645
21
14.4399048555632
31
0.00000000000000
  0
LINE
  5
F1036A
330
F1036B
100
AcDbEntity
8
Geo
100
AcDbLine
10
-57.8996506757645
20
14.4399048555632
30
0.00000000000000
11
-57.8973173424312
21
14.4387045089684
31
0.00000000000000
  0
LINE
  5
F1036C
330
F1036D
100
AcDbEntity
8
Geo
100
AcDbLine
10
-57.8973173424312
20
14.4387045089684
30
0.00000000000000
11
-57.8949840090978
21
14.4375097028746
31
0.00000000000000
  0
LINE
  5
F1036E
330
F1036F
100
AcDbEntity
8
Geo
100
AcDbLine
10
-57.8949840090978
20
14.4375097028746
30
0.00000000000000
11
-57.8926506757645
21
14.4363205336524
31
0.00000000000000
  0
LINE
  5
F10370
330
F10371
100
AcDbEntity
8
Geo
100
AcDbLine
10
-57.8926506757645
20
14.4363205336524
30
0.00000000000000
11
-57.8903173424312
21
14.4351370972177
31
0.00000000000000
  0
LINE
  5
F10372
330
F10373
100
AcDbEntity
8
Geo
100
AcDbLine
10
-57.8903173424312
20
14.4351370972177
30
0.00000000000000
11
-57.8879840090978
21
14.4339594890240
31
0.00000000000000
  0
LINE
  5
F10374
330
F10375
100
AcDbEntity
8
Geo
100
AcDbLine
10
-57.8879840090978
20
14.4339594890240
30
0.00000000000000
11
-57.8856506757645
21
14.4327878040547
31
0.00000000000000
  0
LINE
  5
F10376
330
F10377
100
AcDbEntity
8
Geo
100
AcDbLine
10
-57.8856506757645
20
14.4327878040547
30
0.00000000000000
11
-57.8833173424312
21
14.4316221368154
31
0.00000000000000
  0
LINE
  5
F10378
330
F10379
100
AcDbEntity
8
Geo
100
AcDbLine
10
-57.8833173424312
20
14.4316221368154
30
0.00000000000000
11
-57.8809840090978
21
14.4304625813264
31
0.00000000000000
  0
LINE
  5
F1037A
330
F1037B
100
AcDbEntity
8
Geo
100
AcDbLine
10
-57.8809840090978
20
14.4304625813264
30
0.00000000000000
11
-57.8786506757645
21
14.4293092311150
31
0.00000000000000
  0
LINE
  5
F1037C
330
F1037D
100
AcDbEntity
8
Geo
100
AcDbLine
10
-57.8786506757645
20
14.4293092311150
30
0.00000000000000
11
-57.8763173424312
21
14.4281621792079
31
0.00000000000000
  0
LINE
  5
F1037E
330
F1037F
100
AcDbEntity
8
Geo
100
AcDbLine
10
-57.8763173424312
20
14.4281621792079
30
0.00000000000000
11
-57.8739840090978
21
14.4270215181240
31
0.00000000000000
  0
LINE
  5
F10380
330
F10381
100
AcDbEntity
8
Geo
100
AcDbLine
10
-57.8739840090978
20
14.4270215181240
30
0.00000000000000
11
-57.8716506757645
21
14.4258873398667
31
0.00000000000000
  0
LINE
  5
F10382
330
F10383
100
AcDbEntity
8
Geo
100
AcDbLine
10
-57.8716506757645
20
14.4258873398667
30
0.00000000000000
11
-57.8693173424312
21
14.4247597359162
31
0.00000000000000
  0
LINE
  5
F10384
330
F10385
100
AcDbEntity
8
Geo
100
AcDbLine
10
-57.8693173424312
20
14.4247597359162
30
0.00000000000000
11
-57.8669840090978
21
14.4236387972229
31
0.00000000000000
  0
LINE
  5
F10386
330
F10387
100
AcDbEntity
8
Geo
100
AcDbLine
10
-57.8669840090978
20
14.4236387972229
30
0.00000000000000
11
-57.8646506757645
21
14.4225246141992
31
0.00000000000000
  0
LINE
  5
F10388
330
F10389
100
AcDbEntity
8
Geo
100
AcDbLine
10
-57.8646506757645
20
14.4225246141992
30
0.00000000000000
11
-57.8623173424312
21
14.4214172767128
31
0.00000000000000
  0
LINE
  5
F1038A
330
F1038B
100
AcDbEntity
8
Geo
100
AcDbLine
10
-57.8623173424312
20
14.4214172767128
30
0.00000000000000
11
-57.8599840090978
21
14.4203168740792
31
0.00000000000000
  0
LINE
  5
F1038C
330
F1038D
100
AcDbEntity
8
Geo
100
AcDbLine
10
-57.8599840090978
20
14.4203168740792
30
0.00000000000000
11
-57.8576506757645
21
14.4192234950545
31
0.00000000000000
  0
LINE
  5
F1038E
330
F1038F
100
AcDbEntity
8
Geo
100
AcDbLine
10
-57.8576506757645
20
14.4192234950545
30
0.00000000000000
11
-57.8553173424311
21
14.4181372278285
31
0.00000000000000
  0
LINE
  5
F10390
330
F10391
100
AcDbEntity
8
Geo
100
AcDbLine
10
-57.8553173424311
20
14.4181372278285
30
0.00000000000000
11
-57.8529840090978
21
14.4170581600171
31
0.00000000000000
  0
LINE
  5
F10392
330
F10393
100
AcDbEntity
8
Geo
100
AcDbLine
10
-57.8529840090978
20
14.4170581600171
30
0.00000000000000
11
-57.8506506757645
21
14.4159863786558
31
0.00000000000000
  0
LINE
  5
F10394
330
F10395
100
AcDbEntity
8
Geo
100
AcDbLine
10
-57.8506506757645
20
14.4159863786558
30
0.00000000000000
11
-57.8483173424312
21
14.4149219701920
31
0.00000000000000
  0
LINE
  5
F10396
330
F10397
100
AcDbEntity
8
Geo
100
AcDbLine
10
-57.8483173424312
20
14.4149219701920
30
0.00000000000000
11
-57.8459840090978
21
14.4138650204788
31
0.00000000000000
  0
LINE
  5
F10398
330
F10399
100
AcDbEntity
8
Geo
100
AcDbLine
10
-57.8459840090978
20
14.4138650204788
30
0.00000000000000
11
-57.8436506757645
21
14.4128156147674
31
0.00000000000000
  0
LINE
  5
F1039A
330
F1039B
100
AcDbEntity
8
Geo
100
AcDbLine
10
-57.8436506757645
20
14.4128156147674
30
0.00000000000000
11
-57.8413173424312
21
14.4117738377009
31
0.00000000000000
  0
LINE
  5
F1039C
330
F1039D
100
AcDbEntity
8
Geo
100
AcDbLine
10
-57.8413173424312
20
14.4117738377009
30
0.00000000000000
11
-57.8389840090978
21
14.4107397733066
31
0.00000000000000
  0
LINE
  5
F1039E
330
F1039F
100
AcDbEntity
8
Geo
100
AcDbLine
10
-57.8389840090978
20
14.4107397733066
30
0.00000000000000
11
-57.8366506757645
21
14.4097135049900
31
0.00000000000000
  0
LINE
  5
F103A0
330
F103A1
100
AcDbEntity
8
Geo
100
AcDbLine
10
-57.8366506757645
20
14.4097135049900
30
0.00000000000000
11
-57.8343173424311
21
14.4086951155279
31
0.00000000000000
  0
LINE
  5
F103A2
330
F103A3
100
AcDbEntity
8
Geo
100
AcDbLine
10
-57.8343173424311
20
14.4086951155279
30
0.00000000000000
11
-57.8319840090978
21
14.4076846870613
31
0.00000000000000
  0
LINE
  5
F103A4
330
F103A5
100
AcDbEntity
8
Geo
100
AcDbLine
10
-57.8319840090978
20
14.4076846870613
30
0.00000000000000
11
-57.8296506757645
21
14.4066823010892
31
0.00000000000000
  0
LINE
  5
F103A6
330
F103A7
100
AcDbEntity
8
Geo
100
AcDbLine
10
-57.8296506757645
20
14.4066823010892
30
0.00000000000000
11
-57.8273173424312
21
14.4056880384621
31
0.00000000000000
  0
LINE
  5
F103A8
330
F103A9
100
AcDbEntity
8
Geo
100
AcDbLine
10
-57.8273173424312
20
14.4056880384621
30
0.00000000000000
11
-57.8249840090978
21
14.4047019793750
31
0.00000000000000
  0
LINE
  5
F103AA
330
F103AB
100
AcDbEntity
8
Geo
100
AcDbLine
10
-57.8249840090978
20
14.4047019793750
30
0.00000000000000
11
-57.8226506757645
21
14.4037242033614
31
0.00000000000000
  0
LINE
  5
F103AC
330
F103AD
100
AcDbEntity
8
Geo
100
AcDbLine
10
-57.8226506757645
20
14.4037242033614
30
0.00000000000000
11
-57.8203173424312
21
14.4027547892867
31
0.00000000000000
  0
LINE
  5
F103AE
330
F103AF
100
AcDbEntity
8
Geo
100
AcDbLine
10
-57.8203173424312
20
14.4027547892867
30
0.00000000000000
11
-57.8179840090978
21
14.4017938153416
31
0.00000000000000
  0
LINE
  5
F103B0
330
F103B1
100
AcDbEntity
8
Geo
100
AcDbLine
10
-57.8179840090978
20
14.4017938153416
30
0.00000000000000
11
-57.8156506757645
21
14.4008413590365
31
0.00000000000000
  0
LINE
  5
F103B2
330
F103B3
100
AcDbEntity
8
Geo
100
AcDbLine
10
-57.8156506757645
20
14.4008413590365
30
0.00000000000000
11
-57.8133173424312
21
14.3998974971944
31
0.00000000000000
  0
LINE
  5
F103B4
330
F103B5
100
AcDbEntity
8
Geo
100
AcDbLine
10
-57.8133173424312
20
14.3998974971944
30
0.00000000000000
11
-57.8109840090978
21
14.3989623059452
31
0.00000000000000
  0
LINE
  5
F103B6
330
F103B7
100
AcDbEntity
8
Geo
100
AcDbLine
10
-57.8109840090978
20
14.3989623059452
30
0.00000000000000
11
-57.8086506757645
21
14.3980358607194
31
0.00000000000000
  0
LINE
  5
F103B8
330
F103B9
100
AcDbEntity
8
Geo
100
AcDbLine
10
-57.8086506757645
20
14.3980358607194
30
0.00000000000000
11
-57.8063173424312
21
14.3971182362422
31
0.00000000000000
  0
LINE
  5
F103BA
330
F103BB
100
AcDbEntity
8
Geo
100
AcDbLine
10
-57.8063173424312
20
14.3971182362422
30
0.00000000000000
11
-57.8039840090978
21
14.3962095065273
31
0.00000000000000
  0
LINE
  5
F103BC
330
F103BD
100
AcDbEntity
8
Geo
100
AcDbLine
10
-57.8039840090978
20
14.3962095065273
30
0.00000000000000
11
-57.8016506757645
21
14.3953097448708
31
0.00000000000000
  0
LINE
  5
F103BE
330
F103BF
100
AcDbEntity
8
Geo
100
AcDbLine
10
-57.8016506757645
20
14.3953097448708
30
0.00000000000000
11
-57.7993173424312
21
14.3944190238457
31
0.00000000000000
  0
LINE
  5
F103C0
330
F103C1
100
AcDbEntity
8
Geo
100
AcDbLine
10
-57.7993173424312
20
14.3944190238457
30
0.00000000000000
11
-57.7969840090978
21
14.3935374152956
31
0.00000000000000
  0
LINE
  5
F103C2
330
F103C3
100
AcDbEntity
8
Geo
100
AcDbLine
10
-57.7969840090978
20
14.3935374152956
30
0.00000000000000
11
-57.7946506757645
21
14.3926649903292
31
0.00000000000000
  0
LINE
  5
F103C4
330
F103C5
100
AcDbEntity
8
Geo
100
AcDbLine
10
-57.7946506757645
20
14.3926649903292
30
0.00000000000000
11
-57.7923173424312
21
14.3918018193145
31
0.00000000000000
  0
LINE
  5
F103C6
330
F103C7
100
AcDbEntity
8
Geo
100
AcDbLine
10
-57.7923173424312
20
14.3918018193145
30
0.00000000000000
11
-57.7899840090978
21
14.3909479718730
31
0.00000000000000
  0
LINE
  5
F103C8
330
F103C9
100
AcDbEntity
8
Geo
100
AcDbLine
10
-57.7899840090978
20
14.3909479718730
30
0.00000000000000
11
-57.7876506757645
21
14.3901035168743
31
0.00000000000000
  0
LINE
  5
F103CA
330
F103CB
100
AcDbEntity
8
Geo
100
AcDbLine
10
-57.7876506757645
20
14.3901035168743
30
0.00000000000000
11
-57.7853173424312
21
14.3892685224304
31
0.00000000000000
  0
LINE
  5
F103CC
330
F103CD
100
AcDbEntity
8
Geo
100
AcDbLine
10
-57.7853173424312
20
14.3892685224304
30
0.00000000000000
11
-57.7829840090978
21
14.3884430558901
31
0.00000000000000
  0
LINE
  5
F103CE
330
F103CF
100
AcDbEntity
8
Geo
100
AcDbLine
10
-57.7829840090978
20
14.3884430558901
30
0.00000000000000
11
-57.7806506757645
21
14.3876271838337
31
0.00000000000000
  0
LINE
  5
F103D0
330
F103D1
100
AcDbEntity
8
Geo
100
AcDbLine
10
-57.7806506757645
20
14.3876271838337
30
0.00000000000000
11
-57.7783173424312
21
14.3868209720680
31
0.00000000000000
  0
LINE
  5
F103D2
330
F103D3
100
AcDbEntity
8
Geo
100
AcDbLine
10
-57.7783173424312
20
14.3868209720680
30
0.00000000000000
11
-57.7759840090978
21
14.3860244856201
31
0.00000000000000
  0
LINE
  5
F103D4
330
F103D5
100
AcDbEntity
8
Geo
100
AcDbLine
10
-57.7759840090978
20
14.3860244856201
30
0.00000000000000
11
-57.7736506757645
21
14.3852377887330
31
0.00000000000000
  0
LINE
  5
F103D6
330
F103D7
100
AcDbEntity
8
Geo
100
AcDbLine
10
-57.7736506757645
20
14.3852377887330
30
0.00000000000000
11
-57.7713173424312
21
14.3844609448600
31
0.00000000000000
  0
LINE
  5
F103D8
330
F103D9
100
AcDbEntity
8
Geo
100
AcDbLine
10
-57.7713173424312
20
14.3844609448600
30
0.00000000000000
11
-57.7689840090978
21
14.3836940166598
31
0.00000000000000
  0
LINE
  5
F103DA
330
F103DB
100
AcDbEntity
8
Geo
100
AcDbLine
10
-57.7689840090978
20
14.3836940166598
30
0.00000000000000
11
-57.7666506757645
21
14.3829370659911
31
0.00000000000000
  0
LINE
  5
F103DC
330
F103DD
100
AcDbEntity
8
Geo
100
AcDbLine
10
-57.7666506757645
20
14.3829370659911
30
0.00000000000000
11
-57.7643173424312
21
14.3821901539079
31
0.00000000000000
  0
LINE
  5
F103DE
330
F103DF
100
AcDbEntity
8
Geo
100
AcDbLine
10
-57.7643173424312
20
14.3821901539079
30
0.00000000000000
11
-57.7619840090978
21
14.3814533406546
31
0.00000000000000
  0
LINE
  5
F103E0
330
F103E1
100
AcDbEntity
8
Geo
100
AcDbLine
10
-57.7619840090978
20
14.3814533406546
30
0.00000000000000
11
-57.7596506757645
21
14.3807266856611
31
0.00000000000000
  0
LINE
  5
F103E2
330
F103E3
100
AcDbEntity
8
Geo
100
AcDbLine
10
-57.7596506757645
20
14.3807266856611
30
0.00000000000000
11
-57.7573173424312
21
14.3800102475378
31
0.00000000000000
  0
LINE
  5
F103E4
330
F103E5
100
AcDbEntity
8
Geo
100
AcDbLine
10
-57.7573173424312
20
14.3800102475378
30
0.00000000000000
11
-57.7549840090978
21
14.3793040840711
31
0.00000000000000
  0
LINE
  5
F103E6
330
F103E7
100
AcDbEntity
8
Geo
100
AcDbLine
10
-57.7549840090978
20
14.3793040840711
30
0.00000000000000
11
-57.7526506757645
21
14.3786082522186
31
0.00000000000000
  0
LINE
  5
F103E8
330
F103E9
100
AcDbEntity
8
Geo
100
AcDbLine
10
-57.7526506757645
20
14.3786082522186
30
0.00000000000000
11
-57.7503173424312
21
14.3779228081047
31
0.00000000000000
  0
LINE
  5
F103EA
330
F103EB
100
AcDbEntity
8
Geo
100
AcDbLine
10
-57.7503173424312
20
14.3779228081047
30
0.00000000000000
11
-57.7479840090978
21
14.3772478070158
31
0.00000000000000
  0
LINE
  5
F103EC
330
F103ED
100
AcDbEntity
8
Geo
100
AcDbLine
10
-57.7479840090978
20
14.3772478070158
30
0.00000000000000
11
-57.7456506757645
21
14.3765833033962
31
0.00000000000000
  0
LINE
  5
F103EE
330
F103EF
100
AcDbEntity
8
Geo
100
AcDbLine
10
-57.7456506757645
20
14.3765833033962
30
0.00000000000000
11
-57.7433173424312
21
14.3759293508432
31
0.00000000000000
  0
LINE
  5
F103F0
330
F103F1
100
AcDbEntity
8
Geo
100
AcDbLine
10
-57.7433173424312
20
14.3759293508432
30
0.00000000000000
11
-57.7409840090978
21
14.3752860021033
31
0.00000000000000
  0
LINE
  5
F103F2
330
F103F3
100
AcDbEntity
8
Geo
100
AcDbLine
10
-57.7409840090978
20
14.3752860021033
30
0.00000000000000
11
-57.7386506757645
21
14.3746533090677
31
0.00000000000000
  0
LINE
  5
F103F4
330
F103F5
100
AcDbEntity
8
Geo
100
AcDbLine
10
-57.7386506757645
20
14.4065497229305
30
0.00000000000000
11
-57.7363173424312
21
14.4053569258883
31
0.00000000000000
  0
LINE
  5
F103F6
330
F103F7
100
AcDbEntity
8
Geo
100
AcDbLine
10
-57.7363173424312
20
14.4053569258883
30
0.00000000000000
11
-57.7339840090978
21
14.4040048120320
31
0.00000000000000
  0
LINE
  5
F103F8
330
F103F9
100
AcDbEntity
8
Geo
100
AcDbLine
10
-57.7339840090978
20
14.4040048120320
30
0.00000000000000
11
-57.7316506757645
21
14.4026518099087
31
0.00000000000000
  0
LINE
  5
F103FA
330
F103FB
100
AcDbEntity
8
Geo
100
AcDbLine
10
-57.7316506757645
20
14.4026518099087
30
0.00000000000000
11
-57.7293173424312
21
14.4012980885665
31
0.00000000000000
  0
LINE
  5
F103FC
330
F103FD
100
AcDbEntity
8
Geo
100
AcDbLine
10
-57.7293173424312
20
14.4012980885665
30
0.00000000000000
11
-57.7269840090978
21
14.3999438178293
31
0.00000000000000
  0
LINE
  5
F103FE
330
F103FF
100
AcDbEntity
8
Geo
100
AcDbLine
10
-57.7269840090978
20
14.3999438178293
30
0.00000000000000
11
-57.7246506757645
21
14.3985891682818
31
0.00000000000000
  0
LINE
  5
F10400
330
F10401
100
AcDbEntity
8
Geo
100
AcDbLine
10
-57.7246506757645
20
14.3985891682818
30
0.00000000000000
11
-57.7223173424312
21
14.3972343112639
31
0.00000000000000
  0
LINE
  5
F10402
330
F10403
100
AcDbEntity
8
Geo
100
AcDbLine
10
-57.7223173424312
20
14.3972343112639
30
0.00000000000000
11
-57.7199840090978
21
14.3958794189004
31
0.00000000000000
  0
LINE
  5
F10404
330
F10405
100
AcDbEntity
8
Geo
100
AcDbLine
10
-57.7199840090978
20
14.3958794189004
30
0.00000000000000
11
-57.7176506757645
21
14.3945246642291
31
0.00000000000000
  0
LINE
  5
F10406
330
F10407
100
AcDbEntity
8
Geo
100
AcDbLine
10
-57.7176506757645
20
14.3945246642291
30
0.00000000000000
11
-57.7153173424312
21
14.3931702215665
31
0.00000000000000
  0
LINE
  5
F10408
330
F10409
100
AcDbEntity
8
Geo
100
AcDbLine
10
-57.7153173424312
20
14.3931702215665
30
0.00000000000000
11
-57.7129840090978
21
14.3918162673886
31
0.00000000000000
  0
LINE
  5
F1040A
330
F1040B
100
AcDbEntity
8
Geo
100
AcDbLine
10
-57.7129840090978
20
14.3918162673886
30
0.00000000000000
11
-57.7106506757645
21
14.3904629822314
31
0.00000000000000
  0
LINE
  5
F1040C
330
F1040D
100
AcDbEntity
8
Geo
100
AcDbLine
10
-57.7106506757645
20
14.3904629822314
30
0.00000000000000
11
-57.7083173424312
21
14.3891105544747
31
0.00000000000000
  0
LINE
  5
F1040E
330
F1040F
100
AcDbEntity
8
Geo
100
AcDbLine
10
-57.7083173424312
20
14.3891105544747
30
0.00000000000000
11
-57.7059840090978
21
14.3877591874035
31
0.00000000000000
  0
LINE
  5
F10410
330
F10411
100
AcDbEntity
8
Geo
100
AcDbLine
10
-57.7059840090978
20
14.3877591874035
30
0.00000000000000
11
-57.7036506757645
21
14.3864091117059
31
0.00000000000000
  0
LINE
  5
F10412
330
F10413
100
AcDbEntity
8
Geo
100
AcDbLine
10
-57.7036506757645
20
14.3864091117059
30
0.00000000000000
11
-57.7013173424312
21
14.3850606066216
31
0.00000000000000
  0
LINE
  5
F10414
330
F10415
100
AcDbEntity
8
Geo
100
AcDbLine
10
-57.7013173424312
20
14.3850606066216
30
0.00000000000000
11
-57.6989840090978
21
14.3837140343740
31
0.00000000000000
  0
LINE
  5
F10416
330
F10417
100
AcDbEntity
8
Geo
100
AcDbLine
10
-57.6989840090978
20
14.3837140343740
30
0.00000000000000
11
-57.6966506757645
21
14.3823698943823
31
0.00000000000000
  0
LINE
  5
F10418
330
F10419
100
AcDbEntity
8
Geo
100
AcDbLine
10
-57.6966506757645
20
14.3823698943823
30
0.00000000000000
11
-57.6943173424312
21
14.3810289061476
31
0.00000000000000
  0
LINE
  5
F1041A
330
F1041B
100
AcDbEntity
8
Geo
100
AcDbLine
10
-57.6943173424312
20
14.3810289061476
30
0.00000000000000
11
-57.6919840090978
21
14.3796921327355
31
0.00000000000000
  0
LINE
  5
F1041C
330
F1041D
100
AcDbEntity
8
Geo
100
AcDbLine
10
-57.6919840090978
20
14.3796921327355
30
0.00000000000000
11
-57.6896506757645
21
14.3783611605703
31
0.00000000000000
  0
LINE
  5
F1041E
330
F1041F
100
AcDbEntity
8
Geo
100
AcDbLine
10
-57.6896506757645
20
14.3783611605703
30
0.00000000000000
11
-57.6873173424312
21
14.3770383559748
31
0.00000000000000
  0
LINE
  5
F10420
330
F10421
100
AcDbEntity
8
Geo
100
AcDbLine
10
-57.6873173424312
20
14.3770383559748
30
0.00000000000000
11
-57.6849840090978
21
14.3757272248028
31
0.00000000000000
  0
LINE
  5
F10422
330
F10423
100
AcDbEntity
8
Geo
100
AcDbLine
10
-57.6849840090978
20
14.3757272248028
30
0.00000000000000
11
-57.6826506757645
21
14.3744329090697
31
0.00000000000000
  0
LINE
  5
F10424
330
F10425
100
AcDbEntity
8
Geo
100
AcDbLine
10
-57.6826506757645
20
14.3744329090697
30
0.00000000000000
11
-57.6803173424312
21
14.3731628645061
31
0.00000000000000
  0
LINE
  5
F10426
330
F10427
100
AcDbEntity
8
Geo
100
AcDbLine
10
-57.6803173424312
20
14.3731628645061
30
0.00000000000000
11
-57.6779840090978
21
14.3719277769987
31
0.00000000000000
  0
LINE
  5
F10428
330
F10429
100
AcDbEntity
8
Geo
100
AcDbLine
10
-57.6779840090978
20
14.3719277769987
30
0.00000000000000
11
-57.6756506757645
21
14.3707427968018
31
0.00000000000000
  0
LINE
  5
F1042A
330
F1042B
100
AcDbEntity
8
Geo
100
AcDbLine
10
-57.6756506757645
20
14.3707427968018
30
0.00000000000000
11
-57.6733173424312
21
14.3696292024837
31
0.00000000000000
  0
LINE
  5
F1042C
330
F1042D
100
AcDbEntity
8
Geo
100
AcDbLine
10
-57.6733173424312
20
14.3696292024837
30
0.00000000000000
11
-57.6709840090978
21
14.3686166612715
31
0.00000000000000
  0
LINE
  5
F1042E
330
F1042F
100
AcDbEntity
8
Geo
100
AcDbLine
10
-57.6709840090978
20
14.3686166612715
30
0.00000000000000
11
-57.6686506757645
21
14.3677463452400
31
0.00000000000000
  0
LINE
  5
F10430
330
F10431
100
AcDbEntity
8
Geo
100
AcDbLine
10
-57.6686506757645
20
14.3677463452400
30
0.00000000000000
11
-57.6663173424312
21
14.3670753214994
31
0.00000000000000
  0
LINE
  5
F10432
330
F10433
100
AcDbEntity
8
Geo
100
AcDbLine
10
-57.6663173424312
20
14.3670753214994
30
0.00000000000000
11
-57.6639840090978
21
14.3666829044448
31
0.00000000000000
  0
LINE
  5
F10434
330
F10435
100
AcDbEntity
8
Geo
100
AcDbLine
10
-57.6639840090978
20
14.3666829044448
30
0.00000000000000
11
-57.6616506757645
21
14.3666801093625
31
0.00000000000000
  0
LINE
  5
F10436
330
F10437
100
AcDbEntity
8
Geo
100
AcDbLine
10
-57.6616506757645
20
14.3666801093625
30
0.00000000000000
11
-57.6593173424312
21
14.3672240801439
31
0.00000000000000
  0
LINE
  5
F10438
330
F10439
100
AcDbEntity
8
Geo
100
AcDbLine
10
-57.6593173424312
20
14.3672240801439
30
0.00000000000000
11
-57.6569840090978
21
14.3685405062168
31
0.00000000000000
  0
LINE
  5
F1043A
330
F1043B
100
AcDbEntity
8
Geo
100
AcDbLine
10
-57.6569840090978
20
14.3685405062168
30
0.00000000000000
11
-57.6546506757645
21
14.3709587043510
31
0.00000000000000
  0
LINE
  5
F1043C
330
F1043D
100
AcDbEntity
8
Geo
100
AcDbLine
10
-57.6546506757645
20
14.3709587043510
30
0.00000000000000
11
-57.6523173424312
21
14.3749661576809
31
0.00000000000000
  0
LINE
  5
F1043E
330
F1043F
100
AcDbEntity
8
Geo
100
AcDbLine
10
-57.6523173424312
20
14.3749661576809
30
0.00000000000000
11
-57.6499840090978
21
14.3812911929122
31
0.00000000000000
  0
LINE
  5
F10440
330
F10441
100
AcDbEntity
8
Geo
100
AcDbLine
10
-57.6499840090978
20
14.3812911929122
30
0.00000000000000
11
-57.6476506757645
21
14.3910216320094
31
0.00000000000000
  0
LINE
  5
F10442
330
F10443
100
AcDbEntity
8
Geo
100
AcDbLine
10
-57.6476506757645
20
14.3910216320094
30
0.00000000000000
11
-57.6453173424312
21
14.4057563863313
31
0.00000000000000
  0
LINE
  5
F10444
330
F10445
100
AcDbEntity
8
Geo
100
AcDbLine
10
-57.6453173424312
20
14.4057563863313
30
0.00000000000000
11
-57.6429840090978
21
14.4277472955144
31
0.00000000000000
  0
LINE
  5
F10446
330
F10447
100
AcDbEntity
8
Geo
100
AcDbLine
10
-57.6429840090978
20
14.4277472955144
30
0.00000000000000
11
-57.6406506757645
21
14.4598769111934
31
0.00000000000000
  0
LINE
  5
F10448
330
F10449
100
AcDbEntity
8
Geo
100
AcDbLine
10
-57.6406506757645
20
14.4598769111934
30
0.00000000000000
11
-57.6383173424312
21
14.5050511928794
31
0.00000000000000
  0
LINE
  5
F1044A
330
F1044B
100
AcDbEntity
8
Geo
100
AcDbLine
10
-57.6383173424312
20
14.5050511928794
30
0.00000000000000
11
-57.6383173424312
21
14.5261560765674
31
0.00000000000000
  0
LINE
  5
F1044C
330
F1044D
100
AcDbEntity
8
Geo
100
AcDbLine
10
-57.6383173424312
20
14.5261560765674
30
0.00000000000000
11
-57.6406506757645
21
14.5646474791675
31
0.00000000000000
  0
LINE
  5
F1044E
330
F1044F
100
AcDbEntity
8
Geo
100
AcDbLine
10
-57.6406506757645
20
14.5646474791675
30
0.00000000000000
11
-57.6429840090978
21
14.5963129582279
31
0.00000000000000
  0
LINE
  5
F10450
330
F10451
100
AcDbEntity
8
Geo
100
AcDbLine
10
-57.6429840090978
20
14.5963129582279
30
0.00000000000000
11
-57.6453173424312
21
14.6212835309031
31
0.00000000000000
  0
LINE
  5
F10452
330
F10453
100
AcDbEntity
8
Geo
100
AcDbLine
10
-57.6453173424312
20
14.6212835309031
30
0.00000000000000
11
-57.6476506757645
21
14.6402391834376
31
0.00000000000000
  0
LINE
  5
F10454
330
F10455
100
AcDbEntity
8
Geo
100
AcDbLine
10
-57.6476506757645
20
14.6402391834376
30
0.00000000000000
11
-57.6499840090978
21
14.6540960483199
31
0.00000000000000
  0
LINE
  5
F10456
330
F10457
100
AcDbEntity
8
Geo
100
AcDbLine
10
-57.6499840090978
20
14.6540960483199
30
0.00000000000000
11
-57.6523173424312
21
14.6638114072654
31
0.00000000000000
  0
LINE
  5
F10458
330
F10459
100
AcDbEntity
8
Geo
100
AcDbLine
10
-57.6523173424312
20
14.6638114072654
30
0.00000000000000
11
-57.6546506757645
21
14.6702752896717
31
0.00000000000000
  0
LINE
  5
F1045A
330
F1045B
100
AcDbEntity
8
Geo
100
AcDbLine
10
-57.6546506757645
20
14.6702752896717
30
0.00000000000000
11
-57.6569840090978
21
14.6742599070776
31
0.00000000000000
  0
LINE
  5
F1045C
330
F1045D
100
AcDbEntity
8
Geo
100
AcDbLine
10
-57.6569840090978
20
14.6742599070776
30
0.00000000000000
11
-57.6593173424312
21
14.6764045812575
31
0.00000000000000
  0
LINE
  5
F1045E
330
F1045F
100
AcDbEntity
8
Geo
100
AcDbLine
10
-57.6593173424312
20
14.6764045812575
30
0.00000000000000
11
-57.6616506757645
21
14.6772204976146
31
0.00000000000000
  0
LINE
  5
F10460
330
F10461
100
AcDbEntity
8
Geo
100
AcDbLine
10
-57.6616506757645
20
14.6772204976146
30
0.00000000000000
11
-57.6639840090978
21
14.6771051128425
31
0.00000000000000
  0
LINE
  5
F10462
330
F10463
100
AcDbEntity
8
Geo
100
AcDbLine
10
-57.6639840090978
20
14.6771051128425
30
0.00000000000000
11
-57.6646165633941
21
14.6769547671830
31
0.00000000000000
  0
LINE
  5
F10464
330
F10465
100
AcDbEntity
8
Geo
100
AcDbLine
10
-57.6646165633941
20
14.3378369862077
30
0.00000000000000
11
-57.6663173424312
21
14.3384316884935
31
0.00000000000000
  0
LINE
  5
F10466
330
F10467
100
AcDbEntity
8
Geo
100
AcDbLine
10
-57.6663173424312
20
14.3384316884935
30
0.00000000000000
11
-57.6686506757645
21
14.3395826059860
31
0.00000000000000
  0
LINE
  5
F10468
330
F10469
100
AcDbEntity
8
Geo
100
AcDbLine
10
-57.6686506757645
20
14.3395826059860
30
0.00000000000000
11
-57.6709840090978
21
14.3409771225085
31
0.00000000000000
  0
LINE
  5
F1046A
330
F1046B
100
AcDbEntity
8
Geo
100
AcDbLine
10
-57.6709840090978
20
14.3409771225085
30
0.00000000000000
11
-57.6733173424312
21
14.3425005132668
31
0.00000000000000
  0
LINE
  5
F1046C
330
F1046D
100
AcDbEntity
8
Geo
100
AcDbLine
10
-57.6733173424312
20
14.3425005132668
30
0.00000000000000
11
-57.6756506757645
21
14.3440740833557
31
0.00000000000000
  0
LINE
  5
F1046E
330
F1046F
100
AcDbEntity
8
Geo
100
AcDbLine
10
-57.6756506757645
20
14.3440740833557
30
0.00000000000000
11
-57.6779840090978
21
14.3456459402711
31
0.00000000000000
  0
LINE
  5
F10470
330
F10471
100
AcDbEntity
8
Geo
100
AcDbLine
10
-57.6779840090978
20
14.3456459402711
30
0.00000000000000
11
-57.6803173424312
21
14.3471837570074
31
0.00000000000000
  0
LINE
  5
F10472
330
F10473
100
AcDbEntity
8
Geo
100
AcDbLine
10
-57.6803173424312
20
14.3471837570074
30
0.00000000000000
11
-57.6826506757645
21
14.3486691959512
31
0.00000000000000
  0
LINE
  5
F10474
330
F10475
100
AcDbEntity
8
Geo
100
AcDbLine
10
-57.6826506757645
20
14.3486691959512
30
0.00000000000000
11
-57.6849840090978
21
14.3500936792095
31
0.00000000000000
  0
LINE
  5
F10476
330
F10477
100
AcDbEntity
8
Geo
100
AcDbLine
10
-57.6849840090978
20
14.3500936792095
30
0.00000000000000
11
-57.6873173424312
21
14.3514552276170
31
0.00000000000000
  0
LINE
  5
F10478
330
F10479
100
AcDbEntity
8
Geo
100
AcDbLine
10
-57.6873173424312
20
14.3514552276170
30
0.00000000000000
11
-57.6896506757645
21
14.3527561338969
31
0.00000000000000
  0
LINE
  5
F1047A
330
F1047B
100
AcDbEntity
8
Geo
100
AcDbLine
10
-57.6896506757645
20
14.3527561338969
30
0.00000000000000
11
-57.6919840090978
21
14.3540012778132
31
0.00000000000000
  0
LINE
  5
F1047C
330
F1047D
100
AcDbEntity
8
Geo
100
AcDbLine
10
-57.6919840090978
20
14.3540012778132
30
0.00000000000000
11
-57.6943173424312
21
14.3551969292014
31
0.00000000000000
  0
LINE
  5
F1047E
330
F1047F
100
AcDbEntity
8
Geo
100
AcDbLine
10
-57.6943173424312
20
14.3551969292014
30
0.00000000000000
11
-57.6966506757645
21
14.3563499173016
31
0.00000000000000
  0
LINE
  5
F10480
330
F10481
100
AcDbEntity
8
Geo
100
AcDbLine
10
-57.6966506757645
20
14.3563499173016
30
0.00000000000000
11
-57.6989840090978
21
14.3574670717846
31
0.00000000000000
  0
LINE
  5
F10482
330
F10483
100
AcDbEntity
8
Geo
100
AcDbLine
10
-57.6989840090978
20
14.3574670717846
30
0.00000000000000
11
-57.7013173424312
21
14.3585548627284
31
0.00000000000000
  0
LINE
  5
F10484
330
F10485
100
AcDbEntity
8
Geo
100
AcDbLine
10
-57.7013173424312
20
14.3585548627284
30
0.00000000000000
11
-57.7036506757645
21
14.3596191842533
31
0.00000000000000
  0
LINE
  5
F10486
330
F10487
100
AcDbEntity
8
Geo
100
AcDbLine
10
-57.7036506757645
20
14.3596191842533
30
0.00000000000000
11
-57.7059840090978
21
14.3606652402613
31
0.00000000000000
  0
LINE
  5
F10488
330
F10489
100
AcDbEntity
8
Geo
100
AcDbLine
10
-57.7059840090978
20
14.3606652402613
30
0.00000000000000
11
-57.7083173424312
21
14.3616975013995
31
0.00000000000000
  0
LINE
  5
F1048A
330
F1048B
100
AcDbEntity
8
Geo
100
AcDbLine
10
-57.7083173424312
20
14.3616975013995
30
0.00000000000000
11
-57.7106506757645
21
14.3627197105656
31
0.00000000000000
  0
LINE
  5
F1048C
330
F1048D
100
AcDbEntity
8
Geo
100
AcDbLine
10
-57.7106506757645
20
14.3627197105656
30
0.00000000000000
11
-57.7129840090978
21
14.3637349204784
31
0.00000000000000
  0
LINE
  5
F1048E
330
F1048F
100
AcDbEntity
8
Geo
100
AcDbLine
10
-57.7129840090978
20
14.3637349204784
30
0.00000000000000
11
-57.7153173424312
21
14.3647455514647
31
0.00000000000000
  0
LINE
  5
F10490
330
F10491
100
AcDbEntity
8
Geo
100
AcDbLine
10
-57.7153173424312
20
14.3647455514647
30
0.00000000000000
11
-57.7176506757645
21
14.3657534610081
31
0.00000000000000
  0
LINE
  5
F10492
330
F10493
100
AcDbEntity
8
Geo
100
AcDbLine
10
-57.7176506757645
20
14.3657534610081
30
0.00000000000000
11
-57.7199840090978
21
14.3667600190443
31
0.00000000000000
  0
LINE
  5
F10494
330
F10495
100
AcDbEntity
8
Geo
100
AcDbLine
10
-57.7199840090978
20
14.3667600190443
30
0.00000000000000
11
-57.7223173424312
21
14.3677661847046
31
0.00000000000000
  0
LINE
  5
F10496
330
F10497
100
AcDbEntity
8
Geo
100
AcDbLine
10
-57.7223173424312
20
14.3677661847046
30
0.00000000000000
11
-57.7246506757645
21
14.3687725813872
31
0.00000000000000
  0
LINE
  5
F10498
330
F10499
100
AcDbEntity
8
Geo
100
AcDbLine
10
-57.7246506757645
20
14.3687725813872
30
0.00000000000000
11
-57.7269840090978
21
14.3697795678218
31
0.00000000000000
  0
LINE
  5
F1049A
330
F1049B
100
AcDbEntity
8
Geo
100
AcDbLine
10
-57.7269840090978
20
14.3697795678218
30
0.00000000000000
11
-57.7293173424312
21
14.3707873033117
31
0.00000000000000
  0
LINE
  5
F1049C
330
F1049D
100
AcDbEntity
8
Geo
100
AcDbLine
10
-57.7293173424312
20
14.3707873033117
30
0.00000000000000
11
-57.7316506757645
21
14.3717958056619
31
0.00000000000000
  0
LINE
  5
F1049E
330
F1049F
100
AcDbEntity
8
Geo
100
AcDbLine
10
-57.7316506757645
20
14.3717958056619
30
0.00000000000000
11
-57.7339840090978
21
14.3728050005176
31
0.00000000000000
  0
LINE
  5
F104A0
330
F104A1
100
AcDbEntity
8
Geo
100
AcDbLine
10
-57.7339840090978
20
14.3728050005176
30
0.00000000000000
11
-57.7363173424312
21
14.3738147609761
31
0.00000000000000
  0
LINE
  5
F104A2
330
F104A3
100
AcDbEntity
8
Geo
100
AcDbLine
10
-57.7363173424312
20
14.3738147609761
30
0.00000000000000
11
-57.7386506757645
21
14.3746533090677
31
0.00000000000000
  0
LINE
  5
F104A4
330
F104A5
100
AcDbEntity
8
Geo
100
AcDbLine
10
-58.3173173424312
20
14.5818647714940
30
0.00000000000000
11
-58.3149840090978
21
14.5843107346005
31
0.00000000000000
  0
LINE
  5
F104A6
330
F104A7
100
AcDbEntity
8
Geo
100
AcDbLine
10
-58.3149840090978
20
14.5843107346005
30
0.00000000000000
11
-58.3126506757645
21
14.5868237441756
31
0.00000000000000
  0
LINE
  5
F104A8
330
F104A9
100
AcDbEntity
8
Geo
100
AcDbLine
10
-58.3126506757645
20
14.5868237441756
30
0.00000000000000
11
-58.3103173424312
21
14.5893133860051
31
0.00000000000000
  0
LINE
  5
F104AA
330
F104AB
100
AcDbEntity
8
Geo
100
AcDbLine
10
-58.3103173424312
20
14.5893133860051
30
0.00000000000000
11
-58.3079840090978
21
14.5917555009191
31
0.00000000000000
  0
LINE
  5
F104AC
330
F104AD
100
AcDbEntity
8
Geo
100
AcDbLine
10
-58.3079840090978
20
14.5917555009191
30
0.00000000000000
11
-58.3056506757645
21
14.5941437854899
31
0.00000000000000
  0
LINE
  5
F104AE
330
F104AF
100
AcDbEntity
8
Geo
100
AcDbLine
10
-58.3056506757645
20
14.5941437854899
30
0.00000000000000
11
-58.3033173424312
21
14.5964733539938
31
0.00000000000000
  0
LINE
  5
F104B0
330
F104B1
100
AcDbEntity
8
Geo
100
AcDbLine
10
-58.3033173424312
20
14.5964733539938
30
0.00000000000000
11
-58.3009840090978
21
14.5987455742514
31
0.00000000000000
  0
LINE
  5
F104B2
330
F104B3
100
AcDbEntity
8
Geo
100
AcDbLine
10
-58.3009840090978
20
14.5987455742514
30
0.00000000000000
11
-58.2986506757645
21
14.6009574723413
31
0.00000000000000
  0
LINE
  5
F104B4
330
F104B5
100
AcDbEntity
8
Geo
100
AcDbLine
10
-58.2986506757645
20
14.6009574723413
30
0.00000000000000
11
-58.2963173424312
21
14.6031146865174
31
0.00000000000000
  0
LINE
  5
F104B6
330
F104B7
100
AcDbEntity
8
Geo
100
AcDbLine
10
-58.2963173424312
20
14.6031146865174
30
0.00000000000000
11
-58.2939840090978
21
14.6052152737879
31
0.00000000000000
  0
LINE
  5
F104B8
330
F104B9
100
AcDbEntity
8
Geo
100
AcDbLine
10
-58.2939840090978
20
14.6052152737879
30
0.00000000000000
11
-58.2916506757645
21
14.6072351958912
31
0.00000000000000
  0
LINE
  5
F104BA
330
F104BB
100
AcDbEntity
8
Geo
100
AcDbLine
10
-58.2916506757645
20
14.6072351958912
30
0.00000000000000
11
-58.2893173424312
21
14.6091428870369
31
0.00000000000000
  0
LINE
  5
F104BC
330
F104BD
100
AcDbEntity
8
Geo
100
AcDbLine
10
-58.2893173424312
20
14.6091428870369
30
0.00000000000000
11
-58.2869840090978
21
14.6109431326758
31
0.00000000000000
  0
LINE
  5
F104BE
330
F104BF
100
AcDbEntity
8
Geo
100
AcDbLine
10
-58.2869840090978
20
14.6109431326758
30
0.00000000000000
11
-58.2846506757645
21
14.6126412713715
31
0.00000000000000
  0
LINE
  5
F104C0
330
F104C1
100
AcDbEntity
8
Geo
100
AcDbLine
10
-58.2846506757645
20
14.6126412713715
30
0.00000000000000
11
-58.2823173424312
21
14.6142420279009
31
0.00000000000000
  0
LINE
  5
F104C2
330
F104C3
100
AcDbEntity
8
Geo
100
AcDbLine
10
-58.2823173424312
20
14.6142420279009
30
0.00000000000000
11
-58.2799840090978
21
14.6157496078826
31
0.00000000000000
  0
LINE
  5
F104C4
330
F104C5
100
AcDbEntity
8
Geo
100
AcDbLine
10
-58.2799840090978
20
14.6157496078826
30
0.00000000000000
11
-58.2776506757645
21
14.6171677747040
31
0.00000000000000
  0
LINE
  5
F104C6
330
F104C7
100
AcDbEntity
8
Geo
100
AcDbLine
10
-58.2776506757645
20
14.6171677747040
30
0.00000000000000
11
-58.2753173424312
21
14.6184999126225
31
0.00000000000000
  0
LINE
  5
F104C8
330
F104C9
100
AcDbEntity
8
Geo
100
AcDbLine
10
-58.2753173424312
20
14.6184999126225
30
0.00000000000000
11
-58.2729840090978
21
14.6197490789572
31
0.00000000000000
  0
LINE
  5
F104CA
330
F104CB
100
AcDbEntity
8
Geo
100
AcDbLine
10
-58.2729840090978
20
14.6197490789572
30
0.00000000000000
11
-58.2706506757645
21
14.6209180475828
31
0.00000000000000
  0
LINE
  5
F104CC
330
F104CD
100
AcDbEntity
8
Geo
100
AcDbLine
10
-58.2706506757645
20
14.6209180475828
30
0.00000000000000
11
-58.2683173424312
21
14.6220093454306
31
0.00000000000000
  0
LINE
  5
F104CE
330
F104CF
100
AcDbEntity
8
Geo
100
AcDbLine
10
-58.2683173424312
20
14.6220093454306
30
0.00000000000000
11
-58.2659840090978
21
14.6230252833192
31
0.00000000000000
  0
LINE
  5
F104D0
330
F104D1
100
AcDbEntity
8
Geo
100
AcDbLine
10
-58.2659840090978
20
14.6230252833192
30
0.00000000000000
11
-58.2636506757645
21
14.6239679821510
31
0.00000000000000
  0
LINE
  5
F104D2
330
F104D3
100
AcDbEntity
8
Geo
100
AcDbLine
10
-58.2636506757645
20
14.6239679821510
30
0.00000000000000
11
-58.2613173424312
21
14.6248393952964
31
0.00000000000000
  0
LINE
  5
F104D4
330
F104D5
100
AcDbEntity
8
Geo
100
AcDbLine
10
-58.2613173424312
20
14.6248393952964
30
0.00000000000000
11
-58.2589840090978
21
14.6256413278181
31
0.00000000000000
  0
LINE
  5
F104D6
330
F104D7
100
AcDbEntity
8
Geo
100
AcDbLine
10
-58.2589840090978
20
14.6256413278181
30
0.00000000000000
11
-58.2566506757645
21
14.6263754530624
31
0.00000000000000
  0
LINE
  5
F104D8
330
F104D9
100
AcDbEntity
8
Geo
100
AcDbLine
10
-58.2566506757645
20
14.6263754530624
30
0.00000000000000
11
-58.2543173424312
21
14.6270433270422
31
0.00000000000000
  0
LINE
  5
F104DA
330
F104DB
100
AcDbEntity
8
Geo
100
AcDbLine
10
-58.2543173424312
20
14.6270433270422
30
0.00000000000000
11
-58.2519840090978
21
14.6276464009584
31
0.00000000000000
  0
LINE
  5
F104DC
330
F104DD
100
AcDbEntity
8
Geo
100
AcDbLine
10
-58.2519840090978
20
14.6276464009584
30
0.00000000000000
11
-58.2496506757645
21
14.6281860321426
31
0.00000000000000
  0
LINE
  5
F104DE
330
F104DF
100
AcDbEntity
8
Geo
100
AcDbLine
10
-58.2496506757645
20
14.6281860321426
30
0.00000000000000
11
-58.2473173424312
21
14.6286634936574
31
0.00000000000000
  0
LINE
  5
F104E0
330
F104E1
100
AcDbEntity
8
Geo
100
AcDbLine
10
-58.2473173424312
20
14.6286634936574
30
0.00000000000000
11
-58.2449840090978
21
14.6290799827460
31
0.00000000000000
  0
LINE
  5
F104E2
330
F104E3
100
AcDbEntity
8
Geo
100
AcDbLine
10
-58.2449840090978
20
14.6290799827460
30
0.00000000000000
11
-58.2426506757645
21
14.6294366282945
31
0.00000000000000
  0
LINE
  5
F104E4
330
F104E5
100
AcDbEntity
8
Geo
100
AcDbLine
10
-58.2426506757645
20
14.6294366282945
30
0.00000000000000
11
-58.2403173424312
21
14.6297344974410
31
0.00000000000000
  0
LINE
  5
F104E6
330
F104E7
100
AcDbEntity
8
Geo
100
AcDbLine
10
-58.2403173424312
20
14.6297344974410
30
0.00000000000000
11
-58.2379840090978
21
14.6299746014473
31
0.00000000000000
  0
LINE
  5
F104E8
330
F104E9
100
AcDbEntity
8
Geo
100
AcDbLine
10
-58.2379840090978
20
14.6299746014473
30
0.00000000000000
11
-58.2356506757645
21
14.6301579009268
31
0.00000000000000
  0
LINE
  5
F104EA
330
F104EB
100
AcDbEntity
8
Geo
100
AcDbLine
10
-58.2356506757645
20
14.6301579009268
30
0.00000000000000
11
-58.2333173424312
21
14.6302853105134
31
0.00000000000000
  0
LINE
  5
F104EC
330
F104ED
100
AcDbEntity
8
Geo
100
AcDbLine
10
-58.2333173424312
20
14.6302853105134
30
0.00000000000000
11
-58.2309840090978
21
14.6303577030381
31
0.00000000000000
  0
LINE
  5
F104EE
330
F104EF
100
AcDbEntity
8
Geo
100
AcDbLine
10
-58.2309840090978
20
14.6303577030381
30
0.00000000000000
11
-58.2286506757645
21
14.6303759132747
31
0.00000000000000
  0
LINE
  5
F104F0
330
F104F1
100
AcDbEntity
8
Geo
100
AcDbLine
10
-58.2286506757645
20
14.6303759132747
30
0.00000000000000
11
-58.2263173424312
21
14.6303407413045
31
0.00000000000000
  0
LINE
  5
F104F2
330
F104F3
100
AcDbEntity
8
Geo
100
AcDbLine
10
-58.2263173424312
20
14.6303407413045
30
0.00000000000000
11
-58.2239840090978
21
14.6302529555450
31
0.00000000000000
  0
LINE
  5
F104F4
330
F104F5
100
AcDbEntity
8
Geo
100
AcDbLine
10
-58.2239840090978
20
14.6302529555450
30
0.00000000000000
11
-58.2216506757645
21
14.6301132954787
31
0.00000000000000
  0
LINE
  5
F104F6
330
F104F7
100
AcDbEntity
8
Geo
100
AcDbLine
10
-58.2216506757645
20
14.6301132954787
30
0.00000000000000
11
-58.2193173424312
21
14.6299224741171
31
0.00000000000000
  0
LINE
  5
F104F8
330
F104F9
100
AcDbEntity
8
Geo
100
AcDbLine
10
-58.2193173424312
20
14.6299224741171
30
0.00000000000000
11
-58.2169840090978
21
14.6296811802262
31
0.00000000000000
  0
LINE
  5
F104FA
330
F104FB
100
AcDbEntity
8
Geo
100
AcDbLine
10
-58.2169840090978
20
14.6296811802262
30
0.00000000000000
11
-58.2146506757645
21
14.6293900803395
31
0.00000000000000
  0
LINE
  5
F104FC
330
F104FD
100
AcDbEntity
8
Geo
100
AcDbLine
10
-58.2146506757645
20
14.6293900803395
30
0.00000000000000
11
-58.2123173424312
21
14.6290498205797
31
0.00000000000000
  0
LINE
  5
F104FE
330
F104FF
100
AcDbEntity
8
Geo
100
AcDbLine
10
-58.2123173424312
20
14.6290498205797
30
0.00000000000000
11
-58.2099840090978
21
14.6286610283079
31
0.00000000000000
  0
LINE
  5
F10500
330
F10501
100
AcDbEntity
8
Geo
100
AcDbLine
10
-58.2099840090978
20
14.6286610283079
30
0.00000000000000
11
-58.2076506757645
21
14.6282243136168
31
0.00000000000000
  0
LINE
  5
F10502
330
F10503
100
AcDbEntity
8
Geo
100
AcDbLine
10
-58.2076506757645
20
14.6282243136168
30
0.00000000000000
11
-58.2053173424312
21
14.6277402706820
31
0.00000000000000
  0
LINE
  5
F10504
330
F10505
100
AcDbEntity
8
Geo
100
AcDbLine
10
-58.2053173424312
20
14.6277402706820
30
0.00000000000000
11
-58.2029840090978
21
14.6272094789844
31
0.00000000000000
  0
LINE
  5
F10506
330
F10507
100
AcDbEntity
8
Geo
100
AcDbLine
10
-58.2029840090978
20
14.6272094789844
30
0.00000000000000
11
-58.2006506757645
21
14.6266325044148
31
0.00000000000000
  0
LINE
  5
F10508
330
F10509
100
AcDbEntity
8
Geo
100
AcDbLine
10
-58.2006506757645
20
14.6266325044148
30
0.00000000000000
11
-58.1983173424312
21
14.6260099002692
31
0.00000000000000
  0
LINE
  5
F1050A
330
F1050B
100
AcDbEntity
8
Geo
100
AcDbLine
10
-58.1983173424312
20
14.6260099002692
30
0.00000000000000
11
-58.1959840090978
21
14.6253422081451
31
0.00000000000000
  0
LINE
  5
F1050C
330
F1050D
100
AcDbEntity
8
Geo
100
AcDbLine
10
-58.1959840090978
20
14.6253422081451
30
0.00000000000000
11
-58.1936506757645
21
14.6246299587446
31
0.00000000000000
  0
LINE
  5
F1050E
330
F1050F
100
AcDbEntity
8
Geo
100
AcDbLine
10
-58.1936506757645
20
14.6246299587446
30
0.00000000000000
11
-58.1913173424312
21
14.6238736725906
31
0.00000000000000
  0
LINE
  5
F10510
330
F10511
100
AcDbEntity
8
Geo
100
AcDbLine
10
-58.1913173424312
20
14.6238736725906
30
0.00000000000000
11
-58.1889840090978
21
14.6230738606632
31
0.00000000000000
  0
LINE
  5
F10512
330
F10513
100
AcDbEntity
8
Geo
100
AcDbLine
10
-58.1889840090978
20
14.6230738606632
30
0.00000000000000
11
-58.1866506757645
21
14.6222395628112
31
0.00000000000000
  0
LINE
  5
F10514
330
F10515
100
AcDbEntity
8
Geo
100
AcDbLine
10
-58.1866506757645
20
14.6222395628112
30
0.00000000000000
11
-58.1843173424312
21
14.6213946300433
31
0.00000000000000
  0
LINE
  5
F10516
330
F10517
100
AcDbEntity
8
Geo
100
AcDbLine
10
-58.1843173424312
20
14.6213946300433
30
0.00000000000000
11
-58.1819840090978
21
14.6205405023759
31
0.00000000000000
  0
LINE
  5
F10518
330
F10519
100
AcDbEntity
8
Geo
100
AcDbLine
10
-58.1819840090978
20
14.6205405023759
30
0.00000000000000
11
-58.1796506757645
21
14.6196772487013
31
0.00000000000000
  0
LINE
  5
F1051A
330
F1051B
100
AcDbEntity
8
Geo
100
AcDbLine
10
-58.1796506757645
20
14.6196772487013
30
0.00000000000000
11
-58.1773173424312
21
14.6188049386478
31
0.00000000000000
  0
LINE
  5
F1051C
330
F1051D
100
AcDbEntity
8
Geo
100
AcDbLine
10
-58.1773173424312
20
14.6188049386478
30
0.00000000000000
11
-58.1749840090978
21
14.6179236425738
31
0.00000000000000
  0
LINE
  5
F1051E
330
F1051F
100
AcDbEntity
8
Geo
100
AcDbLine
10
-58.1749840090978
20
14.6179236425738
30
0.00000000000000
11
-58.1726506757645
21
14.6170334315631
31
0.00000000000000
  0
LINE
  5
F10520
330
F10521
100
AcDbEntity
8
Geo
100
AcDbLine
10
-58.1726506757645
20
14.6170334315631
30
0.00000000000000
11
-58.1703173424312
21
14.6161343774181
31
0.00000000000000
  0
LINE
  5
F10522
330
F10523
100
AcDbEntity
8
Geo
100
AcDbLine
10
-58.1703173424312
20
14.6161343774181
30
0.00000000000000
11
-58.1679840090978
21
14.6152265526546
31
0.00000000000000
  0
LINE
  5
F10524
330
F10525
100
AcDbEntity
8
Geo
100
AcDbLine
10
-58.1679840090978
20
14.6152265526546
30
0.00000000000000
11
-58.1656506757645
21
14.6143100304959
31
0.00000000000000
  0
LINE
  5
F10526
330
F10527
100
AcDbEntity
8
Geo
100
AcDbLine
10
-58.1656506757645
20
14.6143100304959
30
0.00000000000000
11
-58.1633173424312
21
14.6133848848666
31
0.00000000000000
  0
LINE
  5
F10528
330
F10529
100
AcDbEntity
8
Geo
100
AcDbLine
10
-58.1633173424312
20
14.6133848848666
30
0.00000000000000
11
-58.1609840090978
21
14.6124511903872
31
0.00000000000000
  0
LINE
  5
F1052A
330
F1052B
100
AcDbEntity
8
Geo
100
AcDbLine
10
-58.1609840090978
20
14.6124511903872
30
0.00000000000000
11
-58.1586506757645
21
14.6115090223674
31
0.00000000000000
  0
LINE
  5
F1052C
330
F1052D
100
AcDbEntity
8
Geo
100
AcDbLine
10
-58.1586506757645
20
14.6115090223674
30
0.00000000000000
11
-58.1563173424312
21
14.6105584568006
31
0.00000000000000
  0
LINE
  5
F1052E
330
F1052F
100
AcDbEntity
8
Geo
100
AcDbLine
10
-58.1563173424312
20
14.6105584568006
30
0.00000000000000
11
-58.1539840090978
21
14.6095995703573
31
0.00000000000000
  0
LINE
  5
F10530
330
F10531
100
AcDbEntity
8
Geo
100
AcDbLine
10
-58.1539840090978
20
14.6095995703573
30
0.00000000000000
11
-58.1516506757645
21
14.6086324403792
31
0.00000000000000
  0
LINE
  5
F10532
330
F10533
100
AcDbEntity
8
Geo
100
AcDbLine
10
-58.1516506757645
20
14.6086324403792
30
0.00000000000000
11
-58.1493173424312
21
14.6076571448732
31
0.00000000000000
  0
LINE
  5
F10534
330
F10535
100
AcDbEntity
8
Geo
100
AcDbLine
10
-58.1493173424312
20
14.6076571448732
30
0.00000000000000
11
-58.1469840090978
21
14.6066737625044
31
0.00000000000000
  0
LINE
  5
F10536
330
F10537
100
AcDbEntity
8
Geo
100
AcDbLine
10
-58.1469840090978
20
14.6066737625044
30
0.00000000000000
11
-58.1446506757645
21
14.6056823725904
31
0.00000000000000
  0
LINE
  5
F10538
330
F10539
100
AcDbEntity
8
Geo
100
AcDbLine
10
-58.1446506757645
20
14.6056823725904
30
0.00000000000000
11
-58.1423173424312
21
14.6046830550947
31
0.00000000000000
  0
LINE
  5
F1053A
330
F1053B
100
AcDbEntity
8
Geo
100
AcDbLine
10
-58.1423173424312
20
14.6046830550947
30
0.00000000000000
11
-58.1399840090978
21
14.6036758906200
31
0.00000000000000
  0
LINE
  5
F1053C
330
F1053D
100
AcDbEntity
8
Geo
100
AcDbLine
10
-58.1399840090978
20
14.6036758906200
30
0.00000000000000
11
-58.1376506757645
21
14.6026609604021
31
0.00000000000000
  0
LINE
  5
F1053E
330
F1053F
100
AcDbEntity
8
Geo
100
AcDbLine
10
-58.1376506757645
20
14.6026609604021
30
0.00000000000000
11
-58.1353173424312
21
14.6016383463032
31
0.00000000000000
  0
LINE
  5
F10540
330
F10541
100
AcDbEntity
8
Geo
100
AcDbLine
10
-58.1353173424312
20
14.6016383463032
30
0.00000000000000
11
-58.1329840090978
21
14.6006081308052
31
0.00000000000000
  0
LINE
  5
F10542
330
F10543
100
AcDbEntity
8
Geo
100
AcDbLine
10
-58.1329840090978
20
14.6006081308052
30
0.00000000000000
11
-58.1306506757645
21
14.5995703970031
31
0.00000000000000
  0
LINE
  5
F10544
330
F10545
100
AcDbEntity
8
Geo
100
AcDbLine
10
-58.1306506757645
20
14.5995703970031
30
0.00000000000000
11
-58.1283173424312
21
14.5985252285983
31
0.00000000000000
  0
LINE
  5
F10546
330
F10547
100
AcDbEntity
8
Geo
100
AcDbLine
10
-58.1283173424312
20
14.5985252285983
30
0.00000000000000
11
-58.1259840090978
21
14.5974727098918
31
0.00000000000000
  0
LINE
  5
F10548
330
F10549
100
AcDbEntity
8
Geo
100
AcDbLine
10
-58.1259840090978
20
14.5974727098918
30
0.00000000000000
11
-58.1236506757645
21
14.5964129257777
31
0.00000000000000
  0
LINE
  5
F1054A
330
F1054B
100
AcDbEntity
8
Geo
100
AcDbLine
10
-58.1236506757645
20
14.5964129257777
30
0.00000000000000
11
-58.1213173424312
21
14.5953459617359
31
0.00000000000000
  0
LINE
  5
F1054C
330
F1054D
100
AcDbEntity
8
Geo
100
AcDbLine
10
-58.1213173424312
20
14.5953459617359
30
0.00000000000000
11
-58.1189840090978
21
14.5942719038255
31
0.00000000000000
  0
LINE
  5
F1054E
330
F1054F
100
AcDbEntity
8
Geo
100
AcDbLine
10
-58.1189840090978
20
14.5942719038255
30
0.00000000000000
11
-58.1166506757645
21
14.5931908386776
31
0.00000000000000
  0
LINE
  5
F10550
330
F10551
100
AcDbEntity
8
Geo
100
AcDbLine
10
-58.1166506757645
20
14.5931908386776
30
0.00000000000000
11
-58.1143173424312
21
14.5921028534888
31
0.00000000000000
  0
LINE
  5
F10552
330
F10553
100
AcDbEntity
8
Geo
100
AcDbLine
10
-58.1143173424312
20
14.5921028534888
30
0.00000000000000
11
-58.1119840090978
21
14.5910080360136
31
0.00000000000000
  0
LINE
  5
F10554
330
F10555
100
AcDbEntity
8
Geo
100
AcDbLine
10
-58.1119840090978
20
14.5910080360136
30
0.00000000000000
11
-58.1096506757645
21
14.5899064745577
31
0.00000000000000
  0
LINE
  5
F10556
330
F10557
100
AcDbEntity
8
Geo
100
AcDbLine
10
-58.1096506757645
20
14.5899064745577
30
0.00000000000000
11
-58.1073173424312
21
14.5887982579708
31
0.00000000000000
  0
LINE
  5
F10558
330
F10559
100
AcDbEntity
8
Geo
100
AcDbLine
10
-58.1073173424312
20
14.5887982579708
30
0.00000000000000
11
-58.1049840090978
21
14.5876834756393
31
0.00000000000000
  0
LINE
  5
F1055A
330
F1055B
100
AcDbEntity
8
Geo
100
AcDbLine
10
-58.1049840090978
20
14.5876834756393
30
0.00000000000000
11
-58.1026506757645
21
14.5865622174790
31
0.00000000000000
  0
LINE
  5
F1055C
330
F1055D
100
AcDbEntity
8
Geo
100
AcDbLine
10
-58.1026506757645
20
14.5865622174790
30
0.00000000000000
11
-58.1003173424312
21
14.5854345739285
31
0.00000000000000
  0
LINE
  5
F1055E
330
F1055F
100
AcDbEntity
8
Geo
100
AcDbLine
10
-58.1003173424312
20
14.5854345739285
30
0.00000000000000
11
-58.0979840090978
21
14.5843006359410
31
0.00000000000000
  0
LINE
  5
F10560
330
F10561
100
AcDbEntity
8
Geo
100
AcDbLine
10
-58.0979840090978
20
14.5843006359410
30
0.00000000000000
11
-58.0956506757645
21
14.5831604949775
31
0.00000000000000
  0
LINE
  5
F10562
330
F10563
100
AcDbEntity
8
Geo
100
AcDbLine
10
-58.0956506757645
20
14.5831604949775
30
0.00000000000000
11
-58.0933173424312
21
14.5820142429995
31
0.00000000000000
  0
LINE
  5
F10564
330
F10565
100
AcDbEntity
8
Geo
100
AcDbLine
10
-58.0933173424312
20
14.5820142429995
30
0.00000000000000
11
-58.0909840090978
21
14.5808619724612
31
0.00000000000000
  0
LINE
  5
F10566
330
F10567
100
AcDbEntity
8
Geo
100
AcDbLine
10
-58.0909840090978
20
14.5808619724612
30
0.00000000000000
11
-58.0886506757645
21
14.5797037763024
31
0.00000000000000
  0
LINE
  5
F10568
330
F10569
100
AcDbEntity
8
Geo
100
AcDbLine
10
-58.0886506757645
20
14.5797037763024
30
0.00000000000000
11
-58.0863173424312
21
14.5785397479406
31
0.00000000000000
  0
LINE
  5
F1056A
330
F1056B
100
AcDbEntity
8
Geo
100
AcDbLine
10
-58.0863173424312
20
14.5785397479406
30
0.00000000000000
11
-58.0839840090978
21
14.5773699812640
31
0.00000000000000
  0
LINE
  5
F1056C
330
F1056D
100
AcDbEntity
8
Geo
100
AcDbLine
10
-58.0839840090978
20
14.5773699812640
30
0.00000000000000
11
-58.0816506757645
21
14.5761945706235
31
0.00000000000000
  0
LINE
  5
F1056E
330
F1056F
100
AcDbEntity
8
Geo
100
AcDbLine
10
-58.0816506757645
20
14.5761945706235
30
0.00000000000000
11
-58.0793173424312
21
14.5750136108252
31
0.00000000000000
  0
LINE
  5
F10570
330
F10571
100
AcDbEntity
8
Geo
100
AcDbLine
10
-58.0793173424312
20
14.5750136108252
30
0.00000000000000
11
-58.0769840090978
21
14.5738271971229
31
0.00000000000000
  0
LINE
  5
F10572
330
F10573
100
AcDbEntity
8
Geo
100
AcDbLine
10
-58.0769840090978
20
14.5738271971229
30
0.00000000000000
11
-58.0746506757645
21
14.5726354252102
31
0.00000000000000
  0
LINE
  5
F10574
330
F10575
100
AcDbEntity
8
Geo
100
AcDbLine
10
-58.0746506757645
20
14.5726354252102
30
0.00000000000000
11
-58.0723173424312
21
14.5714383912129
31
0.00000000000000
  0
LINE
  5
F10576
330
F10577
100
AcDbEntity
8
Geo
100
AcDbLine
10
-58.0723173424312
20
14.5714383912129
30
0.00000000000000
11
-58.0699840090978
21
14.5702361916812
31
0.00000000000000
  0
LINE
  5
F10578
330
F10579
100
AcDbEntity
8
Geo
100
AcDbLine
10
-58.0699840090978
20
14.5702361916812
30
0.00000000000000
11
-58.0676506757645
21
14.5690289235821
31
0.00000000000000
  0
LINE
  5
F1057A
330
F1057B
100
AcDbEntity
8
Geo
100
AcDbLine
10
-58.0676506757645
20
14.5690289235821
30
0.00000000000000
11
-58.0653173424312
21
14.5678166842912
31
0.00000000000000
  0
LINE
  5
F1057C
330
F1057D
100
AcDbEntity
8
Geo
100
AcDbLine
10
-58.0653173424312
20
14.5678166842912
30
0.00000000000000
11
-58.0629840090978
21
14.5665995715852
31
0.00000000000000
  0
LINE
  5
F1057E
330
F1057F
100
AcDbEntity
8
Geo
100
AcDbLine
10
-58.0629840090978
20
14.5665995715852
30
0.00000000000000
11
-58.0606506757645
21
14.5653776836338
31
0.00000000000000
  0
LINE
  5
F10580
330
F10581
100
AcDbEntity
8
Geo
100
AcDbLine
10
-58.0606506757645
20
14.5653776836338
30
0.00000000000000
11
-58.0583173424312
21
14.5641511189920
31
0.00000000000000
  0
LINE
  5
F10582
330
F10583
100
AcDbEntity
8
Geo
100
AcDbLine
10
-58.0583173424312
20
14.5641511189920
30
0.00000000000000
11
-58.0559840090978
21
14.5629199765919
31
0.00000000000000
  0
LINE
  5
F10584
330
F10585
100
AcDbEntity
8
Geo
100
AcDbLine
10
-58.0559840090978
20
14.5629199765919
30
0.00000000000000
11
-58.0536506757645
21
14.5616843557349
31
0.00000000000000
  0
LINE
  5
F10586
330
F10587
100
AcDbEntity
8
Geo
100
AcDbLine
10
-58.0536506757645
20
14.5616843557349
30
0.00000000000000
11
-58.0513173424312
21
14.5604443560834
31
0.00000000000000
  0
LINE
  5
F10588
330
F10589
100
AcDbEntity
8
Geo
100
AcDbLine
10
-58.0513173424312
20
14.5604443560834
30
0.00000000000000
11
-58.0489840090978
21
14.5592000776533
31
0.00000000000000
  0
LINE
  5
F1058A
330
F1058B
100
AcDbEntity
8
Geo
100
AcDbLine
10
-58.0489840090978
20
14.5592000776533
30
0.00000000000000
11
-58.0466506757645
21
14.5579516208054
31
0.00000000000000
  0
LINE
  5
F1058C
330
F1058D
100
AcDbEntity
8
Geo
100
AcDbLine
10
-58.0466506757645
20
14.5579516208054
30
0.00000000000000
11
-58.0443173424312
21
14.5566990862377
31
0.00000000000000
  0
LINE
  5
F1058E
330
F1058F
100
AcDbEntity
8
Geo
100
AcDbLine
10
-58.0443173424312
20
14.5566990862377
30
0.00000000000000
11
-58.0419840090978
21
14.5554425749770
31
0.00000000000000
  0
LINE
  5
F10590
330
F10591
100
AcDbEntity
8
Geo
100
AcDbLine
10
-58.0419840090978
20
14.5554425749770
30
0.00000000000000
11
-58.0396506757645
21
14.5541821883707
31
0.00000000000000
  0
LINE
  5
F10592
330
F10593
100
AcDbEntity
8
Geo
100
AcDbLine
10
-58.0396506757645
20
14.5541821883707
30
0.00000000000000
11
-58.0373173424312
21
14.5529180280791
31
0.00000000000000
  0
LINE
  5
F10594
330
F10595
100
AcDbEntity
8
Geo
100
AcDbLine
10
-58.0373173424312
20
14.5529180280791
30
0.00000000000000
11
-58.0349840090978
21
14.5516501960666
31
0.00000000000000
  0
LINE
  5
F10596
330
F10597
100
AcDbEntity
8
Geo
100
AcDbLine
10
-58.0349840090978
20
14.5516501960666
30
0.00000000000000
11
-58.0326506757645
21
14.5503787945939
31
0.00000000000000
  0
LINE
  5
F10598
330
F10599
100
AcDbEntity
8
Geo
100
AcDbLine
10
-58.0326506757645
20
14.5503787945939
30
0.00000000000000
11
-58.0303173424312
21
14.5491039262095
31
0.00000000000000
  0
LINE
  5
F1059A
330
F1059B
100
AcDbEntity
8
Geo
100
AcDbLine
10
-58.0303173424312
20
14.5491039262095
30
0.00000000000000
11
-58.0279840090978
21
14.5478256937418
31
0.00000000000000
  0
LINE
  5
F1059C
330
F1059D
100
AcDbEntity
8
Geo
100
AcDbLine
10
-58.0279840090978
20
14.5478256937418
30
0.00000000000000
11
-58.0256506757645
21
14.5465442002901
31
0.00000000000000
  0
LINE
  5
F1059E
330
F1059F
100
AcDbEntity
8
Geo
100
AcDbLine
10
-58.0256506757645
20
14.5465442002901
30
0.00000000000000
11
-58.0233173424312
21
14.5452595492171
31
0.00000000000000
  0
LINE
  5
F105A0
330
F105A1
100
AcDbEntity
8
Geo
100
AcDbLine
10
-58.0233173424312
20
14.5452595492171
30
0.00000000000000
11
-58.0209840090978
21
14.5439718441400
31
0.00000000000000
  0
LINE
  5
F105A2
330
F105A3
100
AcDbEntity
8
Geo
100
AcDbLine
10
-58.0209840090978
20
14.5439718441400
30
0.00000000000000
11
-58.0186506757645
21
14.5426811889224
31
0.00000000000000
  0
LINE
  5
F105A4
330
F105A5
100
AcDbEntity
8
Geo
100
AcDbLine
10
-58.0186506757645
20
14.5426811889224
30
0.00000000000000
11
-58.0163173424312
21
14.5413876876658
31
0.00000000000000
  0
LINE
  5
F105A6
330
F105A7
100
AcDbEntity
8
Geo
100
AcDbLine
10
-58.0163173424312
20
14.5413876876658
30
0.00000000000000
11
-58.0139840090978
21
14.5400914447013
31
0.00000000000000
  0
LINE
  5
F105A8
330
F105A9
100
AcDbEntity
8
Geo
100
AcDbLine
10
-58.0139840090978
20
14.5400914447013
30
0.00000000000000
11
-58.0116506757645
21
14.5387925645812
31
0.00000000000000
  0
LINE
  5
F105AA
330
F105AB
100
AcDbEntity
8
Geo
100
AcDbLine
10
-58.0116506757645
20
14.5387925645812
30
0.00000000000000
11
-58.0093173424312
21
14.5374911520703
31
0.00000000000000
  0
LINE
  5
F105AC
330
F105AD
100
AcDbEntity
8
Geo
100
AcDbLine
10
-58.0093173424312
20
14.5374911520703
30
0.00000000000000
11
-58.0069840090978
21
14.5361873121379
31
0.00000000000000
  0
LINE
  5
F105AE
330
F105AF
100
AcDbEntity
8
Geo
100
AcDbLine
10
-58.0069840090978
20
14.5361873121379
30
0.00000000000000
11
-58.0046506757645
21
14.5348811499490
31
0.00000000000000
  0
LINE
  5
F105B0
330
F105B1
100
AcDbEntity
8
Geo
100
AcDbLine
10
-58.0046506757645
20
14.5348811499490
30
0.00000000000000
11
-58.0023173424312
21
14.5335727708558
31
0.00000000000000
  0
LINE
  5
F105B2
330
F105B3
100
AcDbEntity
8
Geo
100
AcDbLine
10
-58.0023173424312
20
14.5335727708558
30
0.00000000000000
11
-57.9999840090978
21
14.5322622803894
31
0.00000000000000
  0
LINE
  5
F105B4
330
F105B5
100
AcDbEntity
8
Geo
100
AcDbLine
10
-57.9999840090978
20
14.5322622803894
30
0.00000000000000
11
-57.9976506757645
21
14.5309497842513
31
0.00000000000000
  0
LINE
  5
F105B6
330
F105B7
100
AcDbEntity
8
Geo
100
AcDbLine
10
-57.9976506757645
20
14.5309497842513
30
0.00000000000000
11
-57.9953173424312
21
14.5296353883046
31
0.00000000000000
  0
LINE
  5
F105B8
330
F105B9
100
AcDbEntity
8
Geo
100
AcDbLine
10
-57.9953173424312
20
14.5296353883046
30
0.00000000000000
11
-57.9929840090978
21
14.5283191985658
31
0.00000000000000
  0
LINE
  5
F105BA
330
F105BB
100
AcDbEntity
8
Geo
100
AcDbLine
10
-57.9929840090978
20
14.5283191985658
30
0.00000000000000
11
-57.9906506757645
21
14.5270013211958
31
0.00000000000000
  0
LINE
  5
F105BC
330
F105BD
100
AcDbEntity
8
Geo
100
AcDbLine
10
-57.9906506757645
20
14.5270013211958
30
0.00000000000000
11
-57.9883173424312
21
14.5256818624920
31
0.00000000000000
  0
LINE
  5
F105BE
330
F105BF
100
AcDbEntity
8
Geo
100
AcDbLine
10
-57.9883173424312
20
14.5256818624920
30
0.00000000000000
11
-57.9859840090978
21
14.5243609288791
31
0.00000000000000
  0
LINE
  5
F105C0
330
F105C1
100
AcDbEntity
8
Geo
100
AcDbLine
10
-57.9859840090978
20
14.5243609288791
30
0.00000000000000
11
-57.9836506757645
21
14.5230386269008
31
0.00000000000000
  0
LINE
  5
F105C2
330
F105C3
100
AcDbEntity
8
Geo
100
AcDbLine
10
-57.9836506757645
20
14.5230386269008
30
0.00000000000000
11
-57.9813173424312
21
14.5217150632112
31
0.00000000000000
  0
LINE
  5
F105C4
330
F105C5
100
AcDbEntity
8
Geo
100
AcDbLine
10
-57.9813173424312
20
14.5217150632112
30
0.00000000000000
11
-57.9789840090978
21
14.5203903445662
31
0.00000000000000
  0
LINE
  5
F105C6
330
F105C7
100
AcDbEntity
8
Geo
100
AcDbLine
10
-57.9789840090978
20
14.5203903445662
30
0.00000000000000
11
-57.9766506757645
21
14.5190645778148
31
0.00000000000000
  0
LINE
  5
F105C8
330
F105C9
100
AcDbEntity
8
Geo
100
AcDbLine
10
-57.9766506757645
20
14.5190645778148
30
0.00000000000000
11
-57.9743173424312
21
14.5177378698905
31
0.00000000000000
  0
LINE
  5
F105CA
330
F105CB
100
AcDbEntity
8
Geo
100
AcDbLine
10
-57.9743173424312
20
14.5177378698905
30
0.00000000000000
11
-57.9719840090978
21
14.5164103278028
31
0.00000000000000
  0
LINE
  5
F105CC
330
F105CD
100
AcDbEntity
8
Geo
100
AcDbLine
10
-57.9719840090978
20
14.5164103278028
30
0.00000000000000
11
-57.9696506757645
21
14.5150820586285
31
0.00000000000000
  0
LINE
  5
F105CE
330
F105CF
100
AcDbEntity
8
Geo
100
AcDbLine
10
-57.9696506757645
20
14.5150820586285
30
0.00000000000000
11
-57.9673173424312
21
14.5137531695029
31
0.00000000000000
  0
LINE
  5
F105D0
330
F105D1
100
AcDbEntity
8
Geo
100
AcDbLine
10
-57.9673173424312
20
14.5137531695029
30
0.00000000000000
11
-57.9649840090978
21
14.5124237676115
31
0.00000000000000
  0
LINE
  5
F105D2
330
F105D3
100
AcDbEntity
8
Geo
100
AcDbLine
10
-57.9649840090978
20
14.5124237676115
30
0.00000000000000
11
-57.9626506757645
21
14.5110939601810
31
0.00000000000000
  0
LINE
  5
F105D4
330
F105D5
100
AcDbEntity
8
Geo
100
AcDbLine
10
-57.9626506757645
20
14.5110939601810
30
0.00000000000000
11
-57.9603173424312
21
14.5097638544709
31
0.00000000000000
  0
LINE
  5
F105D6
330
F105D7
100
AcDbEntity
8
Geo
100
AcDbLine
10
-57.9603173424312
20
14.5097638544709
30
0.00000000000000
11
-57.9579840090978
21
14.5084335577646
31
0.00000000000000
  0
LINE
  5
F105D8
330
F105D9
100
AcDbEntity
8
Geo
100
AcDbLine
10
-57.9579840090978
20
14.5084335577646
30
0.00000000000000
11
-57.9556506757645
21
14.5071031773612
31
0.00000000000000
  0
LINE
  5
F105DA
330
F105DB
100
AcDbEntity
8
Geo
100
AcDbLine
10
-57.9556506757645
20
14.5071031773612
30
0.00000000000000
11
-57.9533173424312
21
14.5057728205663
31
0.00000000000000
  0
LINE
  5
F105DC
330
F105DD
100
AcDbEntity
8
Geo
100
AcDbLine
10
-57.9533173424312
20
14.5057728205663
30
0.00000000000000
11
-57.9509840090978
21
14.5044425946837
31
0.00000000000000
  0
LINE
  5
F105DE
330
F105DF
100
AcDbEntity
8
Geo
100
AcDbLine
10
-57.9509840090978
20
14.5044425946837
30
0.00000000000000
11
-57.9486506757645
21
14.5031126070066
31
0.00000000000000
  0
LINE
  5
F105E0
330
F105E1
100
AcDbEntity
8
Geo
100
AcDbLine
10
-57.9486506757645
20
14.5031126070066
30
0.00000000000000
11
-57.9463173424312
21
14.5017829648090
31
0.00000000000000
  0
LINE
  5
F105E2
330
F105E3
100
AcDbEntity
8
Geo
100
AcDbLine
10
-57.9463173424312
20
14.5017829648090
30
0.00000000000000
11
-57.9439840090978
21
14.5004537753371
31
0.00000000000000
  0
LINE
  5
F105E4
330
F105E5
100
AcDbEntity
8
Geo
100
AcDbLine
10
-57.9439840090978
20
14.5004537753371
30
0.00000000000000
11
-57.9416506757645
21
14.4991251458004
31
0.00000000000000
  0
LINE
  5
F105E6
330
F105E7
100
AcDbEntity
8
Geo
100
AcDbLine
10
-57.9416506757645
20
14.4991251458004
30
0.00000000000000
11
-57.9393173424312
21
14.4977971833635
31
0.00000000000000
  0
LINE
  5
F105E8
330
F105E9
100
AcDbEntity
8
Geo
100
AcDbLine
10
-57.9393173424312
20
14.4977971833635
30
0.00000000000000
11
-57.9369840090978
21
14.4964699951370
31
0.00000000000000
  0
LINE
  5
F105EA
330
F105EB
100
AcDbEntity
8
Geo
100
AcDbLine
10
-57.9369840090978
20
14.4964699951370
30
0.00000000000000
11
-57.9346506757645
21
14.4951436881691
31
0.00000000000000
  0
LINE
  5
F105EC
330
F105ED
100
AcDbEntity
8
Geo
100
AcDbLine
10
-57.9346506757645
20
14.4951436881691
30
0.00000000000000
11
-57.9323173424312
21
14.4938183694369
31
0.00000000000000
  0
LINE
  5
F105EE
330
F105EF
100
AcDbEntity
8
Geo
100
AcDbLine
10
-57.9323173424312
20
14.4938183694369
30
0.00000000000000
11
-57.9299840090978
21
14.4924941458378
31
0.00000000000000
  0
LINE
  5
F105F0
330
F105F1
100
AcDbEntity
8
Geo
100
AcDbLine
10
-57.9299840090978
20
14.4924941458378
30
0.00000000000000
11
-57.9276506757645
21
14.4911711241809
31
0.00000000000000
  0
LINE
  5
F105F2
330
F105F3
100
AcDbEntity
8
Geo
100
AcDbLine
10
-57.9276506757645
20
14.4911711241809
30
0.00000000000000
11
-57.9253173424311
21
14.4898494111785
31
0.00000000000000
  0
LINE
  5
F105F4
330
F105F5
100
AcDbEntity
8
Geo
100
AcDbLine
10
-57.9253173424311
20
14.4898494111785
30
0.00000000000000
11
-57.9229840090978
21
14.4885291134370
31
0.00000000000000
  0
LINE
  5
F105F6
330
F105F7
100
AcDbEntity
8
Geo
100
AcDbLine
10
-57.9229840090978
20
14.4885291134370
30
0.00000000000000
11
-57.9206506757645
21
14.4872103374488
31
0.00000000000000
  0
LINE
  5
F105F8
330
F105F9
100
AcDbEntity
8
Geo
100
AcDbLine
10
-57.9206506757645
20
14.4872103374488
30
0.00000000000000
11
-57.9183173424312
21
14.4858931895838
31
0.00000000000000
  0
LINE
  5
F105FA
330
F105FB
100
AcDbEntity
8
Geo
100
AcDbLine
10
-57.9183173424312
20
14.4858931895838
30
0.00000000000000
11
-57.9159840090978
21
14.4845777760802
31
0.00000000000000
  0
LINE
  5
F105FC
330
F105FD
100
AcDbEntity
8
Geo
100
AcDbLine
10
-57.9159840090978
20
14.4845777760802
30
0.00000000000000
11
-57.9136506757645
21
14.4832642030366
31
0.00000000000000
  0
LINE
  5
F105FE
330
F105FF
100
AcDbEntity
8
Geo
100
AcDbLine
10
-57.9136506757645
20
14.4832642030366
30
0.00000000000000
11
-57.9113173424312
21
14.4819525764030
31
0.00000000000000
  0
LINE
  5
F10600
330
F10601
100
AcDbEntity
8
Geo
100
AcDbLine
10
-57.9113173424312
20
14.4819525764030
30
0.00000000000000
11
-57.9089840090978
21
14.4806430019723
31
0.00000000000000
  0
LINE
  5
F10602
330
F10603
100
AcDbEntity
8
Geo
100
AcDbLine
10
-57.9089840090978
20
14.4806430019723
30
0.00000000000000
11
-57.9066506757645
21
14.4793355853722
31
0.00000000000000
  0
LINE
  5
F10604
330
F10605
100
AcDbEntity
8
Geo
100
AcDbLine
10
-57.9066506757645
20
14.4793355853722
30
0.00000000000000
11
-57.9043173424312
21
14.4780304320561
31
0.00000000000000
  0
LINE
  5
F10606
330
F10607
100
AcDbEntity
8
Geo
100
AcDbLine
10
-57.9043173424312
20
14.4780304320561
30
0.00000000000000
11
-57.9019840090978
21
14.4767276472950
31
0.00000000000000
  0
LINE
  5
F10608
330
F10609
100
AcDbEntity
8
Geo
100
AcDbLine
10
-57.9019840090978
20
14.4767276472950
30
0.00000000000000
11
-57.8996506757645
21
14.4754273361686
31
0.00000000000000
  0
LINE
  5
F1060A
330
F1060B
100
AcDbEntity
8
Geo
100
AcDbLine
10
-57.8996506757645
20
14.4754273361686
30
0.00000000000000
11
-57.8973173424312
21
14.4741296035574
31
0.00000000000000
  0
LINE
  5
F1060C
330
F1060D
100
AcDbEntity
8
Geo
100
AcDbLine
10
-57.8973173424312
20
14.4741296035574
30
0.00000000000000
11
-57.8949840090978
21
14.4728345541337
31
0.00000000000000
  0
LINE
  5
F1060E
330
F1060F
100
AcDbEntity
8
Geo
100
AcDbLine
10
-57.8949840090978
20
14.4728345541337
30
0.00000000000000
11
-57.8926506757645
21
14.4715422923535
31
0.00000000000000
  0
LINE
  5
F10610
330
F10611
100
AcDbEntity
8
Geo
100
AcDbLine
10
-57.8926506757645
20
14.4715422923535
30
0.00000000000000
11
-57.8903173424312
21
14.4702529224479
31
0.00000000000000
  0
LINE
  5
F10612
330
F10613
100
AcDbEntity
8
Geo
100
AcDbLine
10
-57.8903173424312
20
14.4702529224479
30
0.00000000000000
11
-57.8879840090978
21
14.4689665484148
31
0.00000000000000
  0
LINE
  5
F10614
330
F10615
100
AcDbEntity
8
Geo
100
AcDbLine
10
-57.8879840090978
20
14.4689665484148
30
0.00000000000000
11
-57.8856506757645
21
14.4676832740104
31
0.00000000000000
  0
LINE
  5
F10616
330
F10617
100
AcDbEntity
8
Geo
100
AcDbLine
10
-57.8856506757645
20
14.4676832740104
30
0.00000000000000
11
-57.8833173424312
21
14.4664032027409
31
0.00000000000000
  0
LINE
  5
F10618
330
F10619
100
AcDbEntity
8
Geo
100
AcDbLine
10
-57.8833173424312
20
14.4664032027409
30
0.00000000000000
11
-57.8809840090978
21
14.4651264378541
31
0.00000000000000
  0
LINE
  5
F1061A
330
F1061B
100
AcDbEntity
8
Geo
100
AcDbLine
10
-57.8809840090978
20
14.4651264378541
30
0.00000000000000
11
-57.8786506757645
21
14.4638530823312
31
0.00000000000000
  0
LINE
  5
F1061C
330
F1061D
100
AcDbEntity
8
Geo
100
AcDbLine
10
-57.8786506757645
20
14.4638530823312
30
0.00000000000000
11
-57.8763173424312
21
14.4625832388785
31
0.00000000000000
  0
LINE
  5
F1061E
330
F1061F
100
AcDbEntity
8
Geo
100
AcDbLine
10
-57.8763173424312
20
14.4625832388785
30
0.00000000000000
11
-57.8739840090978
21
14.4613170099187
31
0.00000000000000
  0
LINE
  5
F10620
330
F10621
100
AcDbEntity
8
Geo
100
AcDbLine
10
-57.8739840090978
20
14.4613170099187
30
0.00000000000000
11
-57.8716506757645
21
14.4600544975833
31
0.00000000000000
  0
LINE
  5
F10622
330
F10623
100
AcDbEntity
8
Geo
100
AcDbLine
10
-57.8716506757645
20
14.4600544975833
30
0.00000000000000
11
-57.8693173424312
21
14.4587958037039
31
0.00000000000000
  0
LINE
  5
F10624
330
F10625
100
AcDbEntity
8
Geo
100
AcDbLine
10
-57.8693173424312
20
14.4587958037039
30
0.00000000000000
11
-57.8669840090978
21
14.4575410298039
31
0.00000000000000
  0
LINE
  5
F10626
330
F10627
100
AcDbEntity
8
Geo
100
AcDbLine
10
-57.8669840090978
20
14.4575410298039
30
0.00000000000000
11
-57.8646506757645
21
14.4562902770910
31
0.00000000000000
  0
LINE
  5
F10628
330
F10629
100
AcDbEntity
8
Geo
100
AcDbLine
10
-57.8646506757645
20
14.4562902770910
30
0.00000000000000
11
-57.8623173424312
21
14.4550436464480
31
0.00000000000000
  0
LINE
  5
F1062A
330
F1062B
100
AcDbEntity
8
Geo
100
AcDbLine
10
-57.8623173424312
20
14.4550436464480
30
0.00000000000000
11
-57.8599840090978
21
14.4538012384258
31
0.00000000000000
  0
LINE
  5
F1062C
330
F1062D
100
AcDbEntity
8
Geo
100
AcDbLine
10
-57.8599840090978
20
14.4538012384258
30
0.00000000000000
11
-57.8576506757645
21
14.4525631532341
31
0.00000000000000
  0
LINE
  5
F1062E
330
F1062F
100
AcDbEntity
8
Geo
100
AcDbLine
10
-57.8576506757645
20
14.4525631532341
30
0.00000000000000
11
-57.8553173424311
21
14.4513294907345
31
0.00000000000000
  0
LINE
  5
F10630
330
F10631
100
AcDbEntity
8
Geo
100
AcDbLine
10
-57.8553173424311
20
14.4513294907345
30
0.00000000000000
11
-57.8529840090978
21
14.4501003504315
31
0.00000000000000
  0
LINE
  5
F10632
330
F10633
100
AcDbEntity
8
Geo
100
AcDbLine
10
-57.8529840090978
20
14.4501003504315
30
0.00000000000000
11
-57.8506506757645
21
14.4488758314650
31
0.00000000000000
  0
LINE
  5
F10634
330
F10635
100
AcDbEntity
8
Geo
100
AcDbLine
10
-57.8506506757645
20
14.4488758314650
30
0.00000000000000
11
-57.8483173424312
21
14.4476560326021
31
0.00000000000000
  0
LINE
  5
F10636
330
F10637
100
AcDbEntity
8
Geo
100
AcDbLine
10
-57.8483173424312
20
14.4476560326021
30
0.00000000000000
11
-57.8459840090978
21
14.4464410522292
31
0.00000000000000
  0
LINE
  5
F10638
330
F10639
100
AcDbEntity
8
Geo
100
AcDbLine
10
-57.8459840090978
20
14.4464410522292
30
0.00000000000000
11
-57.8436506757645
21
14.4452309883441
31
0.00000000000000
  0
LINE
  5
F1063A
330
F1063B
100
AcDbEntity
8
Geo
100
AcDbLine
10
-57.8436506757645
20
14.4452309883441
30
0.00000000000000
11
-57.8413173424312
21
14.4440259385479
31
0.00000000000000
  0
LINE
  5
F1063C
330
F1063D
100
AcDbEntity
8
Geo
100
AcDbLine
10
-57.8413173424312
20
14.4440259385479
30
0.00000000000000
11
-57.8389840090978
21
14.4428260000375
31
0.00000000000000
  0
LINE
  5
F1063E
330
F1063F
100
AcDbEntity
8
Geo
100
AcDbLine
10
-57.8389840090978
20
14.4428260000375
30
0.00000000000000
11
-57.8366506757645
21
14.4416312695974
31
0.00000000000000
  0
LINE
  5
F10640
330
F10641
100
AcDbEntity
8
Geo
100
AcDbLine
10
-57.8366506757645
20
14.4416312695974
30
0.00000000000000
11
-57.8343173424311
21
14.4404418435920
31
0.00000000000000
  0
LINE
  5
F10642
330
F10643
100
AcDbEntity
8
Geo
100
AcDbLine
10
-57.8343173424311
20
14.4404418435920
30
0.00000000000000
11
-57.8319840090978
21
14.4392578179579
31
0.00000000000000
  0
LINE
  5
F10644
330
F10645
100
AcDbEntity
8
Geo
100
AcDbLine
10
-57.8319840090978
20
14.4392578179579
30
0.00000000000000
11
-57.8296506757645
21
14.4380792881962
31
0.00000000000000
  0
LINE
  5
F10646
330
F10647
100
AcDbEntity
8
Geo
100
AcDbLine
10
-57.8296506757645
20
14.4380792881962
30
0.00000000000000
11
-57.8273173424312
21
14.4369063493645
31
0.00000000000000
  0
LINE
  5
F10648
330
F10649
100
AcDbEntity
8
Geo
100
AcDbLine
10
-57.8273173424312
20
14.4369063493645
30
0.00000000000000
11
-57.8249840090978
21
14.4357390960696
31
0.00000000000000
  0
LINE
  5
F1064A
330
F1064B
100
AcDbEntity
8
Geo
100
AcDbLine
10
-57.8249840090978
20
14.4357390960696
30
0.00000000000000
11
-57.8226506757645
21
14.4345776224597
31
0.00000000000000
  0
LINE
  5
F1064C
330
F1064D
100
AcDbEntity
8
Geo
100
AcDbLine
10
-57.8226506757645
20
14.4345776224597
30
0.00000000000000
11
-57.8203173424312
21
14.4334220222169
31
0.00000000000000
  0
LINE
  5
F1064E
330
F1064F
100
AcDbEntity
8
Geo
100
AcDbLine
10
-57.8203173424312
20
14.4334220222169
30
0.00000000000000
11
-57.8179840090978
21
14.4322723885494
31
0.00000000000000
  0
LINE
  5
F10650
330
F10651
100
AcDbEntity
8
Geo
100
AcDbLine
10
-57.8179840090978
20
14.4322723885494
30
0.00000000000000
11
-57.8156506757645
21
14.4311288141842
31
0.00000000000000
  0
LINE
  5
F10652
330
F10653
100
AcDbEntity
8
Geo
100
AcDbLine
10
-57.8156506757645
20
14.4311288141842
30
0.00000000000000
11
-57.8133173424312
21
14.4299913913597
31
0.00000000000000
  0
LINE
  5
F10654
330
F10655
100
AcDbEntity
8
Geo
100
AcDbLine
10
-57.8133173424312
20
14.4299913913597
30
0.00000000000000
11
-57.8109840090978
21
14.4288602118180
31
0.00000000000000
  0
LINE
  5
F10656
330
F10657
100
AcDbEntity
8
Geo
100
AcDbLine
10
-57.8109840090978
20
14.4288602118180
30
0.00000000000000
11
-57.8086506757645
21
14.4277353667976
31
0.00000000000000
  0
LINE
  5
F10658
330
F10659
100
AcDbEntity
8
Geo
100
AcDbLine
10
-57.8086506757645
20
14.4277353667976
30
0.00000000000000
11
-57.8063173424312
21
14.4266169470261
31
0.00000000000000
  0
LINE
  5
F1065A
330
F1065B
100
AcDbEntity
8
Geo
100
AcDbLine
10
-57.8063173424312
20
14.4266169470261
30
0.00000000000000
11
-57.8039840090978
21
14.4255050427131
31
0.00000000000000
  0
LINE
  5
F1065C
330
F1065D
100
AcDbEntity
8
Geo
100
AcDbLine
10
-57.8039840090978
20
14.4255050427131
30
0.00000000000000
11
-57.8016506757645
21
14.4243997435422
31
0.00000000000000
  0
LINE
  5
F1065E
330
F1065F
100
AcDbEntity
8
Geo
100
AcDbLine
10
-57.8016506757645
20
14.4243997435422
30
0.00000000000000
11
-57.7993173424312
21
14.4233011386647
31
0.00000000000000
  0
LINE
  5
F10660
330
F10661
100
AcDbEntity
8
Geo
100
AcDbLine
10
-57.7993173424312
20
14.4233011386647
30
0.00000000000000
11
-57.7969840090978
21
14.4222093166916
31
0.00000000000000
  0
LINE
  5
F10662
330
F10663
100
AcDbEntity
8
Geo
100
AcDbLine
10
-57.7969840090978
20
14.4222093166916
30
0.00000000000000
11
-57.7946506757645
21
14.4211243656870
31
0.00000000000000
  0
LINE
  5
F10664
330
F10665
100
AcDbEntity
8
Geo
100
AcDbLine
10
-57.7946506757645
20
14.4211243656870
30
0.00000000000000
11
-57.7923173424312
21
14.4200463731609
31
0.00000000000000
  0
LINE
  5
F10666
330
F10667
100
AcDbEntity
8
Geo
100
AcDbLine
10
-57.7923173424312
20
14.4200463731609
30
0.00000000000000
11
-57.7899840090978
21
14.4189754260618
31
0.00000000000000
  0
LINE
  5
F10668
330
F10669
100
AcDbEntity
8
Geo
100
AcDbLine
10
-57.7899840090978
20
14.4189754260618
30
0.00000000000000
11
-57.7876506757645
21
14.4179116107700
31
0.00000000000000
  0
LINE
  5
F1066A
330
F1066B
100
AcDbEntity
8
Geo
100
AcDbLine
10
-57.7876506757645
20
14.4179116107700
30
0.00000000000000
11
-57.7853173424312
21
14.4168550130906
31
0.00000000000000
  0
LINE
  5
F1066C
330
F1066D
100
AcDbEntity
8
Geo
100
AcDbLine
10
-57.7853173424312
20
14.4168550130906
30
0.00000000000000
11
-57.7829840090978
21
14.4158057182466
31
0.00000000000000
  0
LINE
  5
F1066E
330
F1066F
100
AcDbEntity
8
Geo
100
AcDbLine
10
-57.7829840090978
20
14.4158057182466
30
0.00000000000000
11
-57.7806506757645
21
14.4147638108719
31
0.00000000000000
  0
LINE
  5
F10670
330
F10671
100
AcDbEntity
8
Geo
100
AcDbLine
10
-57.7806506757645
20
14.4147638108719
30
0.00000000000000
11
-57.7783173424312
21
14.4137293750046
31
0.00000000000000
  0
LINE
  5
F10672
330
F10673
100
AcDbEntity
8
Geo
100
AcDbLine
10
-57.7783173424312
20
14.4137293750046
30
0.00000000000000
11
-57.7759840090978
21
14.4127024940801
31
0.00000000000000
  0
LINE
  5
F10674
330
F10675
100
AcDbEntity
8
Geo
100
AcDbLine
10
-57.7759840090978
20
14.4127024940801
30
0.00000000000000
11
-57.7736506757645
21
14.4116832509243
31
0.00000000000000
  0
LINE
  5
F10676
330
F10677
100
AcDbEntity
8
Geo
100
AcDbLine
10
-57.7736506757645
20
14.4116832509243
30
0.00000000000000
11
-57.7713173424312
21
14.4106717277474
31
0.00000000000000
  0
LINE
  5
F10678
330
F10679
100
AcDbEntity
8
Geo
100
AcDbLine
10
-57.7713173424312
20
14.4106717277474
30
0.00000000000000
11
-57.7689840090978
21
14.4096680061367
31
0.00000000000000
  0
LINE
  5
F1067A
330
F1067B
100
AcDbEntity
8
Geo
100
AcDbLine
10
-57.7689840090978
20
14.4096680061367
30
0.00000000000000
11
-57.7666506757645
21
14.4086721670502
31
0.00000000000000
  0
LINE
  5
F1067C
330
F1067D
100
AcDbEntity
8
Geo
100
AcDbLine
10
-57.7666506757645
20
14.4086721670502
30
0.00000000000000
11
-57.7643173424312
21
14.4076842908102
31
0.00000000000000
  0
LINE
  5
F1067E
330
F1067F
100
AcDbEntity
8
Geo
100
AcDbLine
10
-57.7643173424312
20
14.4076842908102
30
0.00000000000000
11
-57.7619840090978
21
14.4067044570967
31
0.00000000000000
  0
LINE
  5
F10680
330
F10681
100
AcDbEntity
8
Geo
100
AcDbLine
10
-57.7619840090978
20
14.4067044570967
30
0.00000000000000
11
-57.7596506757645
21
14.4057327449411
31
0.00000000000000
  0
LINE
  5
F10682
330
F10683
100
AcDbEntity
8
Geo
100
AcDbLine
10
-57.7596506757645
20
14.4057327449411
30
0.00000000000000
11
-57.7573173424312
21
14.4047692327196
31
0.00000000000000
  0
LINE
  5
F10684
330
F10685
100
AcDbEntity
8
Geo
100
AcDbLine
10
-57.7573173424312
20
14.4047692327196
30
0.00000000000000
11
-57.7549840090978
21
14.4038139981471
31
0.00000000000000
  0
LINE
  5
F10686
330
F10687
100
AcDbEntity
8
Geo
100
AcDbLine
10
-57.7549840090978
20
14.4038139981471
30
0.00000000000000
11
-57.7526506757645
21
14.4028671182708
31
0.00000000000000
  0
LINE
  5
F10688
330
F10689
100
AcDbEntity
8
Geo
100
AcDbLine
10
-57.7526506757645
20
14.4028671182708
30
0.00000000000000
11
-57.7503173424312
21
14.4019286694640
31
0.00000000000000
  0
LINE
  5
F1068A
330
F1068B
100
AcDbEntity
8
Geo
100
AcDbLine
10
-57.7503173424312
20
14.4019286694640
30
0.00000000000000
11
-57.7479840090978
21
14.4009987274200
31
0.00000000000000
  0
LINE
  5
F1068C
330
F1068D
100
AcDbEntity
8
Geo
100
AcDbLine
10
-57.7479840090978
20
14.4009987274200
30
0.00000000000000
11
-57.7456506757645
21
14.4000773671460
31
0.00000000000000
  0
LINE
  5
F1068E
330
F1068F
100
AcDbEntity
8
Geo
100
AcDbLine
10
-57.7456506757645
20
14.4000773671460
30
0.00000000000000
11
-57.7433173424312
21
14.3991646629570
31
0.00000000000000
  0
LINE
  5
F10690
330
F10691
100
AcDbEntity
8
Geo
100
AcDbLine
10
-57.7433173424312
20
14.3991646629570
30
0.00000000000000
11
-57.7409840090978
21
14.3982606884697
31
0.00000000000000
  0
LINE
  5
F10692
330
F10693
100
AcDbEntity
8
Geo
100
AcDbLine
10
-57.7409840090978
20
14.3982606884697
30
0.00000000000000
11
-57.7386506757645
21
14.3973655165970
31
0.00000000000000
  0
LINE
  5
F10694
330
F10695
100
AcDbEntity
8
Geo
100
AcDbLine
10
-18.3383173424312
20
15.9073958766953
30
0.00000000000000
11
-18.3383173424312
21
14.5073958766953
31
0.00000000000000
  0
ARC
  5
F10696
330
F10697
100
AcDbEntity
8
Geo
100
AcDbCircle
10
-58.1883173424312
20
14.5073958766953
30
0.00000000000000
 40
0.150000000000000
100
AcDbArc
 50
180.000000000000
 51
270.000000000000
  0
LINE
  5
F10698
330
F10699
100
AcDbEntity
8
Geo
100
AcDbLine
10
-58.1883173424312
20
14.3573958766953
30
0.00000000000000
11
-57.7383173424312
21
14.3573958766953
31
0.00000000000000
  0
LINE
  5
F1069A
330
F1069B
100
AcDbEntity
8
Geo
100
AcDbLine
10
-57.7383173424312
20
14.3573958766953
30
0.00000000000000
11
-57.7376113364336
21
14.3573958766953
31
0.00000000000000
  0
LINE
  5
F1069C
330
F1069D
100
AcDbEntity
8
Geo
100
AcDbLine
10
-57.7376113364336
20
14.3573958766953
30
0.00000000000000
11
-50.8333173424312
21
12.5073958766953
31
0.00000000000000
  0
LINE
  5
F1069E
330
F1069F
100
AcDbEntity
8
Geo
100
AcDbLine
10
-50.8333173424312
20
12.5073958766953
30
0.00000000000000
11
-18.9383173424312
21
12.5073958766953
31
0.00000000000000
  0
LINE
  5
F106A0
330
F106A1
100
AcDbEntity
8
Geo
100
AcDbLine
10
-18.9383173424312
20
12.5073958766953
30
0.00000000000000
11
-18.3383173424312
21
13.1073958766953
31
0.00000000000000
  0
LINE
  5
F106A2
330
F106A3
100
AcDbEntity
8
Geo
100
AcDbLine
10
-58.1883173424312
20
14.6573958766953
30
0.00000000000000
11
-58.1883173424312
21
14.3573958766953
31
0.00000000000000
  0
LINE
  5
F106A4
330
F106A5
100
AcDbEntity
8
Geo
100
AcDbLine
10
-57.7383173424312
20
14.6573958766953
30
0.00000000000000
11
-57.7383173424312
21
14.3573958766953
31
0.00000000000000
  0
LINE
  5
F106A6
330
F106A7
100
AcDbEntity
8
Geo
100
AcDbLine
10
-57.7383173424312
20
14.6573958766953
30
0.00000000000000
11
-57.7383173424312
21
14.3573958766953
31
0.00000000000000
  0
LINE
  5
F106A8
330
F106A9
100
AcDbEntity
8
Geo
100
AcDbLine
10
-57.7376113364336
20
14.6573958766953
30
0.00000000000000
11
-57.7376113364336
21
14.3573958766953
31
0.00000000000000
  0
LINE
  5
F106AA
330
F106AB
100
AcDbEntity
8
Geo
100
AcDbLine
10
-50.8333173424312
20
16.5073958766953
30
0.00000000000000
11
-50.8333173424312
21
12.5073958766953
31
0.00000000000000
  0
LINE
  5
F106AC
330
F106AD
100
AcDbEntity
8
Geo
100
AcDbLine
10
-50.8333173424312
20
16.5073958766953
30
0.00000000000000
11
-50.8333173424312
21
12.5073958766953
31
0.00000000000000
  0
LINE
  5
F106AE
330
F106AF
100
AcDbEntity
8
Geo
100
AcDbLine
10
-18.9383173424312
20
16.5073958766953
30
0.00000000000000
11
-18.9383173424312
21
12.5073958766953
31
0.00000000000000
  0
LINE
  5
F106B0
330
F106B1
100
AcDbEntity
8
Geo
100
AcDbLine
10
-18.3383173424312
20
15.9073958766953
30
0.00000000000000
11
-18.3383173424312
21
13.1073958766953
31
0.00000000000000
  0
LINE
  5
F106B2
330
F106B3
100
AcDbEntity
8
Geo
 6
Dashdot
100
AcDbLine
10
-58.3383173424312
20
14.5073958766953
30
0.00000000000000
11
-18.3383173424312
21
14.5073958766953
31
0.00000000000000
0
VIEWPORT
5
294
102
{ACAD_XDICTIONARY
360
58A
102
}
330
25D
100
AcDbEntity
67
1
8
0
60
1
100
AcDbViewport
10
0.0
20
0.0
30
0.0
40
10.0
41
10.0
68
-1
69
1
12
0.0
22
0.0
13
0.0
23
0.0
14
1.0
24
1.0
15
0.0
25
0.0
16
0.0
26
0.0
36
1.0
17
0.0
27
0.0
37
0.0
42
0.0
43
0.0
44
0.0
45
10.0
50
0.0
51
0.0000000000007958
72
100
90
32800
1

281
0
71
0
74
0
110
0.0
120
0.0
130
0.0
111
1.0
121
0.0
131
0.0
112
0.0
122
1.0
132
0.0
79
0
146
0.0
1001
VD_INVISIBLE_NOT_FOR_READ
1000
VD_INVISIBLE_NOT_FOR_READ
0
VIEWPORT
5
295
102
{ACAD_XDICTIONARY
360
58C
102
}
330
25D
100
AcDbEntity
67
1
8
0
60
1
100
AcDbViewport
10
0.0
20
0.0
30
0.0
40
10.0
41
10.0
68
0
69
2
12
0.0
22
0.0
13
0.0
23
0.0
14
1.0
24
1.0
15
0.0
25
0.0
16
0.0
26
0.0
36
1.0
17
0.0
27
0.0
37
0.0
42
0.0
43
0.0
44
0.0
45
10.0
50
0.0
51
0.0000000000007958
72
100
90
163872
1

281
0
71
0
74
0
110
0.0
120
0.0
130
0.0
111
1.0
121
0.0
131
0.0
112
0.0
122
1.0
132
0.0
79
0
146
0.0
1001
VD_INVISIBLE_NOT_FOR_READ
1000
VD_INVISIBLE_NOT_FOR_READ
0
ENDSEC
0
SECTION
2
OBJECTS
0
DICTIONARY
5
13
330
0
100
AcDbDictionary
281
1
3
ACAD_COLOR
350
FA7
3
ACAD_GROUP
350
14
3
ACAD_LAYOUT
350
FCF
3
ACAD_MATERIAL
350
F7A
3
ACAD_MLEADERSTYLE
350
FCD
3
ACAD_MLINESTYLE
350
16
3
ACAD_PLOTSETTINGS
350
17
3
ACAD_PLOTSTYLENAME
350
18
3
ACAD_SCALELIST
350
FAB
3
ACAD_TABLESTYLE
350
FA8
3
ACAD_VISUALSTYLE
350
F93
3
ACDB_RECOMPOSE_DATA
350
107E
3
AcDbVariableDictionary
350
FF0
3
DWGPROPS
350
107F
0
DICTIONARY
5
FA7
102
{ACAD_REACTORS
330
13
102
}
330
13
100
AcDbDictionary
281
1
0
DICTIONARY
5
14
330
13
100
AcDbDictionary
281
1
0
DICTIONARY
5
FCF
102
{ACAD_REACTORS
330
13
102
}
330
13
100
AcDbDictionary
281
1
3
Layout1
350
FD1
3
Model
350
FD0
0
DICTIONARY
5
F7A
102
{ACAD_REACTORS
330
13
102
}
330
13
100
AcDbDictionary
281
1
3
ByBlock
350
F83
3
ByLayer
350
F7B
3
Global
350
F8B
0
DICTIONARY
5
FCD
102
{ACAD_REACTORS
330
13
102
}
330
13
100
AcDbDictionary
281
1
3
Standard
350
FCE
0
DICTIONARY
5
16
330
13
100
AcDbDictionary
281
1
3
Standard
350
FAA
0
DICTIONARY
5
17
102
{ACAD_REACTORS
330
13
102
}
330
13
100
AcDbDictionary
281
1
0
ACDBDICTIONARYWDFLT
5
18
102
{ACAD_REACTORS
330
13
102
}
330
13
100
AcDbDictionary
281
1
3
Normal
350
19
100
AcDbDictionaryWithDefault
340
19
0
DICTIONARY
5
FAB
102
{ACAD_REACTORS
330
13
102
}
330
13
100
AcDbDictionary
281
1
3
A0
350
FAC
3
A1
350
FAD
3
A2
350
FAE
3
A3
350
FAF
3
A4
350
FB0
3
A5
350
FB1
3
A6
350
FB2
3
A7
350
FB3
3
A8
350
FB4
3
A9
350
FB5
3
B0
350
FB6
3
B1
350
FB7
3
B2
350
FB8
3
B3
350
FB9
3
B4
350
FBA
3
B5
350
FBB
3
B6
350
FBC
3
B7
350
FBD
3
B8
350
FBE
3
B9
350
FBF
3
C0
350
FC0
3
C1
350
FC1
3
C2
350
FC2
3
C3
350
FC3
3
C4
350
FC4
3
C5
350
FC5
3
C6
350
FC6
3
C7
350
FC7
3
C8
350
FC8
3
C9
350
FC9
3
D0
350
FCA
3
D1
350
FCB
3
D2
350
FCC
0
DICTIONARY
5
FA8
102
{ACAD_REACTORS
330
13
102
}
330
13
100
AcDbDictionary
281
1
3
Standard
350
FA9
0
DICTIONARY
5
F93
102
{ACAD_REACTORS
330
13
102
}
330
13
100
AcDbDictionary
281
1
3
2dWireframe
350
F99
3
3D Hidden
350
F9B
3
3dWireframe
350
F9A
3
Basic
350
F98
3
Brighten
350
F9F
3
ColorChange
350
FA3
3
Conceptual
350
F9C
3
Dim
350
F9E
3
EdgeColorOff
350
FA6
3
Facepattern
350
FA2
3
Flat
350
F94
3
FlatWithEdges
350
F95
3
Gouraud
350
F96
3
GouraudWithEdges
350
F97
3
JitterOff
350
FA4
3
Linepattern
350
FA1
3
OverhangOff
350
FA5
3
Realistic
350
F9D
3
Thicken
350
FA0
0
XRECORD
5
107E
102
{ACAD_REACTORS
330
13
102
}
330
13
100
AcDbXrecord
280
1
90
1
330
FA9
0
DICTIONARY
5
FF0
102
{ACAD_REACTORS
330
13
102
}
330
13
100
AcDbDictionary
281
1
3
CANNOSCALE
350
FF3
3
CMLEADERSTYLE
350
FF2
3
CTABLESTYLE
350
FF1
3
DIMASSOC
350
FF6
3
INDEXCTL
350
FF5
3
SORTENTS
350
FF4
3
XCLIPFRAME
350
1078
0
XRECORD
5
107F
102
{ACAD_REACTORS
330
13
102
}
330
13
100
AcDbXrecord
280
1
1
DWGPROPS COOKIE
2

3

4

6

7

8

9

300
=
301
=
302
=
303
=
304
=
305
=
306
=
307
=
308
=
309
=
40
0.0
41
0.0
42
0.0
1

90
0
0
LAYOUT
5
FD1
102
{ACAD_XDICTIONARY
360
10A9
102
}
102
{ACAD_REACTORS
330
FCF
102
}
330
FCF
100
AcDbPlotSettings
1

2
Microsoft XPS Document Writer
4

6

40
0.0
41
0.0
42
0.0
43
0.0
44
0.0
45
0.0
46
0.0
47
0.0
48
0.0
49
0.0
140
0.0
141
0.0
142
1.0
143
1.0
70
688
72
0
73
0
74
5
7

75
16
147
1.0
148
0.0
149
0.0
100
AcDbLayout
1
Layout1
70
1
71
1
10
0.0
20
0.0
11
12.0
21
9.0
12
0.0
22
0.0
32
0.0
14
1.000000000000000E+20
24
1.000000000000000E+20
34
1.000000000000000E+20
15
-1.000000000000000E+20
25
-1.000000000000000E+20
35
-1.000000000000000E+20
146
0.0
13
0.0
23
0.0
33
0.0
16
1.0
26
0.0
36
0.0
17
0.0
27
1.0
37
0.0
76
0
330
25D
0
LAYOUT
5
FD0
102
{ACAD_XDICTIONARY
360
10A7
102
}
102
{ACAD_REACTORS
330
FCF
102
}
330
FCF
100
AcDbPlotSettings
1

2
Microsoft XPS Document Writer
4

6

40
0.0
41
0.0
42
0.0
43
0.0
44
0.0
45
0.0
46
0.0
47
0.0
48
0.0
49
0.0
140
0.0
141
0.0
142
1.0
143
1.0
70
1712
72
0
73
0
74
0
7

75
0
147
1.0
148
0.0
149
0.0
100
AcDbLayout
1
Model
70
1
71
0
10
0.0
20
0.0
11
12.0
21
9.0
12
0.0
22
0.0
32
0.0
14
0.0
24
0.0
34
0.0
15
0.0
25
0.0
35
0.0
146
0.0
13
0.0
23
0.0
33
0.0
16
1.0
26
0.0
36
0.0
17
0.0
27
1.0
37
0.0
76
0
330
261
331
26B
0
MATERIAL
5
F83
102
{ACAD_XDICTIONARY
360
F84
102
}
102
{ACAD_REACTORS
330
F7A
102
}
330
F7A
100
AcDbMaterial
1
ByBlock
72
0
43
0.0208333333333333
43
0.0
43
0.0
43
0.0
43
0.0
43
0.0208333333333333
43
0.0
43
0.0
43
0.0
43
0.0
43
1.0
43
0.0
43
0.0
43
0.0
43
0.0
43
1.0
77
0
47
0.0208333333333333
47
0.0
47
0.0
47
0.0
47
0.0
47
0.0208333333333333
47
0.0
47
0.0
47
0.0
47
0.0
47
1.0
47
0.0
47
0.0
47
0.0
47
0.0
47
1.0
171
0
49
0.0208333333333333
49
0.0
49
0.0
49
0.0
49
0.0
49
0.0208333333333333
49
0.0
49
0.0
49
0.0
49
0.0
49
1.0
49
0.0
49
0.0
49
0.0
49
0.0
49
1.0
175
0
142
0.0208333333333333
142
0.0
142
0.0
142
0.0
142
0.0
142
0.0208333333333333
142
0.0
142
0.0
142
0.0
142
0.0
142
1.0
142
0.0
142
0.0
142
0.0
142
0.0
142
1.0
179
0
144
0.0208333333333333
144
0.0
144
0.0
144
0.0
144
0.0
144
0.0208333333333333
144
0.0
144
0.0
144
0.0
144
0.0
144
1.0
144
0.0
144
0.0
144
0.0
144
0.0
144
1.0
147
0.0208333333333333
147
0.0
147
0.0
147
0.0
147
0.0
147
0.0208333333333333
147
0.0
147
0.0
147
0.0
147
0.0
147
1.0
147
0.0
147
0.0
147
0.0
147
0.0
147
1.0
0
MATERIAL
5
F7B
102
{ACAD_XDICTIONARY
360
F7C
102
}
102
{ACAD_REACTORS
330
F7A
102
}
330
F7A
100
AcDbMaterial
1
ByLayer
72
0
43
0.0208333333333333
43
0.0
43
0.0
43
0.0
43
0.0
43
0.0208333333333333
43
0.0
43
0.0
43
0.0
43
0.0
43
1.0
43
0.0
43
0.0
43
0.0
43
0.0
43
1.0
77
0
47
0.0208333333333333
47
0.0
47
0.0
47
0.0
47
0.0
47
0.0208333333333333
47
0.0
47
0.0
47
0.0
47
0.0
47
1.0
47
0.0
47
0.0
47
0.0
47
0.0
47
1.0
171
0
49
0.0208333333333333
49
0.0
49
0.0
49
0.0
49
0.0
49
0.0208333333333333
49
0.0
49
0.0
49
0.0
49
0.0
49
1.0
49
0.0
49
0.0
49
0.0
49
0.0
49
1.0
175
0
142
0.0208333333333333
142
0.0
142
0.0
142
0.0
142
0.0
142
0.0208333333333333
142
0.0
142
0.0
142
0.0
142
0.0
142
1.0
142
0.0
142
0.0
142
0.0
142
0.0
142
1.0
179
0
144
0.0208333333333333
144
0.0
144
0.0
144
0.0
144
0.0
144
0.0208333333333333
144
0.0
144
0.0
144
0.0
144
0.0
144
1.0
144
0.0
144
0.0
144
0.0
144
0.0
144
1.0
147
0.0208333333333333
147
0.0
147
0.0
147
0.0
147
0.0
147
0.0208333333333333
147
0.0
147
0.0
147
0.0
147
0.0
147
1.0
147
0.0
147
0.0
147
0.0
147
0.0
147
1.0
0
MATERIAL
5
F8B
102
{ACAD_XDICTIONARY
360
F8C
102
}
102
{ACAD_REACTORS
330
F7A
102
}
330
F7A
100
AcDbMaterial
1
Global
72
0
43
0.0208333333333333
43
0.0
43
0.0
43
0.0
43
0.0
43
0.0208333333333333
43
0.0
43
0.0
43
0.0
43
0.0
43
1.0
43
0.0
43
0.0
43
0.0
43
0.0
43
1.0
77
0
47
0.0208333333333333
47
0.0
47
0.0
47
0.0
47
0.0
47
0.0208333333333333
47
0.0
47
0.0
47
0.0
47
0.0
47
1.0
47
0.0
47
0.0
47
0.0
47
0.0
47
1.0
171
0
49
0.0208333333333333
49
0.0
49
0.0
49
0.0
49
0.0
49
0.0208333333333333
49
0.0
49
0.0
49
0.0
49
0.0
49
1.0
49
0.0
49
0.0
49
0.0
49
0.0
49
1.0
175
0
142
0.0208333333333333
142
0.0
142
0.0
142
0.0
142
0.0
142
0.0208333333333333
142
0.0
142
0.0
142
0.0
142
0.0
142
1.0
142
0.0
142
0.0
142
0.0
142
0.0
142
1.0
179
0
144
0.0208333333333333
144
0.0
144
0.0
144
0.0
144
0.0
144
0.0208333333333333
144
0.0
144
0.0
144
0.0
144
0.0
144
1.0
144
0.0
144
0.0
144
0.0
144
0.0
144
1.0
147
0.0208333333333333
147
0.0
147
0.0
147
0.0
147
0.0
147
0.0208333333333333
147
0.0
147
0.0
147
0.0
147
0.0
147
1.0
147
0.0
147
0.0
147
0.0
147
0.0
147
1.0
0
MLEADERSTYLE
5
FCE
102
{ACAD_REACTORS
330
FCD
102
}
330
FCD
100
AcDbMLeaderStyle
170
2
171
1
172
0
90
2
40
0.0
41
0.0
173
1
91
-1056964608
340
256
92
-2
290
1
42
0.09
291
1
43
0.36
3
Standard
44
0.18
300

342
253
174
1
178
6
175
1
176
0
93
-1056964608
45
0.18
292
0
297
0
46
0.18
94
-1056964608
47
1.0
49
1.0
140
1.0
293
1
141
0.0
294
1
177
0
142
1.0
295
0
296
0
143
0.125
1001
ACAD_MLEADERVER
1070
2
0
MLINESTYLE
5
FAA
102
{ACAD_REACTORS
330
16
102
}
330
16
100
AcDbMlineStyle
2
STANDARD
70
0
3

62
256
51
90.0
52
90.0
71
2
49
0.5
62
256
6
BYLAYER
49
-0.5
62
256
6
BYLAYER
0
ACDBPLACEHOLDER
5
19
102
{ACAD_REACTORS
330
18
102
}
330
18
0
SCALE
5
FAC
102
{ACAD_REACTORS
330
FAB
102
}
330
FAB
100
AcDbScale
70
0
300
1:1
140
1.0
141
1.0
290
1
0
SCALE
5
FAD
102
{ACAD_REACTORS
330
FAB
102
}
330
FAB
100
AcDbScale
70
0
300
1:2
140
1.0
141
2.0
290
0
0
SCALE
5
FAE
102
{ACAD_REACTORS
330
FAB
102
}
330
FAB
100
AcDbScale
70
0
300
1:4
140
1.0
141
4.0
290
0
0
SCALE
5
FAF
102
{ACAD_REACTORS
330
FAB
102
}
330
FAB
100
AcDbScale
70
0
300
1:5
140
1.0
141
5.0
290
0
0
SCALE
5
FB0
102
{ACAD_REACTORS
330
FAB
102
}
330
FAB
100
AcDbScale
70
0
300
1:8
140
1.0
141
8.0
290
0
0
SCALE
5
FB1
102
{ACAD_REACTORS
330
FAB
102
}
330
FAB
100
AcDbScale
70
0
300
1:10
140
1.0
141
10.0
290
0
0
SCALE
5
FB2
102
{ACAD_REACTORS
330
FAB
102
}
330
FAB
100
AcDbScale
70
0
300
1:16
140
1.0
141
16.0
290
0
0
SCALE
5
FB3
102
{ACAD_REACTORS
330
FAB
102
}
330
FAB
100
AcDbScale
70
0
300
1:20
140
1.0
141
20.0
290
0
0
SCALE
5
FB4
102
{ACAD_REACTORS
330
FAB
102
}
330
FAB
100
AcDbScale
70
0
300
1:30
140
1.0
141
30.0
290
0
0
SCALE
5
FB5
102
{ACAD_REACTORS
330
FAB
102
}
330
FAB
100
AcDbScale
70
0
300
1:40
140
1.0
141
40.0
290
0
0
SCALE
5
FB6
102
{ACAD_REACTORS
330
FAB
102
}
330
FAB
100
AcDbScale
70
0
300
1:50
140
1.0
141
50.0
290
0
0
SCALE
5
FB7
102
{ACAD_REACTORS
330
FAB
102
}
330
FAB
100
AcDbScale
70
0
300
1:100
140
1.0
141
100.0
290
0
0
SCALE
5
FB8
102
{ACAD_REACTORS
330
FAB
102
}
330
FAB
100
AcDbScale
70
0
300
2:1
140
2.0
141
1.0
290
0
0
SCALE
5
FB9
102
{ACAD_REACTORS
330
FAB
102
}
330
FAB
100
AcDbScale
70
0
300
4:1
140
4.0
141
1.0
290
0
0
SCALE
5
FBA
102
{ACAD_REACTORS
330
FAB
102
}
330
FAB
100
AcDbScale
70
0
300
8:1
140
8.0
141
1.0
290
0
0
SCALE
5
FBB
102
{ACAD_REACTORS
330
FAB
102
}
330
FAB
100
AcDbScale
70
0
300
10:1
140
10.0
141
1.0
290
0
0
SCALE
5
FBC
102
{ACAD_REACTORS
330
FAB
102
}
330
FAB
100
AcDbScale
70
0
300
100:1
140
100.0
141
1.0
290
0
0
SCALE
5
FBD
102
{ACAD_REACTORS
330
FAB
102
}
330
FAB
100
AcDbScale
70
0
300
1/128" = 1'-0"
140
0.0078125
141
12.0
290
0
0
SCALE
5
FBE
102
{ACAD_REACTORS
330
FAB
102
}
330
FAB
100
AcDbScale
70
0
300
1/64" = 1'-0"
140
0.015625
141
12.0
290
0
0
SCALE
5
FBF
102
{ACAD_REACTORS
330
FAB
102
}
330
FAB
100
AcDbScale
70
0
300
1/32" = 1'-0"
140
0.03125
141
12.0
290
0
0
SCALE
5
FC0
102
{ACAD_REACTORS
330
FAB
102
}
330
FAB
100
AcDbScale
70
0
300
1/16" = 1'-0"
140
0.0625
141
12.0
290
0
0
SCALE
5
FC1
102
{ACAD_REACTORS
330
FAB
102
}
330
FAB
100
AcDbScale
70
0
300
3/32" = 1'-0"
140
0.09375
141
12.0
290
0
0
SCALE
5
FC2
102
{ACAD_REACTORS
330
FAB
102
}
330
FAB
100
AcDbScale
70
0
300
1/8" = 1'-0"
140
0.125
141
12.0
290
0
0
SCALE
5
FC3
102
{ACAD_REACTORS
330
FAB
102
}
330
FAB
100
AcDbScale
70
0
300
3/16" = 1'-0"
140
0.1875
141
12.0
290
0
0
SCALE
5
FC4
102
{ACAD_REACTORS
330
FAB
102
}
330
FAB
100
AcDbScale
70
0
300
1/4" = 1'-0"
140
0.25
141
12.0
290
0
0
SCALE
5
FC5
102
{ACAD_REACTORS
330
FAB
102
}
330
FAB
100
AcDbScale
70
0
300
3/8" = 1'-0"
140
0.375
141
12.0
290
0
0
SCALE
5
FC6
102
{ACAD_REACTORS
330
FAB
102
}
330
FAB
100
AcDbScale
70
0
300
1/2" = 1'-0"
140
0.5
141
12.0
290
0
0
SCALE
5
FC7
102
{ACAD_REACTORS
330
FAB
102
}
330
FAB
100
AcDbScale
70
0
300
3/4" = 1'-0"
140
0.75
141
12.0
290
0
0
SCALE
5
FC8
102
{ACAD_REACTORS
330
FAB
102
}
330
FAB
100
AcDbScale
70
0
300
1" = 1'-0"
140
1.0
141
12.0
290
0
0
SCALE
5
FC9
102
{ACAD_REACTORS
330
FAB
102
}
330
FAB
100
AcDbScale
70
0
300
1-1/2" = 1'-0"
140
1.5
141
12.0
290
0
0
SCALE
5
FCA
102
{ACAD_REACTORS
330
FAB
102
}
330
FAB
100
AcDbScale
70
0
300
3" = 1'-0"
140
3.0
141
12.0
290
0
0
SCALE
5
FCB
102
{ACAD_REACTORS
330
FAB
102
}
330
FAB
100
AcDbScale
70
0
300
6" = 1'-0"
140
6.0
141
12.0
290
0
0
SCALE
5
FCC
102
{ACAD_REACTORS
330
FAB
102
}
330
FAB
100
AcDbScale
70
0
300
1'-0" = 1'-0"
140
12.0
141
12.0
290
0
0
TABLESTYLE
5
FA9
102
{ACAD_XDICTIONARY
360
FF8
102
}
102
{ACAD_REACTORS
330
FA8
102
}
330
FA8
100
AcDbTableStyle
3
Standard
70
0
71
0
40
0.06
41
0.06
280
0
281
0
7
Standard
140
0.18
170
2
62
0
63
7
283
0
274
-2
284
1
64
0
275
-2
285
1
65
0
276
-2
286
1
66
0
277
-2
287
1
67
0
278
-2
288
1
68
0
279
-2
289
1
69
0
7
Standard
140
0.25
170
5
62
0
63
7
283
0
274
-2
284
1
64
0
275
-2
285
1
65
0
276
-2
286
1
66
0
277
-2
287
1
67
0
278
-2
288
1
68
0
279
-2
289
1
69
0
7
Standard
140
0.18
170
5
62
0
63
7
283
0
274
-2
284
1
64
0
275
-2
285
1
65
0
276
-2
286
1
66
0
277
-2
287
1
67
0
278
-2
288
1
68
0
279
-2
289
1
69
0
0
VISUALSTYLE
5
F99
102
{ACAD_XDICTIONARY
360
108A
102
}
102
{ACAD_REACTORS
330
F93
102
}
330
F93
100
AcDbVisualStyle
2

70
4
71
0
72
2
73
0
90
0
40
-0.6
41
-30.0
62
5
63
7
74
1
91
4
64
7
65
257
75
1
175
1
42
1.0
92
0
66
257
43
1.0
76
1
77
6
78
2
67
7
79
5
170
0
171
0
290
0
174
0
93
1
44
0.0
173
0
291
0
45
0.0
1001
ACAD
1000
AcDbSavedByObjectVersion
1070
0
0
VISUALSTYLE
5
F9B
102
{ACAD_XDICTIONARY
360
108E
102
}
102
{ACAD_REACTORS
330
F93
102
}
330
F93
100
AcDbVisualStyle
2

70
6
71
1
72
2
73
2
90
0
40
-0.6
41
-30.0
62
5
63
7
74
2
91
2
64
7
65
257
75
2
175
1
42
179.0
92
0
66
257
43
1.0
76
1
77
6
78
2
67
7
79
3
170
0
171
0
290
0
174
0
93
1
44
0.0
173
0
291
0
45
0.0
1001
ACAD
1000
AcDbSavedByObjectVersion
1070
0
0
VISUALSTYLE
5
F9A
102
{ACAD_XDICTIONARY
360
108C
102
}
102
{ACAD_REACTORS
330
F93
102
}
330
F93
100
AcDbVisualStyle
2

70
5
71
0
72
2
73
0
90
0
40
-0.6
41
-30.0
62
5
63
7
74
1
91
4
64
7
65
257
75
1
175
1
42
1.0
92
0
66
257
43
1.0
76
1
77
6
78
2
67
7
79
5
170
0
171
0
290
0
174
0
93
1
44
0.0
173
0
291
0
45
0.0
1001
ACAD
1000
AcDbSavedByObjectVersion
1070
0
0
VISUALSTYLE
5
F98
102
{ACAD_XDICTIONARY
360
1088
102
}
102
{ACAD_REACTORS
330
F93
102
}
330
F93
100
AcDbVisualStyle
2

70
7
71
1
72
0
73
1
90
0
40
-0.6
41
-30.0
62
5
63
7
74
0
91
4
64
7
65
257
75
1
175
1
42
1.0
92
8
66
7
43
1.0
76
1
77
6
78
2
67
7
79
5
170
0
171
0
290
0
174
0
93
1
44
0.0
173
0
291
1
45
0.0
1001
ACAD
1000
AcDbSavedByObjectVersion
1070
0
0
VISUALSTYLE
5
F9F
102
{ACAD_XDICTIONARY
360
1096
102
}
102
{ACAD_REACTORS
330
F93
102
}
330
F93
100
AcDbVisualStyle
2

70
12
71
2
72
2
73
0
90
0
40
-0.6
41
-30.0
62
5
63
7
74
1
91
4
64
7
65
257
75
1
175
1
42
1.0
92
8
66
7
43
1.0
76
1
77
6
78
2
67
7
79
5
170
0
171
0
290
0
174
0
93
1
44
50.0
173
0
291
1
45
0.0
1001
ACAD
1000
AcDbSavedByObjectVersion
1070
0
0
VISUALSTYLE
5
FA3
102
{ACAD_XDICTIONARY
360
109E
102
}
102
{ACAD_REACTORS
330
F93
102
}
330
F93
100
AcDbVisualStyle
2

70
16
71
2
72
2
73
3
90
0
40
-0.6
41
-30.0
62
5
63
8
74
1
91
4
64
7
65
257
75
1
175
1
42
1.0
92
8
66
8
43
1.0
76
1
77
6
78
2
67
7
79
5
170
0
171
0
290
0
174
0
93
1
44
0.0
173
0
291
1
45
0.0
1001
ACAD
1000
AcDbSavedByObjectVersion
1070
0
0
VISUALSTYLE
5
F9C
102
{ACAD_XDICTIONARY
360
1090
102
}
102
{ACAD_REACTORS
330
F93
102
}
330
F93
100
AcDbVisualStyle
2

70
9
71
3
72
2
73
0
90
0
40
-0.6
41
-30.0
62
5
63
7
74
2
91
2
64
7
65
257
75
1
175
1
42
179.0
92
8
66
7
43
1.0
76
1
77
6
78
2
67
7
79
3
170
0
171
0
290
0
174
0
93
1
44
0.0
173
0
291
0
45
0.0
1001
ACAD
1000
AcDbSavedByObjectVersion
1070
0
0
VISUALSTYLE
5
F9E
102
{ACAD_XDICTIONARY
360
1094
102
}
102
{ACAD_REACTORS
330
F93
102
}
330
F93
100
AcDbVisualStyle
2

70
11
71
2
72
2
73
0
90
0
40
-0.6
41
-30.0
62
5
63
7
74
1
91
4
64
7
65
257
75
1
175
1
42
1.0
92
8
66
7
43
1.0
76
1
77
6
78
2
67
7
79
5
170
0
171
0
290
0
174
0
93
1
44
-50.0
173
0
291
1
45
0.0
1001
ACAD
1000
AcDbSavedByObjectVersion
1070
0
0
VISUALSTYLE
5
FA6
102
{ACAD_XDICTIONARY
360
10A4
102
}
102
{ACAD_REACTORS
330
F93
102
}
330
F93
100
AcDbVisualStyle
2

70
22
71
2
72
2
73
0
90
0
40
-0.6
41
-30.0
62
5
63
7
74
1
91
4
64
7
65
257
75
1
175
1
42
1.0
92
8
66
7
43
1.0
76
1
77
6
78
2
67
7
79
5
170
0
171
0
290
0
174
0
93
1
44
0.0
173
0
291
1
45
0.0
1001
ACAD
1000
AcDbSavedByObjectVersion
1070
0
0
VISUALSTYLE
5
FA2
102
{ACAD_XDICTIONARY
360
109C
102
}
102
{ACAD_REACTORS
330
F93
102
}
330
F93
100
AcDbVisualStyle
2

70
15
71
2
72
2
73
0
90
0
40
-0.6
41
-30.0
62
5
63
7
74
1
91
4
64
7
65
257
75
1
175
1
42
1.0
92
8
66
7
43
1.0
76
1
77
6
78
2
67
7
79
5
170
0
171
0
290
0
174
0
93
1
44
0.0
173
0
291
1
45
0.0
1001
ACAD
1000
AcDbSavedByObjectVersion
1070
0
0
VISUALSTYLE
5
F94
102
{ACAD_XDICTIONARY
360
1080
102
}
102
{ACAD_REACTORS
330
F93
102
}
330
F93
100
AcDbVisualStyle
2

70
0
71
2
72
1
73
1
90
2
40
-0.6
41
30.0
62
5
63
7
74
0
91
4
64
7
65
257
75
1
175
1
42
1.0
92
8
66
7
43
1.0
76
1
77
6
78
2
67
7
79
5
170
0
171
0
290
0
174
0
93
13
44
0.0
173
0
291
1
45
0.0
1001
ACAD
1000
AcDbSavedByObjectVersion
1070
0
0
VISUALSTYLE
5
F95
102
{ACAD_XDICTIONARY
360
1082
102
}
102
{ACAD_REACTORS
330
F93
102
}
330
F93
100
AcDbVisualStyle
2

70
1
71
2
72
1
73
1
90
2
40
-0.6
41
30.0
62
5
63
7
74
1
91
4
64
7
65
257
75
1
175
1
42
1.0
92
0
66
257
43
1.0
76
1
77
6
78
2
67
7
79
5
170
0
171
0
290
0
174
0
93
13
44
0.0
173
0
291
1
45
0.0
1001
ACAD
1000
AcDbSavedByObjectVersion
1070
0
0
VISUALSTYLE
5
F96
102
{ACAD_XDICTIONARY
360
1084
102
}
102
{ACAD_REACTORS
330
F93
102
}
330
F93
100
AcDbVisualStyle
2

70
2
71
2
72
2
73
1
90
2
40
-0.6
41
30.0
62
5
63
7
74
0
91
4
64
7
65
257
75
1
175
1
42
1.0
92
0
66
7
43
1.0
76
1
77
6
78
2
67
7
79
5
170
0
171
0
290
0
174
0
93
13
44
0.0
173
0
291
1
45
0.0
1001
ACAD
1000
AcDbSavedByObjectVersion
1070
0
0
VISUALSTYLE
5
F97
102
{ACAD_XDICTIONARY
360
1086
102
}
102
{ACAD_REACTORS
330
F93
102
}
330
F93
100
AcDbVisualStyle
2

70
3
71
2
72
2
73
1
90
2
40
-0.6
41
30.0
62
5
63
7
74
1
91
4
64
7
65
257
75
1
175
1
42
1.0
92
0
66
257
43
1.0
76
1
77
6
78
2
67
7
79
5
170
0
171
0
290
0
174
0
93
13
44
0.0
173
0
291
1
45
0.0
1001
ACAD
1000
AcDbSavedByObjectVersion
1070
0
0
VISUALSTYLE
5
FA4
102
{ACAD_XDICTIONARY
360
10A0
102
}
102
{ACAD_REACTORS
330
F93
102
}
330
F93
100
AcDbVisualStyle
2

70
20
71
2
72
2
73
0
90
0
40
-0.6
41
-30.0
62
5
63
7
74
1
91
4
64
7
65
257
75
1
175
1
42
1.0
92
10
66
7
43
1.0
76
1
77
6
78
2
67
7
79
5
170
0
171
0
290
0
174
0
93
1
44
0.0
173
0
291
1
45
0.0
1001
ACAD
1000
AcDbSavedByObjectVersion
1070
0
0
VISUALSTYLE
5
FA1
102
{ACAD_XDICTIONARY
360
109A
102
}
102
{ACAD_REACTORS
330
F93
102
}
330
F93
100
AcDbVisualStyle
2

70
14
71
2
72
2
73
0
90
0
40
-0.6
41
-30.0
62
5
63
7
74
1
91
4
64
7
65
257
75
7
175
7
42
1.0
92
8
66
7
43
1.0
76
1
77
6
78
2
67
7
79
5
170
0
171
0
290
0
174
0
93
1
44
0.0
173
0
291
1
45
0.0
1001
ACAD
1000
AcDbSavedByObjectVersion
1070
0
0
VISUALSTYLE
5
FA5
102
{ACAD_XDICTIONARY
360
10A2
102
}
102
{ACAD_REACTORS
330
F93
102
}
330
F93
100
AcDbVisualStyle
2

70
21
71
2
72
2
73
0
90
0
40
-0.6
41
-30.0
62
5
63
7
74
1
91
4
64
7
65
257
75
1
175
1
42
1.0
92
9
66
7
43
1.0
76
1
77
6
78
2
67
7
79
5
170
0
171
0
290
0
174
0
93
1
44
0.0
173
0
291
1
45
0.0
1001
ACAD
1000
AcDbSavedByObjectVersion
1070
0
0
VISUALSTYLE
5
F9D
102
{ACAD_XDICTIONARY
360
1092
102
}
102
{ACAD_REACTORS
330
F93
102
}
330
F93
100
AcDbVisualStyle
2

70
8
71
2
72
2
73
0
90
0
40
-0.6
41
-30.0
62
5
63
7
74
1
91
0
64
7
65
257
75
1
175
1
42
1.0
92
8
66
8
43
1.0
76
1
77
6
78
2
67
7
79
5
170
0
171
0
290
0
174
0
93
13
44
0.0
173
0
291
0
45
0.0
1001
ACAD
1000
AcDbSavedByObjectVersion
1070
0
0
VISUALSTYLE
5
FA0
102
{ACAD_XDICTIONARY
360
1098
102
}
102
{ACAD_REACTORS
330
F93
102
}
330
F93
100
AcDbVisualStyle
2

70
13
71
2
72
2
73
0
90
0
40
-0.6
41
-30.0
62
5
63
7
74
1
91
4
64
7
65
257
75
1
175
1
42
1.0
92
12
66
7
43
1.0
76
1
77
6
78
2
67
7
79
5
170
0
171
0
290
0
174
0
93
1
44
0.0
173
0
291
1
45
0.0
1001
ACAD
1000
AcDbSavedByObjectVersion
1070
0
0
DICTIONARYVAR
5
FF3
102
{ACAD_REACTORS
330
FF0
102
}
330
FF0
100
DictionaryVariables
280
0
1
1:1
0
DICTIONARYVAR
5
FF2
102
{ACAD_REACTORS
330
FF0
102
}
330
FF0
100
DictionaryVariables
280
0
1
STANDARD
0
DICTIONARYVAR
5
FF1
102
{ACAD_REACTORS
330
FF0
102
}
330
FF0
100
DictionaryVariables
280
0
1
STANDARD
0
DICTIONARYVAR
5
FF6
102
{ACAD_REACTORS
330
FF0
102
}
330
FF0
100
DictionaryVariables
280
0
1
1
0
DICTIONARYVAR
5
FF5
102
{ACAD_REACTORS
330
FF0
102
}
330
FF0
100
DictionaryVariables
280
0
1
0
0
DICTIONARYVAR
5
FF4
102
{ACAD_REACTORS
330
FF0
102
}
330
FF0
100
DictionaryVariables
280
0
1
127
0
DICTIONARYVAR
5
1078
102
{ACAD_REACTORS
330
FF0
102
}
330
FF0
100
DictionaryVariables
280
0
1
2
0
DICTIONARY
5
10A9
330
FD1
100
AcDbDictionary
280
1
281
1
3
ACAD_XREC_ROUNDTRIP
360
10AA
0
DICTIONARY
5
10A7
330
FD0
100
AcDbDictionary
280
1
281
1
3
ACAD_XREC_ROUNDTRIP
360
10A8
0
DICTIONARY
5
F84
330
F83
100
AcDbDictionary
280
1
281
1
3
ACAD_XREC_ROUNDTRIP
360
FFF
3
BUMPTILE
360
F86
3
DIFFUSETILE
360
F85
3
OPACITYTILE
360
F89
3
REFLECTIONTILE
360
F88
3
REFRACTIONTILE
360
F8A
3
SPECULARTILE
360
F87
0
DICTIONARY
5
F7C
330
F7B
100
AcDbDictionary
280
1
281
1
3
ACAD_XREC_ROUNDTRIP
360
FFE
3
BUMPTILE
360
F7E
3
DIFFUSETILE
360
F7D
3
OPACITYTILE
360
F81
3
REFLECTIONTILE
360
F80
3
REFRACTIONTILE
360
F82
3
SPECULARTILE
360
F7F
0
DICTIONARY
5
F8C
330
F8B
100
AcDbDictionary
280
1
281
1
3
ACAD_XREC_ROUNDTRIP
360
1000
3
BUMPTILE
360
F8E
3
DIFFUSETILE
360
F8D
3
OPACITYTILE
360
F91
3
REFLECTIONTILE
360
F90
3
REFRACTIONTILE
360
F92
3
SPECULARTILE
360
F8F
0
DICTIONARY
5
FF8
330
FA9
100
AcDbDictionary
280
1
281
1
3
ACAD_ROUNDTRIP_2008_TABLESTYLE_CELLSTYLEMAP
360
1079
3
ACAD_XREC_ROUNDTRIP
360
10A6
0
DICTIONARY
5
108A
330
F99
100
AcDbDictionary
280
1
281
1
3
ACAD_XREC_ROUNDTRIP
360
108B
0
DICTIONARY
5
108E
330
F9B
100
AcDbDictionary
280
1
281
1
3
ACAD_XREC_ROUNDTRIP
360
108F
0
DICTIONARY
5
108C
330
F9A
100
AcDbDictionary
280
1
281
1
3
ACAD_XREC_ROUNDTRIP
360
108D
0
DICTIONARY
5
1088
330
F98
100
AcDbDictionary
280
1
281
1
3
ACAD_XREC_ROUNDTRIP
360
1089
0
DICTIONARY
5
1096
330
F9F
100
AcDbDictionary
280
1
281
1
3
ACAD_XREC_ROUNDTRIP
360
1097
0
DICTIONARY
5
109E
330
FA3
100
AcDbDictionary
280
1
281
1
3
ACAD_XREC_ROUNDTRIP
360
109F
0
DICTIONARY
5
1090
330
F9C
100
AcDbDictionary
280
1
281
1
3
ACAD_XREC_ROUNDTRIP
360
1091
0
DICTIONARY
5
1094
330
F9E
100
AcDbDictionary
280
1
281
1
3
ACAD_XREC_ROUNDTRIP
360
1095
0
DICTIONARY
5
10A4
330
FA6
100
AcDbDictionary
280
1
281
1
3
ACAD_XREC_ROUNDTRIP
360
10A5
0
DICTIONARY
5
109C
330
FA2
100
AcDbDictionary
280
1
281
1
3
ACAD_XREC_ROUNDTRIP
360
109D
0
DICTIONARY
5
1080
330
F94
100
AcDbDictionary
280
1
281
1
3
ACAD_XREC_ROUNDTRIP
360
1081
0
DICTIONARY
5
1082
330
F95
100
AcDbDictionary
280
1
281
1
3
ACAD_XREC_ROUNDTRIP
360
1083
0
DICTIONARY
5
1084
330
F96
100
AcDbDictionary
280
1
281
1
3
ACAD_XREC_ROUNDTRIP
360
1085
0
DICTIONARY
5
1086
330
F97
100
AcDbDictionary
280
1
281
1
3
ACAD_XREC_ROUNDTRIP
360
1087
0
DICTIONARY
5
10A0
330
FA4
100
AcDbDictionary
280
1
281
1
3
ACAD_XREC_ROUNDTRIP
360
10A1
0
DICTIONARY
5
109A
330
FA1
100
AcDbDictionary
280
1
281
1
3
ACAD_XREC_ROUNDTRIP
360
109B
0
DICTIONARY
5
10A2
330
FA5
100
AcDbDictionary
280
1
281
1
3
ACAD_XREC_ROUNDTRIP
360
10A3
0
DICTIONARY
5
1092
330
F9D
100
AcDbDictionary
280
1
281
1
3
ACAD_XREC_ROUNDTRIP
360
1093
0
DICTIONARY
5
1098
330
FA0
100
AcDbDictionary
280
1
281
1
3
ACAD_XREC_ROUNDTRIP
360
1099
0
XRECORD
5
10AA
102
{ACAD_REACTORS
330
10A9
102
}
330
10A9
100
AcDbXrecord
280
1
102
SHADEPLOT
70
0
102
SHADEPLOTRESLEVEL
70
2
102
SHADEPLOTCUSTOMDPI
70
300
0
XRECORD
5
10A8
102
{ACAD_REACTORS
330
10A7
102
}
330
10A7
100
AcDbXrecord
280
1
102
SHADEPLOT
70
0
102
SHADEPLOTRESLEVEL
70
2
102
SHADEPLOTCUSTOMDPI
70
300
0
XRECORD
5
FFF
102
{ACAD_REACTORS
330
F84
102
}
330
F84
100
AcDbXrecord
280
1
102
MATERIAL
148
0.0
149
0.0
149
0.0
93
0
94
127
282
0
72
0
77
0
171
0
175
0
179
0
273
0
0
XRECORD
5
F86
102
{ACAD_REACTORS
330
F84
102
}
330
F84
100
AcDbXrecord
280
1
270
1
271
1
0
XRECORD
5
F85
102
{ACAD_REACTORS
330
F84
102
}
330
F84
100
AcDbXrecord
280
1
270
1
271
1
0
XRECORD
5
F89
102
{ACAD_REACTORS
330
F84
102
}
330
F84
100
AcDbXrecord
280
1
270
1
271
1
0
XRECORD
5
F88
102
{ACAD_REACTORS
330
F84
102
}
330
F84
100
AcDbXrecord
280
1
270
1
271
1
0
XRECORD
5
F8A
102
{ACAD_REACTORS
330
F84
102
}
330
F84
100
AcDbXrecord
280
1
270
1
271
1
0
XRECORD
5
F87
102
{ACAD_REACTORS
330
F84
102
}
330
F84
100
AcDbXrecord
280
1
270
1
271
1
0
XRECORD
5
FFE
102
{ACAD_REACTORS
330
F7C
102
}
330
F7C
100
AcDbXrecord
280
1
102
MATERIAL
148
0.0
149
0.0
149
0.0
93
0
94
127
282
0
72
0
77
0
171
0
175
0
179
0
273
0
0
XRECORD
5
F7E
102
{ACAD_REACTORS
330
F7C
102
}
330
F7C
100
AcDbXrecord
280
1
270
1
271
1
0
XRECORD
5
F7D
102
{ACAD_REACTORS
330
F7C
102
}
330
F7C
100
AcDbXrecord
280
1
270
1
271
1
0
XRECORD
5
F81
102
{ACAD_REACTORS
330
F7C
102
}
330
F7C
100
AcDbXrecord
280
1
270
1
271
1
0
XRECORD
5
F80
102
{ACAD_REACTORS
330
F7C
102
}
330
F7C
100
AcDbXrecord
280
1
270
1
271
1
0
XRECORD
5
F82
102
{ACAD_REACTORS
330
F7C
102
}
330
F7C
100
AcDbXrecord
280
1
270
1
271
1
0
XRECORD
5
F7F
102
{ACAD_REACTORS
330
F7C
102
}
330
F7C
100
AcDbXrecord
280
1
270
1
271
1
0
XRECORD
5
1000
102
{ACAD_REACTORS
330
F8C
102
}
330
F8C
100
AcDbXrecord
280
1
102
MATERIAL
148
0.0
149
0.0
149
0.0
93
0
94
127
282
0
72
0
77
0
171
0
175
0
179
0
273
0
0
XRECORD
5
F8E
102
{ACAD_REACTORS
330
F8C
102
}
330
F8C
100
AcDbXrecord
280
1
270
1
271
1
0
XRECORD
5
F8D
102
{ACAD_REACTORS
330
F8C
102
}
330
F8C
100
AcDbXrecord
280
1
270
1
271
1
0
XRECORD
5
F91
102
{ACAD_REACTORS
330
F8C
102
}
330
F8C
100
AcDbXrecord
280
1
270
1
271
1
0
XRECORD
5
F90
102
{ACAD_REACTORS
330
F8C
102
}
330
F8C
100
AcDbXrecord
280
1
270
1
271
1
0
XRECORD
5
F92
102
{ACAD_REACTORS
330
F8C
102
}
330
F8C
100
AcDbXrecord
280
1
270
1
271
1
0
XRECORD
5
F8F
102
{ACAD_REACTORS
330
F8C
102
}
330
F8C
100
AcDbXrecord
280
1
270
1
271
1
0
CELLSTYLEMAP
5
1079
102
{ACAD_REACTORS
330
FF8
102
}
330
FF8
100
AcDbCellStyleMap
90
3
300
CELLSTYLE
1
TABLEFORMAT_BEGIN
90
5
170
1
91
0
92
32768
62
257
93
1
300
CONTENTFORMAT
1
CONTENTFORMAT_BEGIN
90
0
91
0
92
512
93
0
300

40
0.0
140
1.0
94
5
62
0
340
253
144
0.25
309
CONTENTFORMAT_END
171
1
301
MARGIN
1
CELLMARGIN_BEGIN
40
0.06
40
0.06
40
0.06
40
0.06
40
0.18
40
0.18
309
CELLMARGIN_END
94
6
95
1
302
GRIDFORMAT
1
GRIDFORMAT_BEGIN
90
0
91
1
62
0
92
-2
340
0
93
0
40
0.045
309
GRIDFORMAT_END
95
2
302
GRIDFORMAT
1
GRIDFORMAT_BEGIN
90
0
91
1
62
0
92
-2
340
0
93
0
40
0.045
309
GRIDFORMAT_END
95
4
302
GRIDFORMAT
1
GRIDFORMAT_BEGIN
90
0
91
1
62
0
92
-2
340
0
93
0
40
0.045
309
GRIDFORMAT_END
95
8
302
GRIDFORMAT
1
GRIDFORMAT_BEGIN
90
0
91
1
62
0
92
-2
340
0
93
0
40
0.045
309
GRIDFORMAT_END
95
16
302
GRIDFORMAT
1
GRIDFORMAT_BEGIN
90
0
91
1
62
0
92
-2
340
0
93
0
40
0.045
309
GRIDFORMAT_END
95
32
302
GRIDFORMAT
1
GRIDFORMAT_BEGIN
90
0
91
1
62
0
92
-2
340
0
93
0
40
0.045
309
GRIDFORMAT_END
309
TABLEFORMAT_END
1
CELLSTYLE_BEGIN
90
1
91
1
300
_TITLE
309
CELLSTYLE_END
300
CELLSTYLE
1
TABLEFORMAT_BEGIN
90
5
170
1
91
0
92
0
62
257
93
1
300
CONTENTFORMAT
1
CONTENTFORMAT_BEGIN
90
0
91
0
92
512
93
0
300

40
0.0
140
1.0
94
5
62
0
340
253
144
0.18
309
CONTENTFORMAT_END
171
1
301
MARGIN
1
CELLMARGIN_BEGIN
40
0.06
40
0.06
40
0.06
40
0.06
40
0.18
40
0.18
309
CELLMARGIN_END
94
6
95
1
302
GRIDFORMAT
1
GRIDFORMAT_BEGIN
90
0
91
1
62
0
92
-2
340
0
93
0
40
0.045
309
GRIDFORMAT_END
95
2
302
GRIDFORMAT
1
GRIDFORMAT_BEGIN
90
0
91
1
62
0
92
-2
340
0
93
0
40
0.045
309
GRIDFORMAT_END
95
4
302
GRIDFORMAT
1
GRIDFORMAT_BEGIN
90
0
91
1
62
0
92
-2
340
0
93
0
40
0.045
309
GRIDFORMAT_END
95
8
302
GRIDFORMAT
1
GRIDFORMAT_BEGIN
90
0
91
1
62
0
92
-2
340
0
93
0
40
0.045
309
GRIDFORMAT_END
95
16
302
GRIDFORMAT
1
GRIDFORMAT_BEGIN
90
0
91
1
62
0
92
-2
340
0
93
0
40
0.045
309
GRIDFORMAT_END
95
32
302
GRIDFORMAT
1
GRIDFORMAT_BEGIN
90
0
91
1
62
0
92
-2
340
0
93
0
40
0.045
309
GRIDFORMAT_END
309
TABLEFORMAT_END
1
CELLSTYLE_BEGIN
90
2
91
1
300
_HEADER
309
CELLSTYLE_END
300
CELLSTYLE
1
TABLEFORMAT_BEGIN
90
5
170
1
91
0
92
0
62
257
93
1
300
CONTENTFORMAT
1
CONTENTFORMAT_BEGIN
90
0
91
0
92
512
93
0
300

40
0.0
140
1.0
94
2
62
0
340
253
144
0.18
309
CONTENTFORMAT_END
171
1
301
MARGIN
1
CELLMARGIN_BEGIN
40
0.06
40
0.06
40
0.06
40
0.06
40
0.18
40
0.18
309
CELLMARGIN_END
94
6
95
1
302
GRIDFORMAT
1
GRIDFORMAT_BEGIN
90
0
91
1
62
0
92
-2
340
0
93
0
40
0.045
309
GRIDFORMAT_END
95
2
302
GRIDFORMAT
1
GRIDFORMAT_BEGIN
90
0
91
1
62
0
92
-2
340
0
93
0
40
0.045
309
GRIDFORMAT_END
95
4
302
GRIDFORMAT
1
GRIDFORMAT_BEGIN
90
0
91
1
62
0
92
-2
340
0
93
0
40
0.045
309
GRIDFORMAT_END
95
8
302
GRIDFORMAT
1
GRIDFORMAT_BEGIN
90
0
91
1
62
0
92
-2
340
0
93
0
40
0.045
309
GRIDFORMAT_END
95
16
302
GRIDFORMAT
1
GRIDFORMAT_BEGIN
90
0
91
1
62
0
92
-2
340
0
93
0
40
0.045
309
GRIDFORMAT_END
95
32
302
GRIDFORMAT
1
GRIDFORMAT_BEGIN
90
0
91
1
62
0
92
-2
340
0
93
0
40
0.045
309
GRIDFORMAT_END
309
TABLEFORMAT_END
1
CELLSTYLE_BEGIN
90
3
91
2
300
_DATA
309
CELLSTYLE_END
0
XRECORD
5
10A6
102
{ACAD_REACTORS
330
FF8
102
}
330
FF8
100
AcDbXrecord
280
1
102
ACAD_ROUNDTRIP_PRE2007_TABLESTYLE
90
512
91
0
1

92
512
93
0
2

94
512
95
0
3

0
XRECORD
5
108B
102
{ACAD_REACTORS
330
108A
102
}
330
108A
100
AcDbXrecord
280
1
102
RTVSPropertyOp0
70
1
102
RTVSPropertyOp1
70
1
102
RTVSPropertyOp2
70
1
102
RTVSPropertyOp3
70
1
102
RTVSPropertyOp4
70
1
102
RTVSPropertyOp5
70
1
102
RTVSPropertyOp6
70
1
102
RTVSPropertyOp7
70
1
102
RTVSPropertyOp8
70
1
102
RTVSPropertyOp9
70
1
102
RTVSPropertyOp10
70
1
102
RTVSPropertyOp11
70
1
102
RTVSPropertyOp12
70
1
102
RTVSPropertyOp13
70
1
102
RTVSPropertyOp14
70
1
102
RTVSPropertyOp15
70
1
102
RTVSPropertyOp16
70
1
102
RTVSPropertyOp17
70
1
102
RTVSPropertyOp18
70
1
102
RTVSPropertyOp19
70
1
102
RTVSPropertyOp20
70
1
102
RTVSPropertyOp21
70
1
102
RTVSPropertyOp22
70
1
102
RTVSPropertyOp23
70
1
102
RTVSPropertyOp24
70
1
102
RTVSPropertyOp25
70
1
102
RTVSPropertyOp26
70
1
102
RTVSPropertyOp27
70
1
0
XRECORD
5
108F
102
{ACAD_REACTORS
330
108E
102
}
330
108E
100
AcDbXrecord
280
1
102
RTVSPropertyOp0
70
1
102
RTVSPropertyOp1
70
1
102
RTVSPropertyOp2
70
1
102
RTVSPropertyOp3
70
1
102
RTVSPropertyOp4
70
1
102
RTVSPropertyOp5
70
1
102
RTVSPropertyOp6
70
1
102
RTVSPropertyOp7
70
1
102
RTVSPropertyOp8
70
1
102
RTVSPropertyOp9
70
1
102
RTVSPropertyOp10
70
1
102
RTVSPropertyOp11
70
1
102
RTVSPropertyOp12
70
1
102
RTVSPropertyOp13
70
1
102
RTVSPropertyOp14
70
1
102
RTVSPropertyOp15
70
1
102
RTVSPropertyOp16
70
1
102
RTVSPropertyOp17
70
1
102
RTVSPropertyOp18
70
1
102
RTVSPropertyOp19
70
1
102
RTVSPropertyOp20
70
1
102
RTVSPropertyOp21
70
1
102
RTVSPropertyOp22
70
1
102
RTVSPropertyOp23
70
1
102
RTVSPropertyOp24
70
1
102
RTVSPropertyOp25
70
1
102
RTVSPropertyOp26
70
1
102
RTVSPropertyOp27
70
1
0
XRECORD
5
108D
102
{ACAD_REACTORS
330
108C
102
}
330
108C
100
AcDbXrecord
280
1
102
RTVSPropertyOp0
70
1
102
RTVSPropertyOp1
70
1
102
RTVSPropertyOp2
70
1
102
RTVSPropertyOp3
70
1
102
RTVSPropertyOp4
70
1
102
RTVSPropertyOp5
70
1
102
RTVSPropertyOp6
70
1
102
RTVSPropertyOp7
70
1
102
RTVSPropertyOp8
70
1
102
RTVSPropertyOp9
70
1
102
RTVSPropertyOp10
70
1
102
RTVSPropertyOp11
70
1
102
RTVSPropertyOp12
70
1
102
RTVSPropertyOp13
70
1
102
RTVSPropertyOp14
70
1
102
RTVSPropertyOp15
70
1
102
RTVSPropertyOp16
70
1
102
RTVSPropertyOp17
70
1
102
RTVSPropertyOp18
70
1
102
RTVSPropertyOp19
70
1
102
RTVSPropertyOp20
70
1
102
RTVSPropertyOp21
70
1
102
RTVSPropertyOp22
70
1
102
RTVSPropertyOp23
70
1
102
RTVSPropertyOp24
70
1
102
RTVSPropertyOp25
70
1
102
RTVSPropertyOp26
70
1
102
RTVSPropertyOp27
70
1
0
XRECORD
5
1089
102
{ACAD_REACTORS
330
1088
102
}
330
1088
100
AcDbXrecord
280
1
102
RTVSPropertyOp0
70
1
102
RTVSPropertyOp1
70
1
102
RTVSPropertyOp2
70
1
102
RTVSPropertyOp3
70
1
102
RTVSPropertyOp4
70
1
102
RTVSPropertyOp5
70
1
102
RTVSPropertyOp6
70
1
102
RTVSPropertyOp7
70
1
102
RTVSPropertyOp8
70
1
102
RTVSPropertyOp9
70
1
102
RTVSPropertyOp10
70
1
102
RTVSPropertyOp11
70
1
102
RTVSPropertyOp12
70
1
102
RTVSPropertyOp13
70
1
102
RTVSPropertyOp14
70
1
102
RTVSPropertyOp15
70
1
102
RTVSPropertyOp16
70
1
102
RTVSPropertyOp17
70
1
102
RTVSPropertyOp18
70
1
102
RTVSPropertyOp19
70
1
102
RTVSPropertyOp20
70
1
102
RTVSPropertyOp21
70
1
102
RTVSPropertyOp22
70
1
102
RTVSPropertyOp23
70
1
102
RTVSPropertyOp24
70
1
102
RTVSPropertyOp25
70
1
102
RTVSPropertyOp26
70
1
102
RTVSPropertyOp27
70
1
0
XRECORD
5
1097
102
{ACAD_REACTORS
330
1096
102
}
330
1096
100
AcDbXrecord
280
1
102
RTVSPropertyOp0
70
1
102
RTVSPropertyOp1
70
1
102
RTVSPropertyOp2
70
1
102
RTVSPropertyOp3
70
1
102
RTVSPropertyOp4
70
1
102
RTVSPropertyOp5
70
1
102
RTVSPropertyOp6
70
1
102
RTVSPropertyOp7
70
1
102
RTVSPropertyOp8
70
1
102
RTVSPropertyOp9
70
1
102
RTVSPropertyOp10
70
1
102
RTVSPropertyOp11
70
1
102
RTVSPropertyOp12
70
1
102
RTVSPropertyOp13
70
1
102
RTVSPropertyOp14
70
1
102
RTVSPropertyOp15
70
1
102
RTVSPropertyOp16
70
1
102
RTVSPropertyOp17
70
1
102
RTVSPropertyOp18
70
1
102
RTVSPropertyOp19
70
1
102
RTVSPropertyOp20
70
1
102
RTVSPropertyOp21
70
1
102
RTVSPropertyOp22
70
1
102
RTVSPropertyOp23
70
1
102
RTVSPropertyOp24
70
1
102
RTVSPropertyOp25
70
1
102
RTVSPropertyOp26
70
1
102
RTVSPropertyOp27
70
1
0
XRECORD
5
109F
102
{ACAD_REACTORS
330
109E
102
}
330
109E
100
AcDbXrecord
280
1
102
RTVSPropertyOp0
70
1
102
RTVSPropertyOp1
70
1
102
RTVSPropertyOp2
70
1
102
RTVSPropertyOp3
70
1
102
RTVSPropertyOp4
70
1
102
RTVSPropertyOp5
70
1
102
RTVSPropertyOp6
70
1
102
RTVSPropertyOp7
70
1
102
RTVSPropertyOp8
70
1
102
RTVSPropertyOp9
70
1
102
RTVSPropertyOp10
70
1
102
RTVSPropertyOp11
70
1
102
RTVSPropertyOp12
70
1
102
RTVSPropertyOp13
70
1
102
RTVSPropertyOp14
70
1
102
RTVSPropertyOp15
70
1
102
RTVSPropertyOp16
70
1
102
RTVSPropertyOp17
70
1
102
RTVSPropertyOp18
70
1
102
RTVSPropertyOp19
70
1
102
RTVSPropertyOp20
70
1
102
RTVSPropertyOp21
70
1
102
RTVSPropertyOp22
70
1
102
RTVSPropertyOp23
70
1
102
RTVSPropertyOp24
70
1
102
RTVSPropertyOp25
70
1
102
RTVSPropertyOp26
70
1
102
RTVSPropertyOp27
70
1
0
XRECORD
5
1091
102
{ACAD_REACTORS
330
1090
102
}
330
1090
100
AcDbXrecord
280
1
102
RTVSPropertyOp0
70
1
102
RTVSPropertyOp1
70
1
102
RTVSPropertyOp2
70
1
102
RTVSPropertyOp3
70
1
102
RTVSPropertyOp4
70
1
102
RTVSPropertyOp5
70
1
102
RTVSPropertyOp6
70
1
102
RTVSPropertyOp7
70
1
102
RTVSPropertyOp8
70
1
102
RTVSPropertyOp9
70
1
102
RTVSPropertyOp10
70
1
102
RTVSPropertyOp11
70
1
102
RTVSPropertyOp12
70
1
102
RTVSPropertyOp13
70
1
102
RTVSPropertyOp14
70
1
102
RTVSPropertyOp15
70
1
102
RTVSPropertyOp16
70
1
102
RTVSPropertyOp17
70
1
102
RTVSPropertyOp18
70
1
102
RTVSPropertyOp19
70
1
102
RTVSPropertyOp20
70
1
102
RTVSPropertyOp21
70
1
102
RTVSPropertyOp22
70
1
102
RTVSPropertyOp23
70
1
102
RTVSPropertyOp24
70
1
102
RTVSPropertyOp25
70
1
102
RTVSPropertyOp26
70
1
102
RTVSPropertyOp27
70
1
0
XRECORD
5
1095
102
{ACAD_REACTORS
330
1094
102
}
330
1094
100
AcDbXrecord
280
1
102
RTVSPropertyOp0
70
1
102
RTVSPropertyOp1
70
1
102
RTVSPropertyOp2
70
1
102
RTVSPropertyOp3
70
1
102
RTVSPropertyOp4
70
1
102
RTVSPropertyOp5
70
1
102
RTVSPropertyOp6
70
1
102
RTVSPropertyOp7
70
1
102
RTVSPropertyOp8
70
1
102
RTVSPropertyOp9
70
1
102
RTVSPropertyOp10
70
1
102
RTVSPropertyOp11
70
1
102
RTVSPropertyOp12
70
1
102
RTVSPropertyOp13
70
1
102
RTVSPropertyOp14
70
1
102
RTVSPropertyOp15
70
1
102
RTVSPropertyOp16
70
1
102
RTVSPropertyOp17
70
1
102
RTVSPropertyOp18
70
1
102
RTVSPropertyOp19
70
1
102
RTVSPropertyOp20
70
1
102
RTVSPropertyOp21
70
1
102
RTVSPropertyOp22
70
1
102
RTVSPropertyOp23
70
1
102
RTVSPropertyOp24
70
1
102
RTVSPropertyOp25
70
1
102
RTVSPropertyOp26
70
1
102
RTVSPropertyOp27
70
1
0
XRECORD
5
10A5
102
{ACAD_REACTORS
330
10A4
102
}
330
10A4
100
AcDbXrecord
280
1
102
RTVSPropertyOp0
70
0
102
RTVSPropertyOp1
70
0
102
RTVSPropertyOp2
70
0
102
RTVSPropertyOp3
70
0
102
RTVSPropertyOp4
70
0
102
RTVSPropertyOp5
70
0
102
RTVSPropertyOp6
70
0
102
RTVSPropertyOp7
70
0
102
RTVSPropertyOp8
70
0
102
RTVSPropertyOp9
70
0
102
RTVSPropertyOp10
70
0
102
RTVSPropertyOp11
70
0
102
RTVSPropertyOp12
70
0
102
RTVSPropertyOp13
70
0
102
RTVSPropertyOp14
70
2
102
RTVSPropertyOp15
70
0
102
RTVSPropertyOp16
70
0
102
RTVSPropertyOp17
70
0
102
RTVSPropertyOp18
70
0
102
RTVSPropertyOp19
70
0
102
RTVSPropertyOp20
70
0
102
RTVSPropertyOp21
70
0
102
RTVSPropertyOp22
70
0
102
RTVSPropertyOp23
70
0
102
RTVSPropertyOp24
70
0
102
RTVSPropertyOp25
70
0
102
RTVSPropertyOp26
70
0
102
RTVSPropertyOp27
70
0
0
XRECORD
5
109D
102
{ACAD_REACTORS
330
109C
102
}
330
109C
100
AcDbXrecord
280
1
102
RTVSPropertyOp0
70
1
102
RTVSPropertyOp1
70
1
102
RTVSPropertyOp2
70
1
102
RTVSPropertyOp3
70
1
102
RTVSPropertyOp4
70
1
102
RTVSPropertyOp5
70
1
102
RTVSPropertyOp6
70
1
102
RTVSPropertyOp7
70
1
102
RTVSPropertyOp8
70
1
102
RTVSPropertyOp9
70
1
102
RTVSPropertyOp10
70
1
102
RTVSPropertyOp11
70
1
102
RTVSPropertyOp12
70
1
102
RTVSPropertyOp13
70
1
102
RTVSPropertyOp14
70
1
102
RTVSPropertyOp15
70
1
102
RTVSPropertyOp16
70
1
102
RTVSPropertyOp17
70
1
102
RTVSPropertyOp18
70
1
102
RTVSPropertyOp19
70
1
102
RTVSPropertyOp20
70
1
102
RTVSPropertyOp21
70
1
102
RTVSPropertyOp22
70
1
102
RTVSPropertyOp23
70
1
102
RTVSPropertyOp24
70
1
102
RTVSPropertyOp25
70
1
102
RTVSPropertyOp26
70
1
102
RTVSPropertyOp27
70
1
0
XRECORD
5
1081
102
{ACAD_REACTORS
330
1080
102
}
330
1080
100
AcDbXrecord
280
1
102
RTVSPropertyOp0
70
1
102
RTVSPropertyOp1
70
1
102
RTVSPropertyOp2
70
1
102
RTVSPropertyOp3
70
1
102
RTVSPropertyOp4
70
1
102
RTVSPropertyOp5
70
1
102
RTVSPropertyOp6
70
1
102
RTVSPropertyOp7
70
1
102
RTVSPropertyOp8
70
1
102
RTVSPropertyOp9
70
1
102
RTVSPropertyOp10
70
1
102
RTVSPropertyOp11
70
1
102
RTVSPropertyOp12
70
1
102
RTVSPropertyOp13
70
1
102
RTVSPropertyOp14
70
1
102
RTVSPropertyOp15
70
1
102
RTVSPropertyOp16
70
1
102
RTVSPropertyOp17
70
1
102
RTVSPropertyOp18
70
1
102
RTVSPropertyOp19
70
1
102
RTVSPropertyOp20
70
1
102
RTVSPropertyOp21
70
1
102
RTVSPropertyOp22
70
1
102
RTVSPropertyOp23
70
1
102
RTVSPropertyOp24
70
1
102
RTVSPropertyOp25
70
1
102
RTVSPropertyOp26
70
1
102
RTVSPropertyOp27
70
1
0
XRECORD
5
1083
102
{ACAD_REACTORS
330
1082
102
}
330
1082
100
AcDbXrecord
280
1
102
RTVSPropertyOp0
70
1
102
RTVSPropertyOp1
70
1
102
RTVSPropertyOp2
70
1
102
RTVSPropertyOp3
70
1
102
RTVSPropertyOp4
70
1
102
RTVSPropertyOp5
70
1
102
RTVSPropertyOp6
70
1
102
RTVSPropertyOp7
70
1
102
RTVSPropertyOp8
70
1
102
RTVSPropertyOp9
70
1
102
RTVSPropertyOp10
70
1
102
RTVSPropertyOp11
70
1
102
RTVSPropertyOp12
70
1
102
RTVSPropertyOp13
70
1
102
RTVSPropertyOp14
70
1
102
RTVSPropertyOp15
70
1
102
RTVSPropertyOp16
70
1
102
RTVSPropertyOp17
70
1
102
RTVSPropertyOp18
70
1
102
RTVSPropertyOp19
70
1
102
RTVSPropertyOp20
70
1
102
RTVSPropertyOp21
70
1
102
RTVSPropertyOp22
70
1
102
RTVSPropertyOp23
70
1
102
RTVSPropertyOp24
70
1
102
RTVSPropertyOp25
70
1
102
RTVSPropertyOp26
70
1
102
RTVSPropertyOp27
70
1
0
XRECORD
5
1085
102
{ACAD_REACTORS
330
1084
102
}
330
1084
100
AcDbXrecord
280
1
102
RTVSPropertyOp0
70
1
102
RTVSPropertyOp1
70
1
102
RTVSPropertyOp2
70
1
102
RTVSPropertyOp3
70
1
102
RTVSPropertyOp4
70
1
102
RTVSPropertyOp5
70
1
102
RTVSPropertyOp6
70
1
102
RTVSPropertyOp7
70
1
102
RTVSPropertyOp8
70
1
102
RTVSPropertyOp9
70
1
102
RTVSPropertyOp10
70
1
102
RTVSPropertyOp11
70
1
102
RTVSPropertyOp12
70
1
102
RTVSPropertyOp13
70
1
102
RTVSPropertyOp14
70
1
102
RTVSPropertyOp15
70
1
102
RTVSPropertyOp16
70
1
102
RTVSPropertyOp17
70
1
102
RTVSPropertyOp18
70
1
102
RTVSPropertyOp19
70
1
102
RTVSPropertyOp20
70
1
102
RTVSPropertyOp21
70
1
102
RTVSPropertyOp22
70
1
102
RTVSPropertyOp23
70
1
102
RTVSPropertyOp24
70
1
102
RTVSPropertyOp25
70
1
102
RTVSPropertyOp26
70
1
102
RTVSPropertyOp27
70
1
0
XRECORD
5
1087
102
{ACAD_REACTORS
330
1086
102
}
330
1086
100
AcDbXrecord
280
1
102
RTVSPropertyOp0
70
1
102
RTVSPropertyOp1
70
1
102
RTVSPropertyOp2
70
1
102
RTVSPropertyOp3
70
1
102
RTVSPropertyOp4
70
1
102
RTVSPropertyOp5
70
1
102
RTVSPropertyOp6
70
1
102
RTVSPropertyOp7
70
1
102
RTVSPropertyOp8
70
1
102
RTVSPropertyOp9
70
1
102
RTVSPropertyOp10
70
1
102
RTVSPropertyOp11
70
1
102
RTVSPropertyOp12
70
1
102
RTVSPropertyOp13
70
1
102
RTVSPropertyOp14
70
1
102
RTVSPropertyOp15
70
1
102
RTVSPropertyOp16
70
1
102
RTVSPropertyOp17
70
1
102
RTVSPropertyOp18
70
1
102
RTVSPropertyOp19
70
1
102
RTVSPropertyOp20
70
1
102
RTVSPropertyOp21
70
1
102
RTVSPropertyOp22
70
1
102
RTVSPropertyOp23
70
1
102
RTVSPropertyOp24
70
1
102
RTVSPropertyOp25
70
1
102
RTVSPropertyOp26
70
1
102
RTVSPropertyOp27
70
1
0
XRECORD
5
10A1
102
{ACAD_REACTORS
330
10A0
102
}
330
10A0
100
AcDbXrecord
280
1
102
RTVSPropertyOp0
70
0
102
RTVSPropertyOp1
70
0
102
RTVSPropertyOp2
70
0
102
RTVSPropertyOp3
70
0
102
RTVSPropertyOp4
70
0
102
RTVSPropertyOp5
70
0
102
RTVSPropertyOp6
70
0
102
RTVSPropertyOp7
70
0
102
RTVSPropertyOp8
70
0
102
RTVSPropertyOp9
70
0
102
RTVSPropertyOp10
70
0
102
RTVSPropertyOp11
70
0
102
RTVSPropertyOp12
70
0
102
RTVSPropertyOp13
70
0
102
RTVSPropertyOp14
70
2
102
RTVSPropertyOp15
70
0
102
RTVSPropertyOp16
70
0
102
RTVSPropertyOp17
70
0
102
RTVSPropertyOp18
70
0
102
RTVSPropertyOp19
70
0
102
RTVSPropertyOp20
70
0
102
RTVSPropertyOp21
70
0
102
RTVSPropertyOp22
70
0
102
RTVSPropertyOp23
70
0
102
RTVSPropertyOp24
70
0
102
RTVSPropertyOp25
70
0
102
RTVSPropertyOp26
70
0
102
RTVSPropertyOp27
70
0
0
XRECORD
5
109B
102
{ACAD_REACTORS
330
109A
102
}
330
109A
100
AcDbXrecord
280
1
102
RTVSPropertyOp0
70
1
102
RTVSPropertyOp1
70
1
102
RTVSPropertyOp2
70
1
102
RTVSPropertyOp3
70
1
102
RTVSPropertyOp4
70
1
102
RTVSPropertyOp5
70
1
102
RTVSPropertyOp6
70
1
102
RTVSPropertyOp7
70
1
102
RTVSPropertyOp8
70
1
102
RTVSPropertyOp9
70
1
102
RTVSPropertyOp10
70
1
102
RTVSPropertyOp11
70
1
102
RTVSPropertyOp12
70
1
102
RTVSPropertyOp13
70
1
102
RTVSPropertyOp14
70
1
102
RTVSPropertyOp15
70
1
102
RTVSPropertyOp16
70
1
102
RTVSPropertyOp17
70
1
102
RTVSPropertyOp18
70
1
102
RTVSPropertyOp19
70
1
102
RTVSPropertyOp20
70
1
102
RTVSPropertyOp21
70
1
102
RTVSPropertyOp22
70
1
102
RTVSPropertyOp23
70
1
102
RTVSPropertyOp24
70
1
102
RTVSPropertyOp25
70
1
102
RTVSPropertyOp26
70
1
102
RTVSPropertyOp27
70
1
0
XRECORD
5
10A3
102
{ACAD_REACTORS
330
10A2
102
}
330
10A2
100
AcDbXrecord
280
1
102
RTVSPropertyOp0
70
0
102
RTVSPropertyOp1
70
0
102
RTVSPropertyOp2
70
0
102
RTVSPropertyOp3
70
0
102
RTVSPropertyOp4
70
0
102
RTVSPropertyOp5
70
0
102
RTVSPropertyOp6
70
0
102
RTVSPropertyOp7
70
0
102
RTVSPropertyOp8
70
0
102
RTVSPropertyOp9
70
0
102
RTVSPropertyOp10
70
0
102
RTVSPropertyOp11
70
0
102
RTVSPropertyOp12
70
0
102
RTVSPropertyOp13
70
0
102
RTVSPropertyOp14
70
2
102
RTVSPropertyOp15
70
0
102
RTVSPropertyOp16
70
0
102
RTVSPropertyOp17
70
0
102
RTVSPropertyOp18
70
0
102
RTVSPropertyOp19
70
0
102
RTVSPropertyOp20
70
0
102
RTVSPropertyOp21
70
0
102
RTVSPropertyOp22
70
0
102
RTVSPropertyOp23
70
0
102
RTVSPropertyOp24
70
0
102
RTVSPropertyOp25
70
0
102
RTVSPropertyOp26
70
0
102
RTVSPropertyOp27
70
0
0
XRECORD
5
1093
102
{ACAD_REACTORS
330
1092
102
}
330
1092
100
AcDbXrecord
280
1
102
RTVSPropertyOp0
70
1
102
RTVSPropertyOp1
70
1
102
RTVSPropertyOp2
70
1
102
RTVSPropertyOp3
70
1
102
RTVSPropertyOp4
70
1
102
RTVSPropertyOp5
70
1
102
RTVSPropertyOp6
70
1
102
RTVSPropertyOp7
70
1
102
RTVSPropertyOp8
70
1
102
RTVSPropertyOp9
70
1
102
RTVSPropertyOp10
70
1
102
RTVSPropertyOp11
70
1
102
RTVSPropertyOp12
70
1
102
RTVSPropertyOp13
70
1
102
RTVSPropertyOp14
70
1
102
RTVSPropertyOp15
70
1
102
RTVSPropertyOp16
70
1
102
RTVSPropertyOp17
70
1
102
RTVSPropertyOp18
70
1
102
RTVSPropertyOp19
70
1
102
RTVSPropertyOp20
70
1
102
RTVSPropertyOp21
70
1
102
RTVSPropertyOp22
70
1
102
RTVSPropertyOp23
70
1
102
RTVSPropertyOp24
70
1
102
RTVSPropertyOp25
70
1
102
RTVSPropertyOp26
70
1
102
RTVSPropertyOp27
70
1
0
XRECORD
5
1099
102
{ACAD_REACTORS
330
1098
102
}
330
1098
100
AcDbXrecord
280
1
102
RTVSPropertyOp0
70
1
102
RTVSPropertyOp1
70
1
102
RTVSPropertyOp2
70
1
102
RTVSPropertyOp3
70
1
102
RTVSPropertyOp4
70
1
102
RTVSPropertyOp5
70
1
102
RTVSPropertyOp6
70
1
102
RTVSPropertyOp7
70
1
102
RTVSPropertyOp8
70
1
102
RTVSPropertyOp9
70
1
102
RTVSPropertyOp10
70
1
102
RTVSPropertyOp11
70
1
102
RTVSPropertyOp12
70
1
102
RTVSPropertyOp13
70
1
102
RTVSPropertyOp14
70
1
102
RTVSPropertyOp15
70
1
102
RTVSPropertyOp16
70
1
102
RTVSPropertyOp17
70
1
102
RTVSPropertyOp18
70
1
102
RTVSPropertyOp19
70
1
102
RTVSPropertyOp20
70
1
102
RTVSPropertyOp21
70
1
102
RTVSPropertyOp22
70
1
102
RTVSPropertyOp23
70
1
102
RTVSPropertyOp24
70
1
102
RTVSPropertyOp25
70
1
102
RTVSPropertyOp26
70
1
102
RTVSPropertyOp27
70
1
0
ENDSEC
0
EOF
