0
SECTION
2
HEADER
9
$ACADVER
1
AC1015
9
$ACADMAINTVER
70
20
9
$DWGCODEPAGE
3
ANSI_1252
9
$INSBASE
10
0.0
20
0.0
30
0.0
9
$EXTMIN
10
-150.000000000000
20
-105.000000000000
30
0.0
9
$EXTMAX
10
150.000000000000
20
105.000000000000
30
0.0
9
$LIMMIN
10
0.0
20
0.0
9
$LIMMAX
10
12.0
20
9.0
9
$ORTHOMODE
70
0
9
$REGENMODE
70
1
9
$FILLMODE
70
1
9
$QTEXTMODE
70
0
9
$MIRRTEXT
70
1
9
$LTSCALE
40
1.0
9
$ATTMODE
70
1
9
$TEXTSIZE
40
0.2
9
$TRACEWID
40
0.05
9
$TEXTSTYLE
7
Standard
9
$CLAYER
8
0
9
$CELTYPE
6
ByLayer
9
$CECOLOR
62
256
9
$CELTSCALE
40
1.0
9
$DISPSILH
70
0
9
$DIMSCALE
40
1.0
9
$DIMASZ
40
2.5
9
$DIMEXO
40
0.625
9
$DIMDLI
40
0.38
9
$DIMRND
40
0.0
9
$DIMDLE
40
0.0
9
$DIMEXE
40
1.25
9
$DIMTP
40
0.0
9
$DIMTM
40
0.000000001
9
$DIMTXT
40
2.5
9
$DIMCEN
40
0.09
9
$DIMTSZ
40
0.0
9
$DIMTOL
70
1
9
$DIMLIM
70
0
9
$DIMTIH
70
0
9
$DIMTOH
70
0
9
$DIMSE1
70
0
9
$DIMSE2
70
0
9
$DIMTAD
70
1
9
$DIMZIN
70
0
9
$DIMBLK
1
VDDIM_DEFAULT
9
$DIMASO
70
1
9
$DIMSHO
70
1
9
$DIMPOST
1

9
$DIMAPOST
1

9
$DIMALT
70
0
9
$DIMALTD
70
2
9
$DIMALTF
40
25.4
9
$DIMLFAC
40
1.00000000000000
9
$DIMTOFL
70
0
9
$DIMTVP
40
0.0
9
$DIMTIX
70
0
9
$DIMSOXD
70
0
9
$DIMSAH
70
0
9
$DIMBLK1
1

9
$DIMBLK2
1

9
$DIMSTYLE
2
BEM-ISBE
9
$DIMCLRD
70
0
9
$DIMCLRE
70
0
9
$DIMCLRT
70
0
9
$DIMTFAC
40
0.5
9
$DIMGAP
40
0.625
9
$DIMJUST
70
0
9
$DIMSD1
70
0
9
$DIMSD2
70
0
9
$DIMTOLJ
70
1
9
$DIMTZIN
70
0
9
$DIMALTZ
70
0
9
$DIMALTTZ
70
0
9
$DIMUPT
70
0
9
$DIMDEC
70
3
9
$DIMTDEC
70
3
9
$DIMALTU
70
2
9
$DIMALTTD
70
2
9
$DIMTXSTY
7
Standard
9
$DIMAUNIT
70
0
9
$DIMADEC
70
3
9
$DIMALTRND
40
0.0
9
$DIMAZIN
70
0
9
$DIMDSEP
70
46
9
$DIMATFIT
70
3
9
$DIMFRAC
70
0
9
$DIMLDRBLK
1

9
$DIMLUNIT
70
2
9
$DIMLWD
70
-2
9
$DIMLWE
70
-2
9
$DIMTMOVE
70
0
9
$LUNITS
70
2
9
$LUPREC
70
4
9
$SKETCHINC
40
0.1
9
$FILLETRAD
40
0.5
9
$AUNITS
70
0
9
$AUPREC
70
0
9
$MENU
1
.
9
$ELEVATION
40
0.0
9
$PELEVATION
40
0.0
9
$THICKNESS
40
0.0
9
$LIMCHECK
70
0
9
$CHAMFERA
40
0.5
9
$CHAMFERB
40
0.5
9
$CHAMFERC
40
1.0
9
$CHAMFERD
40
0.0
9
$SKPOLY
70
0
9
$TDCREATE
40
0.0
9
$TDUCREATE
40
0.0
9
$TDUPDATE
40
0.0
9
$TDUUPDATE
40
0.0
9
$TDINDWG
40
0.0
9
$TDUSRTIMER
40
0.0
9
$USRTIMER
70
1
9
$ANGBASE
50
0.0
9
$ANGDIR
70
0
9
$PDMODE
70
0
9
$PDSIZE
40
0.0
9
$PLINEWID
40
0.0
9
$SPLFRAME
70
0
9
$SPLINETYPE
70
6
9
$SPLINESEGS
70
8
9
$HANDSEED
5
10AB
9
$SURFTAB1
70
6
9
$SURFTAB2
70
6
9
$SURFTYPE
70
6
9
$SURFU
70
6
9
$SURFV
70
6
9
$UCSBASE
2

9
$UCSNAME
2

9
$UCSORG
10
0.0
20
0.0
30
0.0
9
$UCSXDIR
10
1.0
20
0.0
30
0.0
9
$UCSYDIR
10
0.0
20
1.0
30
0.0
9
$UCSORTHOREF
2

9
$UCSORTHOVIEW
70
0
9
$UCSORGTOP
10
0.0
20
0.0
30
0.0
9
$UCSORGBOTTOM
10
0.0
20
0.0
30
0.0
9
$UCSORGLEFT
10
0.0
20
0.0
30
0.0
9
$UCSORGRIGHT
10
0.0
20
0.0
30
0.0
9
$UCSORGFRONT
10
0.0
20
0.0
30
0.0
9
$UCSORGBACK
10
0.0
20
0.0
30
0.0
9
$PUCSBASE
2

9
$PUCSNAME
2

9
$PUCSORG
10
0.0
20
0.0
30
0.0
9
$PUCSXDIR
10
1.0
20
0.0
30
0.0
9
$PUCSYDIR
10
0.0
20
1.0
30
0.0
9
$PUCSORTHOREF
2

9
$PUCSORTHOVIEW
70
0
9
$PUCSORGTOP
10
0.0
20
0.0
30
0.0
9
$PUCSORGBOTTOM
10
0.0
20
0.0
30
0.0
9
$PUCSORGLEFT
10
0.0
20
0.0
30
0.0
9
$PUCSORGRIGHT
10
0.0
20
0.0
30
0.0
9
$PUCSORGFRONT
10
0.0
20
0.0
30
0.0
9
$PUCSORGBACK
10
0.0
20
0.0
30
0.0
9
$USERI1
70
0
9
$USERI2
70
0
9
$USERI3
70
0
9
$USERI4
70
0
9
$USERI5
70
0
9
$USERR1
40
0.0
9
$USERR2
40
0.0
9
$USERR3
40
0.0
9
$USERR4
40
0.0
9
$USERR5
40
0.0
9
$WORLDVIEW
70
1
9
$SHADEDGE
70
3
9
$SHADEDIF
70
70
9
$TILEMODE
70
1
9
$MAXACTVP
70
64
9
$PINSBASE
10
0.0
20
0.0
30
0.0
9
$PLIMCHECK
70
0
9
$PEXTMIN
10
1.000000000000000E+20
20
1.000000000000000E+20
30
1.000000000000000E+20
9
$PEXTMAX
10
-1.000000000000000E+20
20
-1.000000000000000E+20
30
-1.000000000000000E+20
9
$PLIMMIN
10
0.0
20
0.0
9
$PLIMMAX
10
12.0
20
9.0
9
$UNITMODE
70
0
9
$VISRETAIN
70
1
9
$PLINEGEN
70
0
9
$PSLTSCALE
70
1
9
$TREEDEPTH
70
3020
9
$CMLSTYLE
2
Standard
9
$CMLJUST
70
0
9
$CMLSCALE
40
1.0
9
$PROXYGRAPHICS
70
1
9
$MEASUREMENT
70
0
9
$CELWEIGHT
370
-1
9
$ENDCAPS
280
0
9
$JOINSTYLE
280
0
9
$LWDISPLAY
290
0
9
$INSUNITS
70
4
9
$HYPERLINKBASE
1

9
$STYLESHEET
1

9
$XEDIT
290
1
9
$CEPSNTYPE
380
0
9
$PSTYLEMODE
290
0
9
$FINGERPRINTGUID
2
{FAEB1C30-E019-11D5-929B-00C0DF256EC4}
9
$VERSIONGUID
2
{04C5C4E4-4947-4D90-8812-D401569E61F7}
9
$EXTNAMES
290
1
9
$PSVPSCALE
40
0.0
9
$OLESTARTUP
290
0
0
ENDSEC
0
SECTION
2
CLASSES
0
CLASS
1
ACDBDICTIONARYWDFLT
2
AcDbDictionaryWithDefault
3
ObjectDBX Classes
90
0
280
0
281
0
0
CLASS
1
ACDBPLACEHOLDER
2
AcDbPlaceHolder
3
ObjectDBX Classes
90
0
280
0
281
0
0
CLASS
1
LAYOUT
2
AcDbLayout
3
ObjectDBX Classes
90
0
280
0
281
0
0
CLASS
1
MATERIAL
2
AcDbMaterial
3
ObjectDBX Classes
90
1153
280
0
281
0
0
CLASS
1
VISUALSTYLE
2
AcDbVisualStyle
3
ObjectDBX Classes
90
4095
280
0
281
0
0
CLASS
1
TABLESTYLE
2
AcDbTableStyle
3
ObjectDBX Classes
90
4095
280
0
281
0
0
CLASS
1
SCALE
2
AcDbScale
3
ObjectDBX Classes
90
1153
280
0
281
0
0
CLASS
1
MLEADERSTYLE
2
AcDbMLeaderStyle
3
ACDB_MLEADERSTYLE_CLASS
90
4095
280
0
281
0
0
CLASS
1
DICTIONARYVAR
2
AcDbDictionaryVar
3
ObjectDBX Classes
90
0
280
0
281
0
0
CLASS
1
CELLSTYLEMAP
2
AcDbCellStyleMap
3
ObjectDBX Classes
90
1152
280
0
281
0
0
ENDSEC
0
SECTION
2
TABLES
0
TABLE
2
VPORT
5
24A
330
0
100
AcDbSymbolTable
70
1
0
VPORT
5
26B
330
24A
100
AcDbSymbolTableRecord
100
AcDbViewportTableRecord
2
*Active
70
0
10
0.0
20
0.0
11
1.0
21
1.0
12
0.00000000000000
22
0.00000000000000
13
0.0
23
0.0
14
10.0
24
10.0
15
10.0
25
10.0
16
0.0
26
0.0
36
1.0
17
0.0
27
0.0
37
0.0
40
210.000000000000
41
1.42857142857143
42
1.0
43
0.0
44
0.0
50
0.0
51
0.0000000000007958
71
0
72
100
73
1
74
3
75
0
76
0
77
0
78
1
281
0
65
1
110
0.0
120
0.0
130
0.0
111
1.0
121
0.0
131
0.0
112
0.0
122
1.0
132
0.0
79
0
146
0.0
0
ENDTAB
0
TABLE
2
LTYPE
5
247
330
0
100
AcDbSymbolTable
70
25
0
LTYPE
5
256
330
247
100
AcDbSymbolTableRecord
100
AcDbLinetypeTableRecord
2
ByBlock
70
0
3

72
65
73
0
40
0.0
0
LTYPE
5
257
330
247
100
AcDbSymbolTableRecord
100
AcDbLinetypeTableRecord
2
ByLayer
70
0
3

72
65
73
0
40
0.0
0
LTYPE
5
258
330
247
100
AcDbSymbolTableRecord
100
AcDbLinetypeTableRecord
2
Continuous
70
0
3
Solid line
72
65
73
0
40
0.0
0
LTYPE
5
273
330
247
100
AcDbSymbolTableRecord
100
AcDbLinetypeTableRecord
2
CENTER
70
0
3
Center ____ _ ____ _ ____ _ ____ _ ____ _ ____
72
65
73
4
40
2.0
49
1.25
74
0
49
-0.25
74
0
49
0.25
74
0
49
-0.25
74
0
0
LTYPE
5
274
330
247
100
AcDbSymbolTableRecord
100
AcDbLinetypeTableRecord
2
DASHDOT
70
0
3
Dashdot __ . __ . __ . __ . __ . __ . __ . __
72
65
73
4
40
1.0
49
0.5
74
0
49
-0.25
74
0
49
0.0
74
0
49
-0.25
74
0
0
LTYPE
5
275
330
247
100
AcDbSymbolTableRecord
100
AcDbLinetypeTableRecord
2
DASHED
70
0
3
Dashed __ __ __ __ __ __ __ __ __ __ __ __ __ _
72
65
73
2
40
0.75
49
0.5
74
0
49
-0.25
74
0
0
LTYPE
5
276
330
247
100
AcDbSymbolTableRecord
100
AcDbLinetypeTableRecord
2
HIDDEN
70
0
3
Hidden __ __ __ __ __ __ __ __ __ __ __ __ __ __
72
65
73
2
40
0.375
49
0.25
74
0
49
-0.125
74
0
0
LTYPE
5
277
330
247
100
AcDbSymbolTableRecord
100
AcDbLinetypeTableRecord
2
HIDDEN2
70
0
3
Hidden2 _ _ _ _ _ _ _ _ _ _ _ _ _ _ _ _ _
72
65
73
2
40
0.1875
49
0.125
74
0
49
-0.0625
74
0
0
LTYPE
5
278
330
247
100
AcDbSymbolTableRecord
100
AcDbLinetypeTableRecord
2
BORDER
70
0
3
Border __ __ . __ __ . __ __ . __ __ . __ __ .
72
65
73
6
40
1.75
49
0.5
74
0
49
-0.25
74
0
49
0.5
74
0
49
-0.25
74
0
49
0.0
74
0
49
-0.25
74
0
0
LTYPE
5
279
330
247
100
AcDbSymbolTableRecord
100
AcDbLinetypeTableRecord
2
BORDER2
70
0
3
Border2 __.__.__.__.__.__.__.__.__.__.__.
72
65
73
6
40
0.875
49
0.25
74
0
49
-0.125
74
0
49
0.25
74
0
49
-0.125
74
0
49
0.0
74
0
49
-0.125
74
0
0
LTYPE
5
27A
330
247
100
AcDbSymbolTableRecord
100
AcDbLinetypeTableRecord
2
BORDERX2
70
0
3
Borderx2  ____  ____  .  ____  ____  .  ___
72
65
73
6
40
3.5
49
1.0
74
0
49
-0.5
74
0
49
1.0
74
0
49
-0.5
74
0
49
0.0
74
0
49
-0.5
74
0
0
LTYPE
5
27B
330
247
100
AcDbSymbolTableRecord
100
AcDbLinetypeTableRecord
2
CENTER2
70
0
3
Center2  ___ _ ___ _ ___ _ ___ _ ___ _ ___
72
65
73
4
40
1.125
49
0.75
74
0
49
-0.125
74
0
49
0.125
74
0
49
-0.125
74
0
0
LTYPE
5
27C
330
247
100
AcDbSymbolTableRecord
100
AcDbLinetypeTableRecord
2
CENTERX2
70
0
3
Centerx2  ________  __  ________  __  _____
72
65
73
4
40
4.0
49
2.5
74
0
49
-0.5
74
0
49
0.5
74
0
49
-0.5
74
0
0
LTYPE
5
27D
330
247
100
AcDbSymbolTableRecord
100
AcDbLinetypeTableRecord
2
DASHDOT2
70
0
3
Dashdot2  _._._._._._._._._._._._._._._.
72
65
73
4
40
0.5
49
0.25
74
0
49
-0.125
74
0
49
0.0
74
0
49
-0.125
74
0
0
LTYPE
5
27E
330
247
100
AcDbSymbolTableRecord
100
AcDbLinetypeTableRecord
2
DASHDOTX2
70
0
3
Dashdotx2 ____  .  ____  .  ____  .  ___
72
65
73
4
40
2.0
49
1.0
74
0
49
-0.5
74
0
49
0.0
74
0
49
-0.5
74
0
0
LTYPE
5
27F
330
247
100
AcDbSymbolTableRecord
100
AcDbLinetypeTableRecord
2
DASHED2
70
0
3
Dashed2 _ _ _ _ _ _ _ _ _ _ _ _ _ _ _ _ _
72
65
73
2
40
0.375
49
0.25
74
0
49
-0.125
74
0
0
LTYPE
5
280
330
247
100
AcDbSymbolTableRecord
100
AcDbLinetypeTableRecord
2
DASHEDX2
70
0
3
Dashedx2 ____  ____  ____  ____  ____  ___
72
65
73
2
40
1.5
49
1.0
74
0
49
-0.5
74
0
0
LTYPE
5
281
330
247
100
AcDbSymbolTableRecord
100
AcDbLinetypeTableRecord
2
DIVIDE
70
0
3
Divide ____ . . ____ . . ____ . . ____ . . ____
72
65
73
6
40
1.25
49
0.5
74
0
49
-0.25
74
0
49
0.0
74
0
49
-0.25
74
0
49
0.0
74
0
49
-0.25
74
0
0
LTYPE
5
282
330
247
100
AcDbSymbolTableRecord
100
AcDbLinetypeTableRecord
2
DIVIDE2
70
0
3
Divide2 __..__..__..__..__..__..__..__.._
72
65
73
6
40
0.625
49
0.25
74
0
49
-0.125
74
0
49
0.0
74
0
49
-0.125
74
0
49
0.0
74
0
49
-0.125
74
0
0
LTYPE
5
283
330
247
100
AcDbSymbolTableRecord
100
AcDbLinetypeTableRecord
2
DIVIDEX2
70
0
3
Dividex2 ________  .  .  ________  .  .  _
72
65
73
6
40
2.5
49
1.0
74
0
49
-0.5
74
0
49
0.0
74
0
49
-0.5
74
0
49
0.0
74
0
49
-0.5
74
0
0
LTYPE
5
284
330
247
100
AcDbSymbolTableRecord
100
AcDbLinetypeTableRecord
2
DOT
70
0
3
Dot . . . . . . . . . . . . . . . . . . . . . . . .
72
65
73
2
40
0.25
49
0.0
74
0
49
-0.25
74
0
0
LTYPE
5
285
330
247
100
AcDbSymbolTableRecord
100
AcDbLinetypeTableRecord
2
DOT2
70
0
3
Dot2 ........................................
72
65
73
2
40
0.125
49
0.0
74
0
49
-0.125
74
0
0
LTYPE
5
286
330
247
100
AcDbSymbolTableRecord
100
AcDbLinetypeTableRecord
2
DOTX2
70
0
3
Dotx2 .  .  .  .  .  .  .  .  .  .  .  .  .  .
72
65
73
2
40
0.5
49
0.0
74
0
49
-0.5
74
0
0
LTYPE
5
287
330
247
100
AcDbSymbolTableRecord
100
AcDbLinetypeTableRecord
2
HIDDENX2
70
0
3
Hiddenx2 ____ ____ ____ ____ ____ ____ ____
72
65
73
2
40
0.75
49
0.5
74
0
49
-0.25
74
0
0
LTYPE
5
288
330
247
100
AcDbSymbolTableRecord
100
AcDbLinetypeTableRecord
2
PHANTOM
70
0
3
Phantom ______  __  __  ______  __  __  ______
72
65
73
6
40
2.5
49
1.25
74
0
49
-0.25
74
0
49
0.25
74
0
49
-0.25
74
0
49
0.25
74
0
49
-0.25
74
0
0
LTYPE
5
289
330
247
100
AcDbSymbolTableRecord
100
AcDbLinetypeTableRecord
2
PHANTOM2
70
0
3
Phantom2 ___ _ _ ___ _ _ ___ _ _ ___ _ _
72
65
73
6
40
1.25
49
0.625
74
0
49
-0.125
74
0
49
0.125
74
0
49
-0.125
74
0
49
0.125
74
0
49
-0.125
74
0
0
LTYPE
5
28A
330
247
100
AcDbSymbolTableRecord
100
AcDbLinetypeTableRecord
2
PHANTOMX2
70
0
3
Phantomx2 ____________    ____    ____   _
72
65
73
6
40
5.0
49
2.5
74
0
49
-0.5
74
0
49
0.5
74
0
49
-0.5
74
0
49
0.5
74
0
49
-0.5
74
0
0
ENDTAB
0
TABLE
2
LAYER
5
244
330
0
100
AcDbSymbolTable
70
6
0
LAYER
5
252
330
244
100
AcDbSymbolTableRecord
100
AcDbLayerTableRecord
2
0
70
0
62
7
6
Continuous
370
0
390
251
0
LAYER
5
23F
330
244
100
AcDbSymbolTableRecord
100
AcDbLayerTableRecord
2
Bemassung
70
0
 62
   7
6
Continuous
370
0
390
251
0
LAYER
5
240
330
244
100
AcDbSymbolTableRecord
100
AcDbLayerTableRecord
2
Rahmen
70
0
 62
   7
6
Continuous
370
0
390
251
0
LAYER
5
241
330
244
100
AcDbSymbolTableRecord
100
AcDbLayerTableRecord
2
Geo
70
0
 62
   7
6
Continuous
370
0
390
251
0
LAYER
5
33A
330
244
100
AcDbSymbolTableRecord
100
AcDbLayerTableRecord
2
Defpoints
70
0
62
7
6
Continuous
290
0
370
-3
390
251
0
LAYER
5
57E
330
244
100
AcDbSymbolTableRecord
100
AcDbLayerTableRecord
2
Text
70
0
 62
   7
6
Continuous
370
0
390
251
1001
AcAecLayerStandard
1000

1000

0
ENDTAB
0
TABLE
2
STYLE
5
245
330
0
100
AcDbSymbolTable
70
2
0
STYLE
5
253
330
245
100
AcDbSymbolTableRecord
100
AcDbTextStyleTableRecord
2
Standard
70
0
40
0.0
41
1.0
50
0.0
71
0
42
0.2
3
Arial
4

1001
ACAD
1000
Arial
1071
0
0
STYLE
5
132
330
245
100
AcDbSymbolTableRecord
100
AcDbTextStyleTableRecord
2
Beschriftung
70
0
40
0.0
41
1.0
50
0.0
71
0
42
0.2
3
Arial
4

1001
ACAD
1000
Arial
1071
0
1001
AcadAnnotative
1000
AnnotativeData
1070
1
1070
1
0
ENDTAB
0
TABLE
2
VIEW
5
248
330
0
100
AcDbSymbolTable
70
0
0
ENDTAB
0
TABLE
2
UCS
5
249
330
0
100
AcDbSymbolTable
70
0
0
ENDTAB
0
TABLE
2
APPID
5
24B
330
0
100
AcDbSymbolTable
70
13
0
APPID
5
254
330
24B
100
AcDbSymbolTableRecord
100
AcDbRegAppTableRecord
2
ACAD
70
0
0
APPID
5
26C
330
24B
100
AcDbSymbolTableRecord
100
AcDbRegAppTableRecord
2
VD_INVISIBLE_NOT_FOR_READ
70
0
0
APPID
5
26D
330
24B
100
AcDbSymbolTableRecord
100
AcDbRegAppTableRecord
2
VD_TEMPHATCH
70
0
0
APPID
5
26E
330
24B
100
AcDbSymbolTableRecord
100
AcDbRegAppTableRecord
2
VDEXTRAPARAM
70
0
0
APPID
5
26F
330
24B
100
AcDbSymbolTableRecord
100
AcDbRegAppTableRecord
2
PE_URL
70
0
0
APPID
5
270
330
24B
100
AcDbSymbolTableRecord
100
AcDbRegAppTableRecord
2
VD_UNKNOWN
70
0
0
APPID
5
28F
330
24B
100
AcDbSymbolTableRecord
100
AcDbRegAppTableRecord
2
AcadAnnotative
70
0
0
APPID
5
290
330
24B
100
AcDbSymbolTableRecord
100
AcDbRegAppTableRecord
2
ACAD_DSTYLE_DIMJAG
70
0
0
APPID
5
291
330
24B
100
AcDbSymbolTableRecord
100
AcDbRegAppTableRecord
2
ACAD_DSTYLE_DIMTALN
70
0
0
APPID
5
293
330
24B
100
AcDbSymbolTableRecord
100
AcDbRegAppTableRecord
2
ACAD_PSEXT
70
0
0
APPID
5
42A
330
24B
100
AcDbSymbolTableRecord
100
AcDbRegAppTableRecord
2
ACAD_MLEADERVER
70
0
0
APPID
5
532
330
24B
100
AcDbSymbolTableRecord
100
AcDbRegAppTableRecord
2
ACAD_EXEMPT_FROM_CAD_STANDARDS
70
0
0
APPID
5
57F
330
24B
100
AcDbSymbolTableRecord
100
AcDbRegAppTableRecord
2
AcAecLayerStandard
70
0
0
ENDTAB
0
TABLE
2
DIMSTYLE
5
24C
330
0
100
AcDbSymbolTable
70
3
100
AcDbDimStyleTable
71
2
340
27
340
269
0
DIMSTYLE
105
269
330
24C
100
AcDbSymbolTableRecord
100
AcDbDimStyleTableRecord
2
Standard
70
0
172
1
174
1
288
1
340
253
342
23C
0
DIMSTYLE
105
137
330
24C
100
AcDbSymbolTableRecord
100
AcDbDimStyleTableRecord
2
Beschriftung
70
0
41
2.5
42
0.625
44
1.25
73
0
74
0
77
1
140
2.5
147
0.625
172
1
174
1
271
2
288
1
340
253
342
23C
1001
AcadAnnotative
1000
AnnotativeData
1070
1
1070
1
1001
ACAD_DSTYLE_DIMJAG
1070
388
1040
1.5
1001
ACAD_DSTYLE_DIMTALN
1070
392
1070
0
0
DIMSTYLE
105
27
102
{ACAD_REACTORS
102
}
330
24C
100
AcDbSymbolTableRecord
100
AcDbDimStyleTableRecord
2
BEM-ISBE
70
0
41
2.5
42
0.625
44
1.25
48
0.000000001
71
1
73
0
74
0
77
1
140
2.5
144
1.00000000000000
146
0.5
147
0.625
171
 3
172
 1
179
 3
271
 3
272
 3
274
 3
340
253
342
23C
1001
ACAD_DSTYLE_DIMJAG
1070
388
1040
1.5
1001
ACAD_DSTYLE_DIMTALN
1070
392
1070
1
0
ENDTAB
0
TABLE
2
BLOCK_RECORD
5
243
330
0
100
AcDbSymbolTable
70
5
0
BLOCK_RECORD
5
261
330
243
100
AcDbSymbolTableRecord
100
AcDbBlockTableRecord
2
*Model_Space
340
FD0
0
BLOCK_RECORD
5
25D
330
243
100
AcDbSymbolTableRecord
100
AcDbBlockTableRecord
2
*Paper_Space
340
FD1
0
BLOCK_RECORD
5
265
330
243
100
AcDbSymbolTableRecord
100
AcDbBlockTableRecord
2
*Paper_Space0
340
0
0
BLOCK_RECORD
5
23C
330
243
100
AcDbSymbolTableRecord
100
AcDbBlockTableRecord
2
VDDIM_DEFAULT
340
0
102
{BLKREFS
102
}
0
BLOCK_RECORD
5
23E
330
243
100
AcDbSymbolTableRecord
100
AcDbBlockTableRecord
2
VDDIM_NONE
340
0
0
ENDTAB
0
ENDSEC
0
SECTION
2
BLOCKS
0
BLOCK
5
262
330
261
100
AcDbEntity
8
0
100
AcDbBlockBegin
2
*Model_Space
70
0
10
0.0
20
0.0
30
0.0
3
*Model_Space
1

0
ENDBLK
5
263
330
261
100
AcDbEntity
8
0
100
AcDbBlockEnd
0
BLOCK
5
25E
330
25D
100
AcDbEntity
67
1
8
0
100
AcDbBlockBegin
2
*Paper_Space
70
0
10
0.0
20
0.0
30
0.0
3
*Paper_Space
1

0
ENDBLK
5
25F
330
25D
100
AcDbEntity
67
1
8
0
100
AcDbBlockEnd
0
BLOCK
5
266
330
265
100
AcDbEntity
8
0
100
AcDbBlockBegin
2
*Paper_Space0
70
0
10
0.0
20
0.0
30
0.0
3
*Paper_Space0
1

0
VIEWPORT
5
296
102
{ACAD_XDICTIONARY
360
58E
102
}
330
265
100
AcDbEntity
8
0
60
1
100
AcDbViewport
10
0.0
20
0.0
30
0.0
40
10.0
41
10.0
69
0
12
0.0
22
0.0
13
0.0
23
0.0
14
1.0
24
1.0
15
0.0
25
0.0
16
0.0
26
0.0
36
1.0
17
0.0
27
0.0
37
0.0
42
0.0
43
0.0
44
0.0
45
10.0
50
0.0
51
0.0000000000007958
72
100
90
163872
1

281
0
71
0
74
0
110
0.0
120
0.0
130
0.0
111
1.0
121
0.0
131
0.0
112
0.0
122
1.0
132
0.0
79
0
146
0.0
1001
VD_INVISIBLE_NOT_FOR_READ
1000
VD_INVISIBLE_NOT_FOR_READ
0
VIEWPORT
5
297
102
{ACAD_XDICTIONARY
360
590
102
}
330
265
100
AcDbEntity
8
0
60
1
100
AcDbViewport
10
0.0
20
0.0
30
0.0
40
10.0
41
10.0
69
0
12
0.0
22
0.0
13
0.0
23
0.0
14
1.0
24
1.0
15
0.0
25
0.0
16
0.0
26
0.0
36
1.0
17
0.0
27
0.0
37
0.0
42
0.0
43
0.0
44
0.0
45
10.0
50
0.0
51
0.0000000000007958
72
100
90
163872
1

281
0
71
0
74
0
110
0.0
120
0.0
130
0.0
111
1.0
121
0.0
131
0.0
112
0.0
122
1.0
132
0.0
79
0
146
0.0
1001
VD_INVISIBLE_NOT_FOR_READ
1000
VD_INVISIBLE_NOT_FOR_READ
0
ENDBLK
5
267
330
265
100
AcDbEntity
8
0
100
AcDbBlockEnd
0
BLOCK
5
28B
330
23C
100
AcDbEntity
8
0
100
AcDbBlockBegin
2
VDDIM_DEFAULT
70
0
10
0.0
20
0.0
30
0.0
3
VDDIM_DEFAULT
1

0
LWPOLYLINE
5
23D
330
23C
100
AcDbEntity
8
0
6
Continuous
62
0
100
AcDbPolyline
90
4
70
0
43
0.0
10
0.0
20
0.0
10
-1.0
20
-0.1665
10
-1.0
20
0.1665
10
0.0
20
0.0
1001
VDEXTRAPARAM
1071
1
1071
0
1071
0
1040
1.0
1000

1000

1040
0.0
1040
0.0
0
HATCH
5
292
330
23C
100
AcDbEntity
8
0
6
Continuous
62
0
100
AcDbHatch
10
0.0
20
0.0
30
0.0
210
0.0
220
0.0
230
1.0
2
SOLID
70
1
71
0
91
1
92
2
72
0
73
1
93
3
10
0.0
20
0.0
10
-1.0
20
-0.1665
10
-1.0
20
0.1665
97
0
75
0
76
1
98
1
10
0.0
20
0.0
1001
VDEXTRAPARAM
1071
1
1071
0
1071
0
1040
1.0
1000

1000

1040
0.0
1040
0.0
1001
VD_TEMPHATCH
1000
VD_TEMPHATCH
0
ENDBLK
5
28C
330
23C
100
AcDbEntity
8
0
100
AcDbBlockEnd
0
BLOCK
5
28D
330
23E
100
AcDbEntity
8
0
100
AcDbBlockBegin
2
VDDIM_NONE
70
0
10
0.0
20
0.0
30
0.0
3
VDDIM_NONE
1

0
ENDBLK
5
28E
330
23E
100
AcDbEntity
8
0
100
AcDbBlockEnd
0
ENDSEC
0
SECTION
2
ENTITIES
  0
ARC
  5
F10002
330
F10003
100
AcDbEntity
8
Geo
100
AcDbCircle
10
-58.1383173424312
20
14.5073958766953
30
0.00000000000000
 40
0.199999999999999
100
AcDbArc
 50
90.0000000000000
 51
180.000000000000
  0
LINE
  5
F10004
330
F10005
100
AcDbEntity
8
Geo
100
AcDbLine
10
-58.1383173424312
20
14.7073958766953
30
0.00000000000000
11
-57.5383173424312
21
14.7073958766953
31
0.00000000000000
  0
LINE
  5
F10006
330
F10007
100
AcDbEntity
8
Geo
100
AcDbLine
10
-57.5383173424312
20
14.7073958766953
30
0.00000000000000
11
-57.5380087960551
21
14.7073958766953
31
0.00000000000000
  0
LINE
  5
F10008
330
F10009
100
AcDbEntity
8
Geo
100
AcDbLine
10
-57.5380087960551
20
14.7073958766953
30
0.00000000000000
11
-50.8203173424312
21
16.5073958766953
31
0.00000000000000
  0
LINE
  5
F1000A
330
F1000B
100
AcDbEntity
8
Geo
100
AcDbLine
10
-50.8203173424312
20
16.5073958766953
30
0.00000000000000
11
-18.9383173424312
21
16.5073958766953
31
0.00000000000000
  0
LINE
  5
F1000C
330
F1000D
100
AcDbEntity
8
Geo
100
AcDbLine
10
-18.9383173424312
20
16.5073958766953
30
0.00000000000000
11
-18.3383173424312
21
15.9073958766953
31
0.00000000000000
  0
LINE
  5
F1000E
330
F1000F
100
AcDbEntity
8
Geo
100
AcDbLine
10
-58.3089178055833
20
14.6117773021133
30
0.00000000000000
11
-58.3083173424312
21
14.6127200641536
31
0.00000000000000
  0
LINE
  5
F10010
330
F10011
100
AcDbEntity
8
Geo
100
AcDbLine
10
-58.3083173424312
20
14.6127200641536
30
0.00000000000000
11
-58.3053173424312
21
14.6170704284212
31
0.00000000000000
  0
LINE
  5
F10012
330
F10013
100
AcDbEntity
8
Geo
100
AcDbLine
10
-58.3053173424312
20
14.6170704284212
30
0.00000000000000
11
-58.3023173424312
21
14.6210297816974
31
0.00000000000000
  0
LINE
  5
F10014
330
F10015
100
AcDbEntity
8
Geo
100
AcDbLine
10
-58.3023173424312
20
14.6210297816974
30
0.00000000000000
11
-58.2993173424312
21
14.6247339133041
31
0.00000000000000
  0
LINE
  5
F10016
330
F10017
100
AcDbEntity
8
Geo
100
AcDbLine
10
-58.2993173424312
20
14.6247339133041
30
0.00000000000000
11
-58.2963173424312
21
14.6282411234275
31
0.00000000000000
  0
LINE
  5
F10018
330
F10019
100
AcDbEntity
8
Geo
100
AcDbLine
10
-58.2963173424312
20
14.6282411234275
30
0.00000000000000
11
-58.2933173424312
21
14.6315860255773
31
0.00000000000000
  0
LINE
  5
F1001A
330
F1001B
100
AcDbEntity
8
Geo
100
AcDbLine
10
-58.2933173424312
20
14.6315860255773
30
0.00000000000000
11
-58.2903173424312
21
14.6347898564352
31
0.00000000000000
  0
LINE
  5
F1001C
330
F1001D
100
AcDbEntity
8
Geo
100
AcDbLine
10
-58.2903173424312
20
14.6347898564352
30
0.00000000000000
11
-58.2873173424312
21
14.6378709086540
31
0.00000000000000
  0
LINE
  5
F1001E
330
F1001F
100
AcDbEntity
8
Geo
100
AcDbLine
10
-58.2873173424312
20
14.6378709086540
30
0.00000000000000
11
-58.2843173424312
21
14.6408379014564
31
0.00000000000000
  0
LINE
  5
F10020
330
F10021
100
AcDbEntity
8
Geo
100
AcDbLine
10
-58.2843173424312
20
14.6408379014564
30
0.00000000000000
11
-58.2813173424312
21
14.6437039967799
31
0.00000000000000
  0
LINE
  5
F10022
330
F10023
100
AcDbEntity
8
Geo
100
AcDbLine
10
-58.2813173424312
20
14.6437039967799
30
0.00000000000000
11
-58.2783173424312
21
14.6464725223888
31
0.00000000000000
  0
LINE
  5
F10024
330
F10025
100
AcDbEntity
8
Geo
100
AcDbLine
10
-58.2783173424312
20
14.6464725223888
30
0.00000000000000
11
-58.2753173424312
21
14.6491182420008
31
0.00000000000000
  0
LINE
  5
F10026
330
F10027
100
AcDbEntity
8
Geo
100
AcDbLine
10
-58.2753173424312
20
14.6491182420008
30
0.00000000000000
11
-58.2723173424312
21
14.6516306061626
31
0.00000000000000
  0
LINE
  5
F10028
330
F10029
100
AcDbEntity
8
Geo
100
AcDbLine
10
-58.2723173424312
20
14.6516306061626
30
0.00000000000000
11
-58.2693173424312
21
14.6540160016760
31
0.00000000000000
  0
LINE
  5
F1002A
330
F1002B
100
AcDbEntity
8
Geo
100
AcDbLine
10
-58.2693173424312
20
14.6540160016760
30
0.00000000000000
11
-58.2663173424312
21
14.6562800987708
31
0.00000000000000
  0
LINE
  5
F1002C
330
F1002D
100
AcDbEntity
8
Geo
100
AcDbLine
10
-58.2663173424312
20
14.6562800987708
30
0.00000000000000
11
-58.2633173424312
21
14.6584279589180
31
0.00000000000000
  0
LINE
  5
F1002E
330
F1002F
100
AcDbEntity
8
Geo
100
AcDbLine
10
-58.2633173424312
20
14.6584279589180
30
0.00000000000000
11
-58.2603173424312
21
14.6604641229064
31
0.00000000000000
  0
LINE
  5
F10030
330
F10031
100
AcDbEntity
8
Geo
100
AcDbLine
10
-58.2603173424312
20
14.6604641229064
30
0.00000000000000
11
-58.2573173424312
21
14.6623926834229
31
0.00000000000000
  0
LINE
  5
F10032
330
F10033
100
AcDbEntity
8
Geo
100
AcDbLine
10
-58.2573173424312
20
14.6623926834229
30
0.00000000000000
11
-58.2543173424312
21
14.6642173453413
31
0.00000000000000
  0
LINE
  5
F10034
330
F10035
100
AcDbEntity
8
Geo
100
AcDbLine
10
-58.2543173424312
20
14.6642173453413
30
0.00000000000000
11
-58.2513173424312
21
14.6659414761676
31
0.00000000000000
  0
LINE
  5
F10036
330
F10037
100
AcDbEntity
8
Geo
100
AcDbLine
10
-58.2513173424312
20
14.6659414761676
30
0.00000000000000
11
-58.2483173424312
21
14.6675681485363
31
0.00000000000000
  0
LINE
  5
F10038
330
F10039
100
AcDbEntity
8
Geo
100
AcDbLine
10
-58.2483173424312
20
14.6675681485363
30
0.00000000000000
11
-58.2453173424312
21
14.6691001762330
31
0.00000000000000
  0
LINE
  5
F1003A
330
F1003B
100
AcDbEntity
8
Geo
100
AcDbLine
10
-58.2453173424312
20
14.6691001762330
30
0.00000000000000
11
-58.2423173424312
21
14.6705401449068
31
0.00000000000000
  0
LINE
  5
F1003C
330
F1003D
100
AcDbEntity
8
Geo
100
AcDbLine
10
-58.2423173424312
20
14.6705401449068
30
0.00000000000000
11
-58.2393173424312
21
14.6718904383975
31
0.00000000000000
  0
LINE
  5
F1003E
330
F1003F
100
AcDbEntity
8
Geo
100
AcDbLine
10
-58.2393173424312
20
14.6718904383975
30
0.00000000000000
11
-58.2363173424312
21
14.6731532614150
31
0.00000000000000
  0
LINE
  5
F10040
330
F10041
100
AcDbEntity
8
Geo
100
AcDbLine
10
-58.2363173424312
20
14.6731532614150
30
0.00000000000000
11
-58.2333173424312
21
14.6743306591701
31
0.00000000000000
  0
LINE
  5
F10042
330
F10043
100
AcDbEntity
8
Geo
100
AcDbLine
10
-58.2333173424312
20
14.6743306591701
30
0.00000000000000
11
-58.2303173424312
21
14.6754245344391
31
0.00000000000000
  0
LINE
  5
F10044
330
F10045
100
AcDbEntity
8
Geo
100
AcDbLine
10
-58.2303173424312
20
14.6754245344391
30
0.00000000000000
11
-58.2273173424312
21
14.6764366624595
31
0.00000000000000
  0
LINE
  5
F10046
330
F10047
100
AcDbEntity
8
Geo
100
AcDbLine
10
-58.2273173424312
20
14.6764366624595
30
0.00000000000000
11
-58.2243173424312
21
14.6773687039816
31
0.00000000000000
  0
LINE
  5
F10048
330
F10049
100
AcDbEntity
8
Geo
100
AcDbLine
10
-58.2243173424312
20
14.6773687039816
30
0.00000000000000
11
-58.2213173424312
21
14.6782222167460
31
0.00000000000000
  0
LINE
  5
F1004A
330
F1004B
100
AcDbEntity
8
Geo
100
AcDbLine
10
-58.2213173424312
20
14.6782222167460
30
0.00000000000000
11
-58.2183173424312
21
14.6789986656106
31
0.00000000000000
  0
LINE
  5
F1004C
330
F1004D
100
AcDbEntity
8
Geo
100
AcDbLine
10
-58.2183173424312
20
14.6789986656106
30
0.00000000000000
11
-58.2153173424312
21
14.6796994315146
31
0.00000000000000
  0
LINE
  5
F1004E
330
F1004F
100
AcDbEntity
8
Geo
100
AcDbLine
10
-58.2153173424312
20
14.6796994315146
30
0.00000000000000
11
-58.2123173424312
21
14.6803258194362
31
0.00000000000000
  0
LINE
  5
F10050
330
F10051
100
AcDbEntity
8
Geo
100
AcDbLine
10
-58.2123173424312
20
14.6803258194362
30
0.00000000000000
11
-58.2093173424312
21
14.6808790654769
31
0.00000000000000
  0
LINE
  5
F10052
330
F10053
100
AcDbEntity
8
Geo
100
AcDbLine
10
-58.2093173424312
20
14.6808790654769
30
0.00000000000000
11
-58.2063173424312
21
14.6813603431854
31
0.00000000000000
  0
LINE
  5
F10054
330
F10055
100
AcDbEntity
8
Geo
100
AcDbLine
10
-58.2063173424312
20
14.6813603431854
30
0.00000000000000
11
-58.2033173424312
21
14.6817707692147
31
0.00000000000000
  0
LINE
  5
F10056
330
F10057
100
AcDbEntity
8
Geo
100
AcDbLine
10
-58.2033173424312
20
14.6817707692147
30
0.00000000000000
11
-58.2003173424312
21
14.6821114083964
31
0.00000000000000
  0
LINE
  5
F10058
330
F10059
100
AcDbEntity
8
Geo
100
AcDbLine
10
-58.2003173424312
20
14.6821114083964
30
0.00000000000000
11
-58.1973173424312
21
14.6823832783001
31
0.00000000000000
  0
LINE
  5
F1005A
330
F1005B
100
AcDbEntity
8
Geo
100
AcDbLine
10
-58.1973173424312
20
14.6823832783001
30
0.00000000000000
11
-58.1943173424312
21
14.6825873533396
31
0.00000000000000
  0
LINE
  5
F1005C
330
F1005D
100
AcDbEntity
8
Geo
100
AcDbLine
10
-58.1943173424312
20
14.6825873533396
30
0.00000000000000
11
-58.1913173424312
21
14.6827245684762
31
0.00000000000000
  0
LINE
  5
F1005E
330
F1005F
100
AcDbEntity
8
Geo
100
AcDbLine
10
-58.1913173424312
20
14.6827245684762
30
0.00000000000000
11
-58.1883173424312
21
14.6827958225652
31
0.00000000000000
  0
LINE
  5
F10060
330
F10061
100
AcDbEntity
8
Geo
100
AcDbLine
10
-58.1883173424312
20
14.6827958225652
30
0.00000000000000
11
-58.1853173424312
21
14.6828019813841
31
0.00000000000000
  0
LINE
  5
F10062
330
F10063
100
AcDbEntity
8
Geo
100
AcDbLine
10
-58.1853173424312
20
14.6828019813841
30
0.00000000000000
11
-58.1823173424312
21
14.6827438803759
31
0.00000000000000
  0
LINE
  5
F10064
330
F10065
100
AcDbEntity
8
Geo
100
AcDbLine
10
-58.1823173424312
20
14.6827438803759
30
0.00000000000000
11
-58.1793173424312
21
14.6826223271379
31
0.00000000000000
  0
LINE
  5
F10066
330
F10067
100
AcDbEntity
8
Geo
100
AcDbLine
10
-58.1793173424312
20
14.6826223271379
30
0.00000000000000
11
-58.1763173424312
21
14.6824381036806
31
0.00000000000000
  0
LINE
  5
F10068
330
F10069
100
AcDbEntity
8
Geo
100
AcDbLine
10
-58.1763173424312
20
14.6824381036806
30
0.00000000000000
11
-58.1733173424312
21
14.6821919684813
31
0.00000000000000
  0
LINE
  5
F1006A
330
F1006B
100
AcDbEntity
8
Geo
100
AcDbLine
10
-58.1733173424312
20
14.6821919684813
30
0.00000000000000
11
-58.1703173424312
21
14.6818846583490
31
0.00000000000000
  0
LINE
  5
F1006C
330
F1006D
100
AcDbEntity
8
Geo
100
AcDbLine
10
-58.1703173424312
20
14.6818846583490
30
0.00000000000000
11
-58.1673173424312
21
14.6815168901217
31
0.00000000000000
  0
LINE
  5
F1006E
330
F1006F
100
AcDbEntity
8
Geo
100
AcDbLine
10
-58.1673173424312
20
14.6815168901217
30
0.00000000000000
11
-58.1643173424312
21
14.6810893622089
31
0.00000000000000
  0
LINE
  5
F10070
330
F10071
100
AcDbEntity
8
Geo
100
AcDbLine
10
-58.1643173424312
20
14.6810893622089
30
0.00000000000000
11
-58.1613173424312
21
14.6806027559928
31
0.00000000000000
  0
LINE
  5
F10072
330
F10073
100
AcDbEntity
8
Geo
100
AcDbLine
10
-58.1613173424312
20
14.6806027559928
30
0.00000000000000
11
-58.1583173424312
21
14.6800577371018
31
0.00000000000000
  0
LINE
  5
F10074
330
F10075
100
AcDbEntity
8
Geo
100
AcDbLine
10
-58.1583173424312
20
14.6800577371018
30
0.00000000000000
11
-58.1553173424312
21
14.6794549565652
31
0.00000000000000
  0
LINE
  5
F10076
330
F10077
100
AcDbEntity
8
Geo
100
AcDbLine
10
-58.1553173424312
20
14.6794549565652
30
0.00000000000000
11
-58.1523173424312
21
14.6787950518584
31
0.00000000000000
  0
LINE
  5
F10078
330
F10079
100
AcDbEntity
8
Geo
100
AcDbLine
10
-58.1523173424312
20
14.6787950518584
30
0.00000000000000
11
-58.1493173424312
21
14.6780786478473
31
0.00000000000000
  0
LINE
  5
F1007A
330
F1007B
100
AcDbEntity
8
Geo
100
AcDbLine
10
-58.1493173424312
20
14.6780786478473
30
0.00000000000000
11
-58.1463173424312
21
14.6773063576383
31
0.00000000000000
  0
LINE
  5
F1007C
330
F1007D
100
AcDbEntity
8
Geo
100
AcDbLine
10
-58.1463173424312
20
14.6773063576383
30
0.00000000000000
11
-58.1433173424312
21
14.6764787833408
31
0.00000000000000
  0
LINE
  5
F1007E
330
F1007F
100
AcDbEntity
8
Geo
100
AcDbLine
10
-58.1433173424312
20
14.6764787833408
30
0.00000000000000
11
-58.1403173424312
21
14.6755965167460
31
0.00000000000000
  0
LINE
  5
F10080
330
F10081
100
AcDbEntity
8
Geo
100
AcDbLine
10
-58.1403173424312
20
14.6755965167460
30
0.00000000000000
11
-58.1373173424312
21
14.6746624233941
31
0.00000000000000
  0
LINE
  5
F10082
330
F10083
100
AcDbEntity
8
Geo
100
AcDbLine
10
-58.1373173424312
20
14.6746624233941
30
0.00000000000000
11
-58.1343173424312
21
14.6737066141371
31
0.00000000000000
  0
LINE
  5
F10084
330
F10085
100
AcDbEntity
8
Geo
100
AcDbLine
10
-58.1343173424312
20
14.6737066141371
30
0.00000000000000
11
-58.1313173424312
21
14.6727383316528
31
0.00000000000000
  0
LINE
  5
F10086
330
F10087
100
AcDbEntity
8
Geo
100
AcDbLine
10
-58.1313173424312
20
14.6727383316528
30
0.00000000000000
11
-58.1283173424312
21
14.6717576485619
31
0.00000000000000
  0
LINE
  5
F10088
330
F10089
100
AcDbEntity
8
Geo
100
AcDbLine
10
-58.1283173424312
20
14.6717576485619
30
0.00000000000000
11
-58.1253173424312
21
14.6707646384151
31
0.00000000000000
  0
LINE
  5
F1008A
330
F1008B
100
AcDbEntity
8
Geo
100
AcDbLine
10
-58.1253173424312
20
14.6707646384151
30
0.00000000000000
11
-58.1223173424312
21
14.6697593756878
31
0.00000000000000
  0
LINE
  5
F1008C
330
F1008D
100
AcDbEntity
8
Geo
100
AcDbLine
10
-58.1223173424312
20
14.6697593756878
30
0.00000000000000
11
-58.1193173424312
21
14.6687419357741
31
0.00000000000000
  0
LINE
  5
F1008E
330
F1008F
100
AcDbEntity
8
Geo
100
AcDbLine
10
-58.1193173424312
20
14.6687419357741
30
0.00000000000000
11
-58.1163173424312
21
14.6677123949817
31
0.00000000000000
  0
LINE
  5
F10090
330
F10091
100
AcDbEntity
8
Geo
100
AcDbLine
10
-58.1163173424312
20
14.6677123949817
30
0.00000000000000
11
-58.1133173424312
21
14.6666708305255
31
0.00000000000000
  0
LINE
  5
F10092
330
F10093
100
AcDbEntity
8
Geo
100
AcDbLine
10
-58.1133173424312
20
14.6666708305255
30
0.00000000000000
11
-58.1103173424312
21
14.6656173205225
31
0.00000000000000
  0
LINE
  5
F10094
330
F10095
100
AcDbEntity
8
Geo
100
AcDbLine
10
-58.1103173424312
20
14.6656173205225
30
0.00000000000000
11
-58.1073173424312
21
14.6645519439853
31
0.00000000000000
  0
LINE
  5
F10096
330
F10097
100
AcDbEntity
8
Geo
100
AcDbLine
10
-58.1073173424312
20
14.6645519439853
30
0.00000000000000
11
-58.1043173424312
21
14.6634747808167
31
0.00000000000000
  0
LINE
  5
F10098
330
F10099
100
AcDbEntity
8
Geo
100
AcDbLine
10
-58.1043173424312
20
14.6634747808167
30
0.00000000000000
11
-58.1013173424312
21
14.6623859118036
31
0.00000000000000
  0
LINE
  5
F1009A
330
F1009B
100
AcDbEntity
8
Geo
100
AcDbLine
10
-58.1013173424312
20
14.6623859118036
30
0.00000000000000
11
-58.0983173424312
21
14.6612854186104
31
0.00000000000000
  0
LINE
  5
F1009C
330
F1009D
100
AcDbEntity
8
Geo
100
AcDbLine
10
-58.0983173424312
20
14.6612854186104
30
0.00000000000000
11
-58.0953173424312
21
14.6601733837737
31
0.00000000000000
  0
LINE
  5
F1009E
330
F1009F
100
AcDbEntity
8
Geo
100
AcDbLine
10
-58.0953173424312
20
14.6601733837737
30
0.00000000000000
11
-58.0923173424312
21
14.6590498906956
31
0.00000000000000
  0
LINE
  5
F100A0
330
F100A1
100
AcDbEntity
8
Geo
100
AcDbLine
10
-58.0923173424312
20
14.6590498906956
30
0.00000000000000
11
-58.0893173424312
21
14.6579150236375
31
0.00000000000000
  0
LINE
  5
F100A2
330
F100A3
100
AcDbEntity
8
Geo
100
AcDbLine
10
-58.0893173424312
20
14.6579150236375
30
0.00000000000000
11
-58.0863173424312
21
14.6567688677140
31
0.00000000000000
  0
LINE
  5
F100A4
330
F100A5
100
AcDbEntity
8
Geo
100
AcDbLine
10
-58.0863173424312
20
14.6567688677140
30
0.00000000000000
11
-58.0833173424312
21
14.6556115088862
31
0.00000000000000
  0
LINE
  5
F100A6
330
F100A7
100
AcDbEntity
8
Geo
100
AcDbLine
10
-58.0833173424312
20
14.6556115088862
30
0.00000000000000
11
-58.0803173424312
21
14.6544430339554
31
0.00000000000000
  0
LINE
  5
F100A8
330
F100A9
100
AcDbEntity
8
Geo
100
AcDbLine
10
-58.0803173424312
20
14.6544430339554
30
0.00000000000000
11
-58.0773173424312
21
14.6532635305568
31
0.00000000000000
  0
LINE
  5
F100AA
330
F100AB
100
AcDbEntity
8
Geo
100
AcDbLine
10
-58.0773173424312
20
14.6532635305568
30
0.00000000000000
11
-58.0743173424312
21
14.6520730871524
31
0.00000000000000
  0
LINE
  5
F100AC
330
F100AD
100
AcDbEntity
8
Geo
100
AcDbLine
10
-58.0743173424312
20
14.6520730871524
30
0.00000000000000
11
-58.0713173424312
21
14.6508717930252
31
0.00000000000000
  0
LINE
  5
F100AE
330
F100AF
100
AcDbEntity
8
Geo
100
AcDbLine
10
-58.0713173424312
20
14.6508717930252
30
0.00000000000000
11
-58.0683173424312
21
14.6496597382714
31
0.00000000000000
  0
LINE
  5
F100B0
330
F100B1
100
AcDbEntity
8
Geo
100
AcDbLine
10
-58.0683173424312
20
14.6496597382714
30
0.00000000000000
11
-58.0653173424312
21
14.6484370137948
31
0.00000000000000
  0
LINE
  5
F100B2
330
F100B3
100
AcDbEntity
8
Geo
100
AcDbLine
10
-58.0653173424312
20
14.6484370137948
30
0.00000000000000
11
-58.0623173424312
21
14.6472037112989
31
0.00000000000000
  0
LINE
  5
F100B4
330
F100B5
100
AcDbEntity
8
Geo
100
AcDbLine
10
-58.0623173424312
20
14.6472037112989
30
0.00000000000000
11
-58.0593173424312
21
14.6459599232810
31
0.00000000000000
  0
LINE
  5
F100B6
330
F100B7
100
AcDbEntity
8
Geo
100
AcDbLine
10
-58.0593173424312
20
14.6459599232810
30
0.00000000000000
11
-58.0563173424312
21
14.6447057430246
31
0.00000000000000
  0
LINE
  5
F100B8
330
F100B9
100
AcDbEntity
8
Geo
100
AcDbLine
10
-58.0563173424312
20
14.6447057430246
30
0.00000000000000
11
-58.0533173424311
21
14.6434412645925
31
0.00000000000000
  0
LINE
  5
F100BA
330
F100BB
100
AcDbEntity
8
Geo
100
AcDbLine
10
-58.0533173424311
20
14.6434412645925
30
0.00000000000000
11
-58.0503173424312
21
14.6421665828201
31
0.00000000000000
  0
LINE
  5
F100BC
330
F100BD
100
AcDbEntity
8
Geo
100
AcDbLine
10
-58.0503173424312
20
14.6421665828201
30
0.00000000000000
11
-58.0473173424312
21
14.6408817933080
31
0.00000000000000
  0
LINE
  5
F100BE
330
F100BF
100
AcDbEntity
8
Geo
100
AcDbLine
10
-58.0473173424312
20
14.6408817933080
30
0.00000000000000
11
-58.0443173424312
21
14.6395869924146
31
0.00000000000000
  0
LINE
  5
F100C0
330
F100C1
100
AcDbEntity
8
Geo
100
AcDbLine
10
-58.0443173424312
20
14.6395869924146
30
0.00000000000000
11
-58.0413173424312
21
14.6382822772496
31
0.00000000000000
  0
LINE
  5
F100C2
330
F100C3
100
AcDbEntity
8
Geo
100
AcDbLine
10
-58.0413173424312
20
14.6382822772496
30
0.00000000000000
11
-58.0383173424312
21
14.6369677456658
31
0.00000000000000
  0
LINE
  5
F100C4
330
F100C5
100
AcDbEntity
8
Geo
100
AcDbLine
10
-58.0383173424312
20
14.6369677456658
30
0.00000000000000
11
-58.0353173424312
21
14.6356434962527
31
0.00000000000000
  0
LINE
  5
F100C6
330
F100C7
100
AcDbEntity
8
Geo
100
AcDbLine
10
-58.0353173424312
20
14.6356434962527
30
0.00000000000000
11
-58.0323173424312
21
14.6343096283281
31
0.00000000000000
  0
LINE
  5
F100C8
330
F100C9
100
AcDbEntity
8
Geo
100
AcDbLine
10
-58.0323173424312
20
14.6343096283281
30
0.00000000000000
11
-58.0293173424312
21
14.6329662419317
31
0.00000000000000
  0
LINE
  5
F100CA
330
F100CB
100
AcDbEntity
8
Geo
100
AcDbLine
10
-58.0293173424312
20
14.6329662419317
30
0.00000000000000
11
-58.0263173424312
21
14.6316134378168
31
0.00000000000000
  0
LINE
  5
F100CC
330
F100CD
100
AcDbEntity
8
Geo
100
AcDbLine
10
-58.0263173424312
20
14.6316134378168
30
0.00000000000000
11
-58.0233173424312
21
14.6302513174430
31
0.00000000000000
  0
LINE
  5
F100CE
330
F100CF
100
AcDbEntity
8
Geo
100
AcDbLine
10
-58.0233173424312
20
14.6302513174430
30
0.00000000000000
11
-58.0203173424312
21
14.6288799829687
31
0.00000000000000
  0
LINE
  5
F100D0
330
F100D1
100
AcDbEntity
8
Geo
100
AcDbLine
10
-58.0203173424312
20
14.6288799829687
30
0.00000000000000
11
-58.0173173424312
21
14.6274995372434
31
0.00000000000000
  0
LINE
  5
F100D2
330
F100D3
100
AcDbEntity
8
Geo
100
AcDbLine
10
-58.0173173424312
20
14.6274995372434
30
0.00000000000000
11
-58.0143173424312
21
14.6261100837999
31
0.00000000000000
  0
LINE
  5
F100D4
330
F100D5
100
AcDbEntity
8
Geo
100
AcDbLine
10
-58.0143173424312
20
14.6261100837999
30
0.00000000000000
11
-58.0113173424312
21
14.6247117268465
31
0.00000000000000
  0
LINE
  5
F100D6
330
F100D7
100
AcDbEntity
8
Geo
100
AcDbLine
10
-58.0113173424312
20
14.6247117268465
30
0.00000000000000
11
-58.0083173424312
21
14.6233045712593
31
0.00000000000000
  0
LINE
  5
F100D8
330
F100D9
100
AcDbEntity
8
Geo
100
AcDbLine
10
-58.0083173424312
20
14.6233045712593
30
0.00000000000000
11
-58.0053173424312
21
14.6218887225743
31
0.00000000000000
  0
LINE
  5
F100DA
330
F100DB
100
AcDbEntity
8
Geo
100
AcDbLine
10
-58.0053173424312
20
14.6218887225743
30
0.00000000000000
11
-58.0023173424312
21
14.6204642869796
31
0.00000000000000
  0
LINE
  5
F100DC
330
F100DD
100
AcDbEntity
8
Geo
100
AcDbLine
10
-58.0023173424312
20
14.6204642869796
30
0.00000000000000
11
-57.9993173424312
21
14.6190313713071
31
0.00000000000000
  0
LINE
  5
F100DE
330
F100DF
100
AcDbEntity
8
Geo
100
AcDbLine
10
-57.9993173424312
20
14.6190313713071
30
0.00000000000000
11
-57.9963173424312
21
14.6175900830248
31
0.00000000000000
  0
LINE
  5
F100E0
330
F100E1
100
AcDbEntity
8
Geo
100
AcDbLine
10
-57.9963173424312
20
14.6175900830248
30
0.00000000000000
11
-57.9933173424312
21
14.6161405302288
31
0.00000000000000
  0
LINE
  5
F100E2
330
F100E3
100
AcDbEntity
8
Geo
100
AcDbLine
10
-57.9933173424312
20
14.6161405302288
30
0.00000000000000
11
-57.9903173424312
21
14.6146828216346
31
0.00000000000000
  0
LINE
  5
F100E4
330
F100E5
100
AcDbEntity
8
Geo
100
AcDbLine
10
-57.9903173424312
20
14.6146828216346
30
0.00000000000000
11
-57.9873173424312
21
14.6132170665699
31
0.00000000000000
  0
LINE
  5
F100E6
330
F100E7
100
AcDbEntity
8
Geo
100
AcDbLine
10
-57.9873173424312
20
14.6132170665699
30
0.00000000000000
11
-57.9843173424312
21
14.6117433749656
31
0.00000000000000
  0
LINE
  5
F100E8
330
F100E9
100
AcDbEntity
8
Geo
100
AcDbLine
10
-57.9843173424312
20
14.6117433749656
30
0.00000000000000
11
-57.9813173424312
21
14.6102618573478
31
0.00000000000000
  0
LINE
  5
F100EA
330
F100EB
100
AcDbEntity
8
Geo
100
AcDbLine
10
-57.9813173424312
20
14.6102618573478
30
0.00000000000000
11
-57.9783173424312
21
14.6087726248297
31
0.00000000000000
  0
LINE
  5
F100EC
330
F100ED
100
AcDbEntity
8
Geo
100
AcDbLine
10
-57.9783173424312
20
14.6087726248297
30
0.00000000000000
11
-57.9753173424312
21
14.6072757891029
31
0.00000000000000
  0
LINE
  5
F100EE
330
F100EF
100
AcDbEntity
8
Geo
100
AcDbLine
10
-57.9753173424312
20
14.6072757891029
30
0.00000000000000
11
-57.9723173424312
21
14.6057714624296
31
0.00000000000000
  0
LINE
  5
F100F0
330
F100F1
100
AcDbEntity
8
Geo
100
AcDbLine
10
-57.9723173424312
20
14.6057714624296
30
0.00000000000000
11
-57.9693173424312
21
14.6042597576335
31
0.00000000000000
  0
LINE
  5
F100F2
330
F100F3
100
AcDbEntity
8
Geo
100
AcDbLine
10
-57.9693173424312
20
14.6042597576335
30
0.00000000000000
11
-57.9663173424312
21
14.6027407880917
31
0.00000000000000
  0
LINE
  5
F100F4
330
F100F5
100
AcDbEntity
8
Geo
100
AcDbLine
10
-57.9663173424312
20
14.6027407880917
30
0.00000000000000
11
-57.9633173424312
21
14.6012146677262
31
0.00000000000000
  0
LINE
  5
F100F6
330
F100F7
100
AcDbEntity
8
Geo
100
AcDbLine
10
-57.9633173424312
20
14.6012146677262
30
0.00000000000000
11
-57.9603173424312
21
14.5996815109954
31
0.00000000000000
  0
LINE
  5
F100F8
330
F100F9
100
AcDbEntity
8
Geo
100
AcDbLine
10
-57.9603173424312
20
14.5996815109954
30
0.00000000000000
11
-57.9573173424312
21
14.5981414328852
31
0.00000000000000
  0
LINE
  5
F100FA
330
F100FB
100
AcDbEntity
8
Geo
100
AcDbLine
10
-57.9573173424312
20
14.5981414328852
30
0.00000000000000
11
-57.9543173424312
21
14.5965945489009
31
0.00000000000000
  0
LINE
  5
F100FC
330
F100FD
100
AcDbEntity
8
Geo
100
AcDbLine
10
-57.9543173424312
20
14.5965945489009
30
0.00000000000000
11
-57.9513173424312
21
14.5950409750580
31
0.00000000000000
  0
LINE
  5
F100FE
330
F100FF
100
AcDbEntity
8
Geo
100
AcDbLine
10
-57.9513173424312
20
14.5950409750580
30
0.00000000000000
11
-57.9483173424312
21
14.5934808278738
31
0.00000000000000
  0
LINE
  5
F10100
330
F10101
100
AcDbEntity
8
Geo
100
AcDbLine
10
-57.9483173424312
20
14.5934808278738
30
0.00000000000000
11
-57.9453173424312
21
14.5919142243586
31
0.00000000000000
  0
LINE
  5
F10102
330
F10103
100
AcDbEntity
8
Geo
100
AcDbLine
10
-57.9453173424312
20
14.5919142243586
30
0.00000000000000
11
-57.9423173424312
21
14.5903412820069
31
0.00000000000000
  0
LINE
  5
F10104
330
F10105
100
AcDbEntity
8
Geo
100
AcDbLine
10
-57.9423173424312
20
14.5903412820069
30
0.00000000000000
11
-57.9393173424312
21
14.5887621187887
31
0.00000000000000
  0
LINE
  5
F10106
330
F10107
100
AcDbEntity
8
Geo
100
AcDbLine
10
-57.9393173424312
20
14.5887621187887
30
0.00000000000000
11
-57.9363173424312
21
14.5871768531406
31
0.00000000000000
  0
LINE
  5
F10108
330
F10109
100
AcDbEntity
8
Geo
100
AcDbLine
10
-57.9363173424312
20
14.5871768531406
30
0.00000000000000
11
-57.9333173424312
21
14.5855856039565
31
0.00000000000000
  0
LINE
  5
F1010A
330
F1010B
100
AcDbEntity
8
Geo
100
AcDbLine
10
-57.9333173424312
20
14.5855856039565
30
0.00000000000000
11
-57.9303173424312
21
14.5839884905796
31
0.00000000000000
  0
LINE
  5
F1010C
330
F1010D
100
AcDbEntity
8
Geo
100
AcDbLine
10
-57.9303173424312
20
14.5839884905796
30
0.00000000000000
11
-57.9273173424312
21
14.5823856327925
31
0.00000000000000
  0
LINE
  5
F1010E
330
F1010F
100
AcDbEntity
8
Geo
100
AcDbLine
10
-57.9273173424312
20
14.5823856327925
30
0.00000000000000
11
-57.9243173424312
21
14.5807771508089
31
0.00000000000000
  0
LINE
  5
F10110
330
F10111
100
AcDbEntity
8
Geo
100
AcDbLine
10
-57.9243173424312
20
14.5807771508089
30
0.00000000000000
11
-57.9213173424312
21
14.5791631652642
31
0.00000000000000
  0
LINE
  5
F10112
330
F10113
100
AcDbEntity
8
Geo
100
AcDbLine
10
-57.9213173424312
20
14.5791631652642
30
0.00000000000000
11
-57.9183173424312
21
14.5775437972064
31
0.00000000000000
  0
LINE
  5
F10114
330
F10115
100
AcDbEntity
8
Geo
100
AcDbLine
10
-57.9183173424312
20
14.5775437972064
30
0.00000000000000
11
-57.9153173424312
21
14.5759191680874
31
0.00000000000000
  0
LINE
  5
F10116
330
F10117
100
AcDbEntity
8
Geo
100
AcDbLine
10
-57.9153173424312
20
14.5759191680874
30
0.00000000000000
11
-57.9123173424312
21
14.5742893997538
31
0.00000000000000
  0
LINE
  5
F10118
330
F10119
100
AcDbEntity
8
Geo
100
AcDbLine
10
-57.9123173424312
20
14.5742893997538
30
0.00000000000000
11
-57.9093173424312
21
14.5726546144372
31
0.00000000000000
  0
LINE
  5
F1011A
330
F1011B
100
AcDbEntity
8
Geo
100
AcDbLine
10
-57.9093173424312
20
14.5726546144372
30
0.00000000000000
11
-57.9063173424312
21
14.5710149347460
31
0.00000000000000
  0
LINE
  5
F1011C
330
F1011D
100
AcDbEntity
8
Geo
100
AcDbLine
10
-57.9063173424312
20
14.5710149347460
30
0.00000000000000
11
-57.9033173424312
21
14.5693704836551
31
0.00000000000000
  0
LINE
  5
F1011E
330
F1011F
100
AcDbEntity
8
Geo
100
AcDbLine
10
-57.9033173424312
20
14.5693704836551
30
0.00000000000000
11
-57.9003173424312
21
14.5677213844979
31
0.00000000000000
  0
LINE
  5
F10120
330
F10121
100
AcDbEntity
8
Geo
100
AcDbLine
10
-57.9003173424312
20
14.5677213844979
30
0.00000000000000
11
-57.8973173424312
21
14.5660677609558
31
0.00000000000000
  0
LINE
  5
F10122
330
F10123
100
AcDbEntity
8
Geo
100
AcDbLine
10
-57.8973173424312
20
14.5660677609558
30
0.00000000000000
11
-57.8943173424312
21
14.5644097370499
31
0.00000000000000
  0
LINE
  5
F10124
330
F10125
100
AcDbEntity
8
Geo
100
AcDbLine
10
-57.8943173424312
20
14.5644097370499
30
0.00000000000000
11
-57.8913173424312
21
14.5627474371311
31
0.00000000000000
  0
LINE
  5
F10126
330
F10127
100
AcDbEntity
8
Geo
100
AcDbLine
10
-57.8913173424312
20
14.5627474371311
30
0.00000000000000
11
-57.8883173424312
21
14.5610809858713
31
0.00000000000000
  0
LINE
  5
F10128
330
F10129
100
AcDbEntity
8
Geo
100
AcDbLine
10
-57.8883173424312
20
14.5610809858713
30
0.00000000000000
11
-57.8853173424312
21
14.5594105082535
31
0.00000000000000
  0
LINE
  5
F1012A
330
F1012B
100
AcDbEntity
8
Geo
100
AcDbLine
10
-57.8853173424312
20
14.5594105082535
30
0.00000000000000
11
-57.8823173424312
21
14.5577361295627
31
0.00000000000000
  0
LINE
  5
F1012C
330
F1012D
100
AcDbEntity
8
Geo
100
AcDbLine
10
-57.8823173424312
20
14.5577361295627
30
0.00000000000000
11
-57.8793173424312
21
14.5560579753765
31
0.00000000000000
  0
LINE
  5
F1012E
330
F1012F
100
AcDbEntity
8
Geo
100
AcDbLine
10
-57.8793173424312
20
14.5560579753765
30
0.00000000000000
11
-57.8763173424312
21
14.5543761715558
31
0.00000000000000
  0
LINE
  5
F10130
330
F10131
100
AcDbEntity
8
Geo
100
AcDbLine
10
-57.8763173424312
20
14.5543761715558
30
0.00000000000000
11
-57.8733173424312
21
14.5526908442349
31
0.00000000000000
  0
LINE
  5
F10132
330
F10133
100
AcDbEntity
8
Geo
100
AcDbLine
10
-57.8733173424312
20
14.5526908442349
30
0.00000000000000
11
-57.8703173424312
21
14.5510021198127
31
0.00000000000000
  0
LINE
  5
F10134
330
F10135
100
AcDbEntity
8
Geo
100
AcDbLine
10
-57.8703173424312
20
14.5510021198127
30
0.00000000000000
11
-57.8673173424311
21
14.5493101249427
31
0.00000000000000
  0
LINE
  5
F10136
330
F10137
100
AcDbEntity
8
Geo
100
AcDbLine
10
-57.8673173424311
20
14.5493101249427
30
0.00000000000000
11
-57.8643173424311
21
14.5476149865238
31
0.00000000000000
  0
LINE
  5
F10138
330
F10139
100
AcDbEntity
8
Geo
100
AcDbLine
10
-57.8643173424311
20
14.5476149865238
30
0.00000000000000
11
-57.8613173424311
21
14.5459168316904
31
0.00000000000000
  0
LINE
  5
F1013A
330
F1013B
100
AcDbEntity
8
Geo
100
AcDbLine
10
-57.8613173424311
20
14.5459168316904
30
0.00000000000000
11
-57.8583173424312
21
14.5442157878035
31
0.00000000000000
  0
LINE
  5
F1013C
330
F1013D
100
AcDbEntity
8
Geo
100
AcDbLine
10
-57.8583173424312
20
14.5442157878035
30
0.00000000000000
11
-57.8553173424312
21
14.5425119824406
31
0.00000000000000
  0
LINE
  5
F1013E
330
F1013F
100
AcDbEntity
8
Geo
100
AcDbLine
10
-57.8553173424312
20
14.5425119824406
30
0.00000000000000
11
-57.8523173424312
21
14.5408055433861
31
0.00000000000000
  0
LINE
  5
F10140
330
F10141
100
AcDbEntity
8
Geo
100
AcDbLine
10
-57.8523173424312
20
14.5408055433861
30
0.00000000000000
11
-57.8493173424312
21
14.5390965986223
31
0.00000000000000
  0
LINE
  5
F10142
330
F10143
100
AcDbEntity
8
Geo
100
AcDbLine
10
-57.8493173424312
20
14.5390965986223
30
0.00000000000000
11
-57.8463173424312
21
14.5373852763192
31
0.00000000000000
  0
LINE
  5
F10144
330
F10145
100
AcDbEntity
8
Geo
100
AcDbLine
10
-57.8463173424312
20
14.5373852763192
30
0.00000000000000
11
-57.8433173424312
21
14.5356717048252
31
0.00000000000000
  0
LINE
  5
F10146
330
F10147
100
AcDbEntity
8
Geo
100
AcDbLine
10
-57.8433173424312
20
14.5356717048252
30
0.00000000000000
11
-57.8403173424312
21
14.5339560126574
31
0.00000000000000
  0
LINE
  5
F10148
330
F10149
100
AcDbEntity
8
Geo
100
AcDbLine
10
-57.8403173424312
20
14.5339560126574
30
0.00000000000000
11
-57.8373173424312
21
14.5322383284918
31
0.00000000000000
  0
LINE
  5
F1014A
330
F1014B
100
AcDbEntity
8
Geo
100
AcDbLine
10
-57.8373173424312
20
14.5322383284918
30
0.00000000000000
11
-57.8343173424312
21
14.5305187811540
31
0.00000000000000
  0
LINE
  5
F1014C
330
F1014D
100
AcDbEntity
8
Geo
100
AcDbLine
10
-57.8343173424312
20
14.5305187811540
30
0.00000000000000
11
-57.8313173424312
21
14.5287974996091
31
0.00000000000000
  0
LINE
  5
F1014E
330
F1014F
100
AcDbEntity
8
Geo
100
AcDbLine
10
-57.8313173424312
20
14.5287974996091
30
0.00000000000000
11
-57.8283173424312
21
14.5270746129526
31
0.00000000000000
  0
LINE
  5
F10150
330
F10151
100
AcDbEntity
8
Geo
100
AcDbLine
10
-57.8283173424312
20
14.5270746129526
30
0.00000000000000
11
-57.8253173424312
21
14.5253502504001
31
0.00000000000000
  0
LINE
  5
F10152
330
F10153
100
AcDbEntity
8
Geo
100
AcDbLine
10
-57.8253173424312
20
14.5253502504001
30
0.00000000000000
11
-57.8223173424312
21
14.5236245412780
31
0.00000000000000
  0
LINE
  5
F10154
330
F10155
100
AcDbEntity
8
Geo
100
AcDbLine
10
-57.8223173424312
20
14.5236245412780
30
0.00000000000000
11
-57.8193173424312
21
14.5218976150136
31
0.00000000000000
  0
LINE
  5
F10156
330
F10157
100
AcDbEntity
8
Geo
100
AcDbLine
10
-57.8193173424312
20
14.5218976150136
30
0.00000000000000
11
-57.8163173424312
21
14.5201696011257
31
0.00000000000000
  0
LINE
  5
F10158
330
F10159
100
AcDbEntity
8
Geo
100
AcDbLine
10
-57.8163173424312
20
14.5201696011257
30
0.00000000000000
11
-57.8133173424312
21
14.5184406292144
31
0.00000000000000
  0
LINE
  5
F1015A
330
F1015B
100
AcDbEntity
8
Geo
100
AcDbLine
10
-57.8133173424312
20
14.5184406292144
30
0.00000000000000
11
-57.8103173424312
21
14.5167108289518
31
0.00000000000000
  0
LINE
  5
F1015C
330
F1015D
100
AcDbEntity
8
Geo
100
AcDbLine
10
-57.8103173424312
20
14.5167108289518
30
0.00000000000000
11
-57.8073173424312
21
14.5149803300722
31
0.00000000000000
  0
LINE
  5
F1015E
330
F1015F
100
AcDbEntity
8
Geo
100
AcDbLine
10
-57.8073173424312
20
14.5149803300722
30
0.00000000000000
11
-57.8043173424312
21
14.5132492623622
31
0.00000000000000
  0
LINE
  5
F10160
330
F10161
100
AcDbEntity
8
Geo
100
AcDbLine
10
-57.8043173424312
20
14.5132492623622
30
0.00000000000000
11
-57.8013173424312
21
14.5115177556510
31
0.00000000000000
  0
LINE
  5
F10162
330
F10163
100
AcDbEntity
8
Geo
100
AcDbLine
10
-57.8013173424312
20
14.5115177556510
30
0.00000000000000
11
-57.7983173424312
21
14.5097859398008
31
0.00000000000000
  0
LINE
  5
F10164
330
F10165
100
AcDbEntity
8
Geo
100
AcDbLine
10
-57.7983173424312
20
14.5097859398008
30
0.00000000000000
11
-57.7953173424312
21
14.5080539446969
31
0.00000000000000
  0
LINE
  5
F10166
330
F10167
100
AcDbEntity
8
Geo
100
AcDbLine
10
-57.7953173424312
20
14.5080539446969
30
0.00000000000000
11
-57.7923173424312
21
14.5063219002383
31
0.00000000000000
  0
LINE
  5
F10168
330
F10169
100
AcDbEntity
8
Geo
100
AcDbLine
10
-57.7923173424312
20
14.5063219002383
30
0.00000000000000
11
-57.7893173424312
21
14.5045899363274
31
0.00000000000000
  0
LINE
  5
F1016A
330
F1016B
100
AcDbEntity
8
Geo
100
AcDbLine
10
-57.7893173424312
20
14.5045899363274
30
0.00000000000000
11
-57.7863173424312
21
14.5028581828608
31
0.00000000000000
  0
LINE
  5
F1016C
330
F1016D
100
AcDbEntity
8
Geo
100
AcDbLine
10
-57.7863173424312
20
14.5028581828608
30
0.00000000000000
11
-57.7833173424312
21
14.5011267697190
31
0.00000000000000
  0
LINE
  5
F1016E
330
F1016F
100
AcDbEntity
8
Geo
100
AcDbLine
10
-57.7833173424312
20
14.5011267697190
30
0.00000000000000
11
-57.7803173424312
21
14.4993958267573
31
0.00000000000000
  0
LINE
  5
F10170
330
F10171
100
AcDbEntity
8
Geo
100
AcDbLine
10
-57.7803173424312
20
14.4993958267573
30
0.00000000000000
11
-57.7773173424312
21
14.4976654837956
31
0.00000000000000
  0
LINE
  5
F10172
330
F10173
100
AcDbEntity
8
Geo
100
AcDbLine
10
-57.7773173424312
20
14.4976654837956
30
0.00000000000000
11
-57.7743173424312
21
14.4959358706088
31
0.00000000000000
  0
LINE
  5
F10174
330
F10175
100
AcDbEntity
8
Geo
100
AcDbLine
10
-57.7743173424312
20
14.4959358706088
30
0.00000000000000
11
-57.7713173424312
21
14.4942071169171
31
0.00000000000000
  0
LINE
  5
F10176
330
F10177
100
AcDbEntity
8
Geo
100
AcDbLine
10
-57.7713173424312
20
14.4942071169171
30
0.00000000000000
11
-57.7683173424312
21
14.4924793523763
31
0.00000000000000
  0
LINE
  5
F10178
330
F10179
100
AcDbEntity
8
Geo
100
AcDbLine
10
-57.7683173424312
20
14.4924793523763
30
0.00000000000000
11
-57.7653173424312
21
14.4907527065677
31
0.00000000000000
  0
LINE
  5
F1017A
330
F1017B
100
AcDbEntity
8
Geo
100
AcDbLine
10
-57.7653173424312
20
14.4907527065677
30
0.00000000000000
11
-57.7623173424312
21
14.4890273089891
31
0.00000000000000
  0
LINE
  5
F1017C
330
F1017D
100
AcDbEntity
8
Geo
100
AcDbLine
10
-57.7623173424312
20
14.4890273089891
30
0.00000000000000
11
-57.7593173424312
21
14.4873032890444
31
0.00000000000000
  0
LINE
  5
F1017E
330
F1017F
100
AcDbEntity
8
Geo
100
AcDbLine
10
-57.7593173424312
20
14.4873032890444
30
0.00000000000000
11
-57.7563173424312
21
14.4855807760345
31
0.00000000000000
  0
LINE
  5
F10180
330
F10181
100
AcDbEntity
8
Geo
100
AcDbLine
10
-57.7563173424312
20
14.4855807760345
30
0.00000000000000
11
-57.7533173424312
21
14.4838598991468
31
0.00000000000000
  0
LINE
  5
F10182
330
F10183
100
AcDbEntity
8
Geo
100
AcDbLine
10
-57.7533173424312
20
14.4838598991468
30
0.00000000000000
11
-57.7503173424312
21
14.4821407874464
31
0.00000000000000
  0
LINE
  5
F10184
330
F10185
100
AcDbEntity
8
Geo
100
AcDbLine
10
-57.7503173424312
20
14.4821407874464
30
0.00000000000000
11
-57.7473173424312
21
14.4804235698659
31
0.00000000000000
  0
LINE
  5
F10186
330
F10187
100
AcDbEntity
8
Geo
100
AcDbLine
10
-57.7473173424312
20
14.4804235698659
30
0.00000000000000
11
-57.7443173424312
21
14.4787083751958
31
0.00000000000000
  0
LINE
  5
F10188
330
F10189
100
AcDbEntity
8
Geo
100
AcDbLine
10
-57.7443173424312
20
14.4787083751958
30
0.00000000000000
11
-57.7413173424312
21
14.4769953320748
31
0.00000000000000
  0
LINE
  5
F1018A
330
F1018B
100
AcDbEntity
8
Geo
100
AcDbLine
10
-57.7413173424312
20
14.4769953320748
30
0.00000000000000
11
-57.7383173424312
21
14.4752845689804
31
0.00000000000000
  0
LINE
  5
F1018C
330
F1018D
100
AcDbEntity
8
Geo
100
AcDbLine
10
-57.7383173424312
20
14.4752845689804
30
0.00000000000000
11
-57.7353173424312
21
14.4735762142190
31
0.00000000000000
  0
LINE
  5
F1018E
330
F1018F
100
AcDbEntity
8
Geo
100
AcDbLine
10
-57.7353173424312
20
14.4735762142190
30
0.00000000000000
11
-57.7323173424312
21
14.4718703959165
31
0.00000000000000
  0
LINE
  5
F10190
330
F10191
100
AcDbEntity
8
Geo
100
AcDbLine
10
-57.7323173424312
20
14.4718703959165
30
0.00000000000000
11
-57.7293173424312
21
14.4701672420084
31
0.00000000000000
  0
LINE
  5
F10192
330
F10193
100
AcDbEntity
8
Geo
100
AcDbLine
10
-57.7293173424312
20
14.4701672420084
30
0.00000000000000
11
-57.7263173424312
21
14.4684668802304
31
0.00000000000000
  0
LINE
  5
F10194
330
F10195
100
AcDbEntity
8
Geo
100
AcDbLine
10
-57.7263173424312
20
14.4684668802304
30
0.00000000000000
11
-57.7233173424312
21
14.4667694381089
31
0.00000000000000
  0
LINE
  5
F10196
330
F10197
100
AcDbEntity
8
Geo
100
AcDbLine
10
-57.7233173424312
20
14.4667694381089
30
0.00000000000000
11
-57.7203173424312
21
14.4650750429513
31
0.00000000000000
  0
LINE
  5
F10198
330
F10199
100
AcDbEntity
8
Geo
100
AcDbLine
10
-57.7203173424312
20
14.4650750429513
30
0.00000000000000
11
-57.7173173424312
21
14.4633838218364
31
0.00000000000000
  0
LINE
  5
F1019A
330
F1019B
100
AcDbEntity
8
Geo
100
AcDbLine
10
-57.7173173424312
20
14.4633838218364
30
0.00000000000000
11
-57.7143173424312
21
14.4616959016049
31
0.00000000000000
  0
LINE
  5
F1019C
330
F1019D
100
AcDbEntity
8
Geo
100
AcDbLine
10
-57.7143173424312
20
14.4616959016049
30
0.00000000000000
11
-57.7113173424312
21
14.4600114088502
31
0.00000000000000
  0
LINE
  5
F1019E
330
F1019F
100
AcDbEntity
8
Geo
100
AcDbLine
10
-57.7113173424312
20
14.4600114088502
30
0.00000000000000
11
-57.7083173424312
21
14.4583304699083
31
0.00000000000000
  0
LINE
  5
F101A0
330
F101A1
100
AcDbEntity
8
Geo
100
AcDbLine
10
-57.7083173424312
20
14.4583304699083
30
0.00000000000000
11
-57.7053173424312
21
14.4566532108489
31
0.00000000000000
  0
LINE
  5
F101A2
330
F101A3
100
AcDbEntity
8
Geo
100
AcDbLine
10
-57.7053173424312
20
14.4566532108489
30
0.00000000000000
11
-57.7023173424312
21
14.4549797574657
31
0.00000000000000
  0
LINE
  5
F101A4
330
F101A5
100
AcDbEntity
8
Geo
100
AcDbLine
10
-57.7023173424312
20
14.4549797574657
30
0.00000000000000
11
-57.6993173424312
21
14.4533102352669
31
0.00000000000000
  0
LINE
  5
F101A6
330
F101A7
100
AcDbEntity
8
Geo
100
AcDbLine
10
-57.6993173424312
20
14.4533102352669
30
0.00000000000000
11
-57.6963173424312
21
14.4516447694658
31
0.00000000000000
  0
LINE
  5
F101A8
330
F101A9
100
AcDbEntity
8
Geo
100
AcDbLine
10
-57.6963173424312
20
14.4516447694658
30
0.00000000000000
11
-57.6933173424312
21
14.4499834849716
31
0.00000000000000
  0
LINE
  5
F101AA
330
F101AB
100
AcDbEntity
8
Geo
100
AcDbLine
10
-57.6933173424312
20
14.4499834849716
30
0.00000000000000
11
-57.6903173424312
21
14.4483265063799
31
0.00000000000000
  0
LINE
  5
F101AC
330
F101AD
100
AcDbEntity
8
Geo
100
AcDbLine
10
-57.6903173424312
20
14.4483265063799
30
0.00000000000000
11
-57.6873173424312
21
14.4466739579633
31
0.00000000000000
  0
LINE
  5
F101AE
330
F101AF
100
AcDbEntity
8
Geo
100
AcDbLine
10
-57.6873173424312
20
14.4466739579633
30
0.00000000000000
11
-57.6843173424312
21
14.4450259636621
31
0.00000000000000
  0
LINE
  5
F101B0
330
F101B1
100
AcDbEntity
8
Geo
100
AcDbLine
10
-57.6843173424312
20
14.4450259636621
30
0.00000000000000
11
-57.6813173424312
21
14.4433826470752
31
0.00000000000000
  0
LINE
  5
F101B2
330
F101B3
100
AcDbEntity
8
Geo
100
AcDbLine
10
-57.6813173424312
20
14.4433826470752
30
0.00000000000000
11
-57.6783173424311
21
14.4417441314505
31
0.00000000000000
  0
LINE
  5
F101B4
330
F101B5
100
AcDbEntity
8
Geo
100
AcDbLine
10
-57.6783173424311
20
14.4417441314505
30
0.00000000000000
11
-57.6753173424311
21
14.4401105396759
31
0.00000000000000
  0
LINE
  5
F101B6
330
F101B7
100
AcDbEntity
8
Geo
100
AcDbLine
10
-57.6753173424311
20
14.4401105396759
30
0.00000000000000
11
-57.6723173424311
21
14.4384819942700
31
0.00000000000000
  0
LINE
  5
F101B8
330
F101B9
100
AcDbEntity
8
Geo
100
AcDbLine
10
-57.6723173424311
20
14.4384819942700
30
0.00000000000000
11
-57.6693173424312
21
14.4368586173730
31
0.00000000000000
  0
LINE
  5
F101BA
330
F101BB
100
AcDbEntity
8
Geo
100
AcDbLine
10
-57.6693173424312
20
14.4368586173730
30
0.00000000000000
11
-57.6663173424312
21
14.4352405307374
31
0.00000000000000
  0
LINE
  5
F101BC
330
F101BD
100
AcDbEntity
8
Geo
100
AcDbLine
10
-57.6663173424312
20
14.4352405307374
30
0.00000000000000
11
-57.6633173424312
21
14.4336278557189
31
0.00000000000000
  0
LINE
  5
F101BE
330
F101BF
100
AcDbEntity
8
Geo
100
AcDbLine
10
-57.6633173424312
20
14.4336278557189
30
0.00000000000000
11
-57.6603173424312
21
14.4320207132675
31
0.00000000000000
  0
LINE
  5
F101C0
330
F101C1
100
AcDbEntity
8
Geo
100
AcDbLine
10
-57.6603173424312
20
14.4320207132675
30
0.00000000000000
11
-57.6573173424312
21
14.4304192239179
31
0.00000000000000
  0
LINE
  5
F101C2
330
F101C3
100
AcDbEntity
8
Geo
100
AcDbLine
10
-57.6573173424312
20
14.4304192239179
30
0.00000000000000
11
-57.6543173424312
21
14.4288235077812
31
0.00000000000000
  0
LINE
  5
F101C4
330
F101C5
100
AcDbEntity
8
Geo
100
AcDbLine
10
-57.6543173424312
20
14.4288235077812
30
0.00000000000000
11
-57.6513173424312
21
14.4272336845354
31
0.00000000000000
  0
LINE
  5
F101C6
330
F101C7
100
AcDbEntity
8
Geo
100
AcDbLine
10
-57.6513173424312
20
14.4272336845354
30
0.00000000000000
11
-57.6483173424312
21
14.4256498734164
31
0.00000000000000
  0
LINE
  5
F101C8
330
F101C9
100
AcDbEntity
8
Geo
100
AcDbLine
10
-57.6483173424312
20
14.4256498734164
30
0.00000000000000
11
-57.6453173424312
21
14.4240721932093
31
0.00000000000000
  0
LINE
  5
F101CA
330
F101CB
100
AcDbEntity
8
Geo
100
AcDbLine
10
-57.6453173424312
20
14.4240721932093
30
0.00000000000000
11
-57.6423173424312
21
14.4225007622394
31
0.00000000000000
  0
LINE
  5
F101CC
330
F101CD
100
AcDbEntity
8
Geo
100
AcDbLine
10
-57.6423173424312
20
14.4225007622394
30
0.00000000000000
11
-57.6393173424312
21
14.4209356983633
31
0.00000000000000
  0
LINE
  5
F101CE
330
F101CF
100
AcDbEntity
8
Geo
100
AcDbLine
10
-57.6393173424312
20
14.4209356983633
30
0.00000000000000
11
-57.6363173424312
21
14.4193771189601
31
0.00000000000000
  0
LINE
  5
F101D0
330
F101D1
100
AcDbEntity
8
Geo
100
AcDbLine
10
-57.6363173424312
20
14.4193771189601
30
0.00000000000000
11
-57.6333173424312
21
14.4178251409224
31
0.00000000000000
  0
LINE
  5
F101D2
330
F101D3
100
AcDbEntity
8
Geo
100
AcDbLine
10
-57.6333173424312
20
14.4178251409224
30
0.00000000000000
11
-57.6303173424312
21
14.4162798806479
31
0.00000000000000
  0
LINE
  5
F101D4
330
F101D5
100
AcDbEntity
8
Geo
100
AcDbLine
10
-57.6303173424312
20
14.4162798806479
30
0.00000000000000
11
-57.6273173424312
21
14.4147414540304
31
0.00000000000000
  0
LINE
  5
F101D6
330
F101D7
100
AcDbEntity
8
Geo
100
AcDbLine
10
-57.6273173424312
20
14.4147414540304
30
0.00000000000000
11
-57.6243173424312
21
14.4132099764512
31
0.00000000000000
  0
LINE
  5
F101D8
330
F101D9
100
AcDbEntity
8
Geo
100
AcDbLine
10
-57.6243173424312
20
14.4132099764512
30
0.00000000000000
11
-57.6213173424312
21
14.4116855627704
31
0.00000000000000
  0
LINE
  5
F101DA
330
F101DB
100
AcDbEntity
8
Geo
100
AcDbLine
10
-57.6213173424312
20
14.4116855627704
30
0.00000000000000
11
-57.6183173424312
21
14.4101683273182
31
0.00000000000000
  0
LINE
  5
F101DC
330
F101DD
100
AcDbEntity
8
Geo
100
AcDbLine
10
-57.6183173424312
20
14.4101683273182
30
0.00000000000000
11
-57.6153173424312
21
14.4086583838867
31
0.00000000000000
  0
LINE
  5
F101DE
330
F101DF
100
AcDbEntity
8
Geo
100
AcDbLine
10
-57.6153173424312
20
14.4086583838867
30
0.00000000000000
11
-57.6123173424312
21
14.4071558457208
31
0.00000000000000
  0
LINE
  5
F101E0
330
F101E1
100
AcDbEntity
8
Geo
100
AcDbLine
10
-57.6123173424312
20
14.4071558457208
30
0.00000000000000
11
-57.6093173424312
21
14.4056608255103
31
0.00000000000000
  0
LINE
  5
F101E2
330
F101E3
100
AcDbEntity
8
Geo
100
AcDbLine
10
-57.6093173424312
20
14.4056608255103
30
0.00000000000000
11
-57.6063173424312
21
14.4041734353809
31
0.00000000000000
  0
LINE
  5
F101E4
330
F101E5
100
AcDbEntity
8
Geo
100
AcDbLine
10
-57.6063173424312
20
14.4041734353809
30
0.00000000000000
11
-57.6033173424312
21
14.4026937868863
31
0.00000000000000
  0
LINE
  5
F101E6
330
F101E7
100
AcDbEntity
8
Geo
100
AcDbLine
10
-57.6033173424312
20
14.4026937868863
30
0.00000000000000
11
-57.6003173424312
21
14.4012219909993
31
0.00000000000000
  0
LINE
  5
F101E8
330
F101E9
100
AcDbEntity
8
Geo
100
AcDbLine
10
-57.6003173424312
20
14.4012219909993
30
0.00000000000000
11
-57.5973173424312
21
14.3997581581039
31
0.00000000000000
  0
LINE
  5
F101EA
330
F101EB
100
AcDbEntity
8
Geo
100
AcDbLine
10
-57.5973173424312
20
14.3997581581039
30
0.00000000000000
11
-57.5943173424312
21
14.3983023979870
31
0.00000000000000
  0
LINE
  5
F101EC
330
F101ED
100
AcDbEntity
8
Geo
100
AcDbLine
10
-57.5943173424312
20
14.3983023979870
30
0.00000000000000
11
-57.5913173424312
21
14.3968548198299
31
0.00000000000000
  0
LINE
  5
F101EE
330
F101EF
100
AcDbEntity
8
Geo
100
AcDbLine
10
-57.5913173424312
20
14.3968548198299
30
0.00000000000000
11
-57.5883173424312
21
14.3954155322002
31
0.00000000000000
  0
LINE
  5
F101F0
330
F101F1
100
AcDbEntity
8
Geo
100
AcDbLine
10
-57.5883173424312
20
14.3954155322002
30
0.00000000000000
11
-57.5853173424312
21
14.3939846430439
31
0.00000000000000
  0
LINE
  5
F101F2
330
F101F3
100
AcDbEntity
8
Geo
100
AcDbLine
10
-57.5853173424312
20
14.3939846430439
30
0.00000000000000
11
-57.5823173424312
21
14.3925622596769
31
0.00000000000000
  0
LINE
  5
F101F4
330
F101F5
100
AcDbEntity
8
Geo
100
AcDbLine
10
-57.5823173424312
20
14.3925622596769
30
0.00000000000000
11
-57.5793173424312
21
14.3911484887774
31
0.00000000000000
  0
LINE
  5
F101F6
330
F101F7
100
AcDbEntity
8
Geo
100
AcDbLine
10
-57.5793173424312
20
14.3911484887774
30
0.00000000000000
11
-57.5763173424312
21
14.3897434363774
31
0.00000000000000
  0
LINE
  5
F101F8
330
F101F9
100
AcDbEntity
8
Geo
100
AcDbLine
10
-57.5763173424312
20
14.3897434363774
30
0.00000000000000
11
-57.5733173424312
21
14.3883472078554
31
0.00000000000000
  0
LINE
  5
F101FA
330
F101FB
100
AcDbEntity
8
Geo
100
AcDbLine
10
-57.5733173424312
20
14.3883472078554
30
0.00000000000000
11
-57.5703173424312
21
14.3869599079277
31
0.00000000000000
  0
LINE
  5
F101FC
330
F101FD
100
AcDbEntity
8
Geo
100
AcDbLine
10
-57.5703173424312
20
14.3869599079277
30
0.00000000000000
11
-57.5673173424312
21
14.3855816406412
31
0.00000000000000
  0
LINE
  5
F101FE
330
F101FF
100
AcDbEntity
8
Geo
100
AcDbLine
10
-57.5673173424312
20
14.3855816406412
30
0.00000000000000
11
-57.5643173424312
21
14.3842125093653
31
0.00000000000000
  0
LINE
  5
F10200
330
F10201
100
AcDbEntity
8
Geo
100
AcDbLine
10
-57.5643173424312
20
14.3842125093653
30
0.00000000000000
11
-57.5613173424312
21
14.3828526167842
31
0.00000000000000
  0
LINE
  5
F10202
330
F10203
100
AcDbEntity
8
Geo
100
AcDbLine
10
-57.5613173424312
20
14.3828526167842
30
0.00000000000000
11
-57.5583173424312
21
14.3815020648893
31
0.00000000000000
  0
LINE
  5
F10204
330
F10205
100
AcDbEntity
8
Geo
100
AcDbLine
10
-57.5583173424312
20
14.3815020648893
30
0.00000000000000
11
-57.5553173424312
21
14.3801609549712
31
0.00000000000000
  0
LINE
  5
F10206
330
F10207
100
AcDbEntity
8
Geo
100
AcDbLine
10
-57.5553173424312
20
14.3801609549712
30
0.00000000000000
11
-57.5523173424312
21
14.3788293876126
31
0.00000000000000
  0
LINE
  5
F10208
330
F10209
100
AcDbEntity
8
Geo
100
AcDbLine
10
-57.5523173424312
20
14.3788293876126
30
0.00000000000000
11
-57.5493173424312
21
14.3775074626804
31
0.00000000000000
  0
LINE
  5
F1020A
330
F1020B
100
AcDbEntity
8
Geo
100
AcDbLine
10
-57.5493173424312
20
14.3775074626804
30
0.00000000000000
11
-57.5463173424312
21
14.3761952793184
31
0.00000000000000
  0
LINE
  5
F1020C
330
F1020D
100
AcDbEntity
8
Geo
100
AcDbLine
10
-57.5463173424312
20
14.3761952793184
30
0.00000000000000
11
-57.5433173424312
21
14.3748929359396
31
0.00000000000000
  0
LINE
  5
F1020E
330
F1020F
100
AcDbEntity
8
Geo
100
AcDbLine
10
-57.5433173424312
20
14.3748929359396
30
0.00000000000000
11
-57.5403173424312
21
14.3736005302194
31
0.00000000000000
  0
LINE
  5
F10210
330
F10211
100
AcDbEntity
8
Geo
100
AcDbLine
10
-58.3113173424312
20
14.5254268015239
30
0.00000000000000
11
-58.3113173424312
21
14.4075852480114
31
0.00000000000000
  0
LINE
  5
F10212
330
F10213
100
AcDbEntity
8
Geo
100
AcDbLine
10
-58.3113173424312
20
14.4075852480114
30
0.00000000000000
11
-58.3089178055833
21
14.4030144512774
31
0.00000000000000
  0
LINE
  5
F10214
330
F10215
100
AcDbEntity
8
Geo
100
AcDbLine
10
-58.3113173424312
20
14.4075852480114
30
0.00000000000000
11
-58.3113173424312
21
14.5254268015239
31
0.00000000000000
  0
LINE
  5
F10216
330
F10217
100
AcDbEntity
8
Geo
100
AcDbLine
10
-58.3113173424312
20
14.5254268015239
30
0.00000000000000
11
-58.3083173424312
21
14.5492157025066
31
0.00000000000000
  0
LINE
  5
F10218
330
F10219
100
AcDbEntity
8
Geo
100
AcDbLine
10
-58.3083173424312
20
14.5492157025066
30
0.00000000000000
11
-58.3053173424312
21
14.5611159306097
31
0.00000000000000
  0
LINE
  5
F1021A
330
F1021B
100
AcDbEntity
8
Geo
100
AcDbLine
10
-58.3053173424312
20
14.5611159306097
30
0.00000000000000
11
-58.3023173424312
21
14.5700257221897
31
0.00000000000000
  0
LINE
  5
F1021C
330
F1021D
100
AcDbEntity
8
Geo
100
AcDbLine
10
-58.3023173424312
20
14.5700257221897
30
0.00000000000000
11
-58.2993173424312
21
14.5773314127959
31
0.00000000000000
  0
LINE
  5
F1021E
330
F1021F
100
AcDbEntity
8
Geo
100
AcDbLine
10
-58.2993173424312
20
14.5773314127959
30
0.00000000000000
11
-58.2963173424312
21
14.5835863342536
31
0.00000000000000
  0
LINE
  5
F10220
330
F10221
100
AcDbEntity
8
Geo
100
AcDbLine
10
-58.2963173424312
20
14.5835863342536
30
0.00000000000000
11
-58.2933173424312
21
14.5890784641708
31
0.00000000000000
  0
LINE
  5
F10222
330
F10223
100
AcDbEntity
8
Geo
100
AcDbLine
10
-58.2933173424312
20
14.5890784641708
30
0.00000000000000
11
-58.2903173424312
21
14.5939804327136
31
0.00000000000000
  0
LINE
  5
F10224
330
F10225
100
AcDbEntity
8
Geo
100
AcDbLine
10
-58.2903173424312
20
14.5939804327136
30
0.00000000000000
11
-58.2873173424312
21
14.5984054173204
31
0.00000000000000
  0
LINE
  5
F10226
330
F10227
100
AcDbEntity
8
Geo
100
AcDbLine
10
-58.2873173424312
20
14.5984054173204
30
0.00000000000000
11
-58.2843173424312
21
14.6024323828149
31
0.00000000000000
  0
LINE
  5
F10228
330
F10229
100
AcDbEntity
8
Geo
100
AcDbLine
10
-58.2843173424312
20
14.6024323828149
30
0.00000000000000
11
-58.2813173424312
21
14.6061190128798
31
0.00000000000000
  0
LINE
  5
F1022A
330
F1022B
100
AcDbEntity
8
Geo
100
AcDbLine
10
-58.2813173424312
20
14.6061190128798
30
0.00000000000000
11
-58.2783173424312
21
14.6095089614680
31
0.00000000000000
  0
LINE
  5
F1022C
330
F1022D
100
AcDbEntity
8
Geo
100
AcDbLine
10
-58.2783173424312
20
14.6095089614680
30
0.00000000000000
11
-58.2753173424312
21
14.6126362059187
31
0.00000000000000
  0
LINE
  5
F1022E
330
F1022F
100
AcDbEntity
8
Geo
100
AcDbLine
10
-58.2753173424312
20
14.6126362059187
30
0.00000000000000
11
-58.2723173424312
21
14.6155278036484
31
0.00000000000000
  0
LINE
  5
F10230
330
F10231
100
AcDbEntity
8
Geo
100
AcDbLine
10
-58.2723173424312
20
14.6155278036484
30
0.00000000000000
11
-58.2693173424312
21
14.6182057147712
31
0.00000000000000
  0
LINE
  5
F10232
330
F10233
100
AcDbEntity
8
Geo
100
AcDbLine
10
-58.2693173424312
20
14.6182057147712
30
0.00000000000000
11
-58.2663173424312
21
14.6206880507517
31
0.00000000000000
  0
LINE
  5
F10234
330
F10235
100
AcDbEntity
8
Geo
100
AcDbLine
10
-58.2663173424312
20
14.6206880507517
30
0.00000000000000
11
-58.2633173424312
21
14.6229899557478
31
0.00000000000000
  0
LINE
  5
F10236
330
F10237
100
AcDbEntity
8
Geo
100
AcDbLine
10
-58.2633173424312
20
14.6229899557478
30
0.00000000000000
11
-58.2603173424312
21
14.6251242447047
31
0.00000000000000
  0
LINE
  5
F10238
330
F10239
100
AcDbEntity
8
Geo
100
AcDbLine
10
-58.2603173424312
20
14.6251242447047
30
0.00000000000000
11
-58.2573173424312
21
14.6271018755730
31
0.00000000000000
  0
LINE
  5
F1023A
330
F1023B
100
AcDbEntity
8
Geo
100
AcDbLine
10
-58.2573173424312
20
14.6271018755730
30
0.00000000000000
11
-58.2543173424312
21
14.6289323055074
31
0.00000000000000
  0
LINE
  5
F1023C
330
F1023D
100
AcDbEntity
8
Geo
100
AcDbLine
10
-58.2543173424312
20
14.6289323055074
30
0.00000000000000
11
-58.2513173424312
21
14.6306237641002
31
0.00000000000000
  0
LINE
  5
F1023E
330
F1023F
100
AcDbEntity
8
Geo
100
AcDbLine
10
-58.2513173424312
20
14.6306237641002
30
0.00000000000000
11
-58.2483173424312
21
14.6321834661146
31
0.00000000000000
  0
LINE
  5
F10240
330
F10241
100
AcDbEntity
8
Geo
100
AcDbLine
10
-58.2483173424312
20
14.6321834661146
30
0.00000000000000
11
-58.2453173424312
21
14.6336177793277
31
0.00000000000000
  0
LINE
  5
F10242
330
F10243
100
AcDbEntity
8
Geo
100
AcDbLine
10
-58.2453173424312
20
14.6336177793277
30
0.00000000000000
11
-58.2423173424312
21
14.6349323585433
31
0.00000000000000
  0
LINE
  5
F10244
330
F10245
100
AcDbEntity
8
Geo
100
AcDbLine
10
-58.2423173424312
20
14.6349323585433
30
0.00000000000000
11
-58.2393173424312
21
14.6361322537490
31
0.00000000000000
  0
LINE
  5
F10246
330
F10247
100
AcDbEntity
8
Geo
100
AcDbLine
10
-58.2393173424312
20
14.6361322537490
30
0.00000000000000
11
-58.2363173424312
21
14.6372219982634
31
0.00000000000000
  0
LINE
  5
F10248
330
F10249
100
AcDbEntity
8
Geo
100
AcDbLine
10
-58.2363173424312
20
14.6372219982634
30
0.00000000000000
11
-58.2333173424312
21
14.6382056812141
31
0.00000000000000
  0
LINE
  5
F1024A
330
F1024B
100
AcDbEntity
8
Geo
100
AcDbLine
10
-58.2333173424312
20
14.6382056812141
30
0.00000000000000
11
-58.2303173424312
21
14.6390870076194
31
0.00000000000000
  0
LINE
  5
F1024C
330
F1024D
100
AcDbEntity
8
Geo
100
AcDbLine
10
-58.2303173424312
20
14.6390870076194
30
0.00000000000000
11
-58.2273173424312
21
14.6398693485650
31
0.00000000000000
  0
LINE
  5
F1024E
330
F1024F
100
AcDbEntity
8
Geo
100
AcDbLine
10
-58.2273173424312
20
14.6398693485650
30
0.00000000000000
11
-58.2243173424312
21
14.6405557833974
31
0.00000000000000
  0
LINE
  5
F10250
330
F10251
100
AcDbEntity
8
Geo
100
AcDbLine
10
-58.2243173424312
20
14.6405557833974
30
0.00000000000000
11
-58.2213173424312
21
14.6411491354280
31
0.00000000000000
  0
LINE
  5
F10252
330
F10253
100
AcDbEntity
8
Geo
100
AcDbLine
10
-58.2213173424312
20
14.6411491354280
30
0.00000000000000
11
-58.2183173424312
21
14.6416520023240
31
0.00000000000000
  0
LINE
  5
F10254
330
F10255
100
AcDbEntity
8
Geo
100
AcDbLine
10
-58.2183173424312
20
14.6416520023240
30
0.00000000000000
11
-58.2153173424312
21
14.6420667821160
31
0.00000000000000
  0
LINE
  5
F10256
330
F10257
100
AcDbEntity
8
Geo
100
AcDbLine
10
-58.2153173424312
20
14.6420667821160
30
0.00000000000000
11
-58.2123173424312
21
14.6423956955669
31
0.00000000000000
  0
LINE
  5
F10258
330
F10259
100
AcDbEntity
8
Geo
100
AcDbLine
10
-58.2123173424312
20
14.6423956955669
30
0.00000000000000
11
-58.2093173424312
21
14.6426408054998
31
0.00000000000000
  0
LINE
  5
F1025A
330
F1025B
100
AcDbEntity
8
Geo
100
AcDbLine
10
-58.2093173424312
20
14.6426408054998
30
0.00000000000000
11
-58.2063173424312
21
14.6428040335720
31
0.00000000000000
  0
LINE
  5
F1025C
330
F1025D
100
AcDbEntity
8
Geo
100
AcDbLine
10
-58.2063173424312
20
14.6428040335720
30
0.00000000000000
11
-58.2033173424312
21
14.6428871748894
31
0.00000000000000
  0
LINE
  5
F1025E
330
F1025F
100
AcDbEntity
8
Geo
100
AcDbLine
10
-58.2033173424312
20
14.6428871748894
30
0.00000000000000
11
-58.2003173424312
21
14.6428919107875
31
0.00000000000000
  0
LINE
  5
F10260
330
F10261
100
AcDbEntity
8
Geo
100
AcDbLine
10
-58.2003173424312
20
14.6428919107875
30
0.00000000000000
11
-58.1973173424312
21
14.6428198200470
31
0.00000000000000
  0
LINE
  5
F10262
330
F10263
100
AcDbEntity
8
Geo
100
AcDbLine
10
-58.1973173424312
20
14.6428198200470
30
0.00000000000000
11
-58.1943173424312
21
14.6426723887670
31
0.00000000000000
  0
LINE
  5
F10264
330
F10265
100
AcDbEntity
8
Geo
100
AcDbLine
10
-58.1943173424312
20
14.6426723887670
30
0.00000000000000
11
-58.1913173424312
21
14.6424510190815
31
0.00000000000000
  0
LINE
  5
F10266
330
F10267
100
AcDbEntity
8
Geo
100
AcDbLine
10
-58.1913173424312
20
14.6424510190815
30
0.00000000000000
11
-58.1883173424312
21
14.6421570368753
31
0.00000000000000
  0
LINE
  5
F10268
330
F10269
100
AcDbEntity
8
Geo
100
AcDbLine
10
-58.1883173424312
20
14.6421570368753
30
0.00000000000000
11
-58.1853173424312
21
14.6417916986301
31
0.00000000000000
  0
LINE
  5
F1026A
330
F1026B
100
AcDbEntity
8
Geo
100
AcDbLine
10
-58.1853173424312
20
14.6417916986301
30
0.00000000000000
11
-58.1823173424312
21
14.6413561975119
31
0.00000000000000
  0
LINE
  5
F1026C
330
F1026D
100
AcDbEntity
8
Geo
100
AcDbLine
10
-58.1823173424312
20
14.6413561975119
30
0.00000000000000
11
-58.1793173424312
21
14.6408516687937
31
0.00000000000000
  0
LINE
  5
F1026E
330
F1026F
100
AcDbEntity
8
Geo
100
AcDbLine
10
-58.1793173424312
20
14.6408516687937
30
0.00000000000000
11
-58.1763173424312
21
14.6402791946939
31
0.00000000000000
  0
LINE
  5
F10270
330
F10271
100
AcDbEntity
8
Geo
100
AcDbLine
10
-58.1763173424312
20
14.6402791946939
30
0.00000000000000
11
-58.1733173424312
21
14.6396398086976
31
0.00000000000000
  0
LINE
  5
F10272
330
F10273
100
AcDbEntity
8
Geo
100
AcDbLine
10
-58.1733173424312
20
14.6396398086976
30
0.00000000000000
11
-58.1703173424312
21
14.6389344994212
31
0.00000000000000
  0
LINE
  5
F10274
330
F10275
100
AcDbEntity
8
Geo
100
AcDbLine
10
-58.1703173424312
20
14.6389344994212
30
0.00000000000000
11
-58.1673173424312
21
14.6381642140688
31
0.00000000000000
  0
LINE
  5
F10276
330
F10277
100
AcDbEntity
8
Geo
100
AcDbLine
10
-58.1673173424312
20
14.6381642140688
30
0.00000000000000
11
-58.1643173424312
21
14.6373298615248
31
0.00000000000000
  0
LINE
  5
F10278
330
F10279
100
AcDbEntity
8
Geo
100
AcDbLine
10
-58.1643173424312
20
14.6373298615248
30
0.00000000000000
11
-58.1613173424312
21
14.6364323151191
31
0.00000000000000
  0
LINE
  5
F1027A
330
F1027B
100
AcDbEntity
8
Geo
100
AcDbLine
10
-58.1613173424312
20
14.6364323151191
30
0.00000000000000
11
-58.1583173424312
21
14.6354724150975
31
0.00000000000000
  0
LINE
  5
F1027C
330
F1027D
100
AcDbEntity
8
Geo
100
AcDbLine
10
-58.1583173424312
20
14.6354724150975
30
0.00000000000000
11
-58.1553173424312
21
14.6344509708249
31
0.00000000000000
  0
LINE
  5
F1027E
330
F1027F
100
AcDbEntity
8
Geo
100
AcDbLine
10
-58.1553173424312
20
14.6344509708249
30
0.00000000000000
11
-58.1523173424312
21
14.6333687627441
31
0.00000000000000
  0
LINE
  5
F10280
330
F10281
100
AcDbEntity
8
Geo
100
AcDbLine
10
-58.1523173424312
20
14.6333687627441
30
0.00000000000000
11
-58.1493173424312
21
14.6322265441123
31
0.00000000000000
  0
LINE
  5
F10282
330
F10283
100
AcDbEntity
8
Geo
100
AcDbLine
10
-58.1493173424312
20
14.6322265441123
30
0.00000000000000
11
-58.1463173424312
21
14.6310250425311
31
0.00000000000000
  0
LINE
  5
F10284
330
F10285
100
AcDbEntity
8
Geo
100
AcDbLine
10
-58.1463173424312
20
14.6310250425311
30
0.00000000000000
11
-58.1433173424312
21
14.6297649612861
31
0.00000000000000
  0
LINE
  5
F10286
330
F10287
100
AcDbEntity
8
Geo
100
AcDbLine
10
-58.1433173424312
20
14.6297649612861
30
0.00000000000000
11
-58.1403173424312
21
14.6284469805071
31
0.00000000000000
  0
LINE
  5
F10288
330
F10289
100
AcDbEntity
8
Geo
100
AcDbLine
10
-58.1403173424312
20
14.6284469805071
30
0.00000000000000
11
-58.1373173424312
21
14.6270744106017
31
0.00000000000000
  0
LINE
  5
F1028A
330
F1028B
100
AcDbEntity
8
Geo
100
AcDbLine
10
-58.1373173424312
20
14.6270744106017
30
0.00000000000000
11
-58.1343173424312
21
14.6256822157650
31
0.00000000000000
  0
LINE
  5
F1028C
330
F1028D
100
AcDbEntity
8
Geo
100
AcDbLine
10
-58.1343173424312
20
14.6256822157650
30
0.00000000000000
11
-58.1313173424312
21
14.6242811495083
31
0.00000000000000
  0
LINE
  5
F1028E
330
F1028F
100
AcDbEntity
8
Geo
100
AcDbLine
10
-58.1313173424312
20
14.6242811495083
30
0.00000000000000
11
-58.1283173424312
21
14.6228713169109
31
0.00000000000000
  0
LINE
  5
F10290
330
F10291
100
AcDbEntity
8
Geo
100
AcDbLine
10
-58.1283173424312
20
14.6228713169109
30
0.00000000000000
11
-58.1253173424312
21
14.6214528237096
31
0.00000000000000
  0
LINE
  5
F10292
330
F10293
100
AcDbEntity
8
Geo
100
AcDbLine
10
-58.1253173424312
20
14.6214528237096
30
0.00000000000000
11
-58.1223173424312
21
14.6200257762908
31
0.00000000000000
  0
LINE
  5
F10294
330
F10295
100
AcDbEntity
8
Geo
100
AcDbLine
10
-58.1223173424312
20
14.6200257762908
30
0.00000000000000
11
-58.1193173424312
21
14.6185902816823
31
0.00000000000000
  0
LINE
  5
F10296
330
F10297
100
AcDbEntity
8
Geo
100
AcDbLine
10
-58.1193173424312
20
14.6185902816823
30
0.00000000000000
11
-58.1163173424312
21
14.6171464475455
31
0.00000000000000
  0
LINE
  5
F10298
330
F10299
100
AcDbEntity
8
Geo
100
AcDbLine
10
-58.1163173424312
20
14.6171464475455
30
0.00000000000000
11
-58.1133173424312
21
14.6156943821673
31
0.00000000000000
  0
LINE
  5
F1029A
330
F1029B
100
AcDbEntity
8
Geo
100
AcDbLine
10
-58.1133173424312
20
14.6156943821673
30
0.00000000000000
11
-58.1103173424312
21
14.6142341944521
31
0.00000000000000
  0
LINE
  5
F1029C
330
F1029D
100
AcDbEntity
8
Geo
100
AcDbLine
10
-58.1103173424312
20
14.6142341944521
30
0.00000000000000
11
-58.1073173424312
21
14.6127659939130
31
0.00000000000000
  0
LINE
  5
F1029E
330
F1029F
100
AcDbEntity
8
Geo
100
AcDbLine
10
-58.1073173424312
20
14.6127659939130
30
0.00000000000000
11
-58.1043173424312
21
14.6112898906646
31
0.00000000000000
  0
LINE
  5
F102A0
330
F102A1
100
AcDbEntity
8
Geo
100
AcDbLine
10
-58.1043173424312
20
14.6112898906646
30
0.00000000000000
11
-58.1013173424312
21
14.6098059954138
31
0.00000000000000
  0
LINE
  5
F102A2
330
F102A3
100
AcDbEntity
8
Geo
100
AcDbLine
10
-58.1013173424312
20
14.6098059954138
30
0.00000000000000
11
-58.0983173424312
21
14.6083144194521
31
0.00000000000000
  0
LINE
  5
F102A4
330
F102A5
100
AcDbEntity
8
Geo
100
AcDbLine
10
-58.0983173424312
20
14.6083144194521
30
0.00000000000000
11
-58.0953173424312
21
14.6068152746471
31
0.00000000000000
  0
LINE
  5
F102A6
330
F102A7
100
AcDbEntity
8
Geo
100
AcDbLine
10
-58.0953173424312
20
14.6068152746471
30
0.00000000000000
11
-58.0923173424312
21
14.6053086734337
31
0.00000000000000
  0
LINE
  5
F102A8
330
F102A9
100
AcDbEntity
8
Geo
100
AcDbLine
10
-58.0923173424312
20
14.6053086734337
30
0.00000000000000
11
-58.0893173424312
21
14.6037947288066
31
0.00000000000000
  0
LINE
  5
F102AA
330
F102AB
100
AcDbEntity
8
Geo
100
AcDbLine
10
-58.0893173424312
20
14.6037947288066
30
0.00000000000000
11
-58.0863173424312
21
14.6022735543106
31
0.00000000000000
  0
LINE
  5
F102AC
330
F102AD
100
AcDbEntity
8
Geo
100
AcDbLine
10
-58.0863173424312
20
14.6022735543106
30
0.00000000000000
11
-58.0833173424312
21
14.6007452640334
31
0.00000000000000
  0
LINE
  5
F102AE
330
F102AF
100
AcDbEntity
8
Geo
100
AcDbLine
10
-58.0833173424312
20
14.6007452640334
30
0.00000000000000
11
-58.0803173424312
21
14.5992099725958
31
0.00000000000000
  0
LINE
  5
F102B0
330
F102B1
100
AcDbEntity
8
Geo
100
AcDbLine
10
-58.0803173424312
20
14.5992099725958
30
0.00000000000000
11
-58.0773173424312
21
14.5976677951441
31
0.00000000000000
  0
LINE
  5
F102B2
330
F102B3
100
AcDbEntity
8
Geo
100
AcDbLine
10
-58.0773173424312
20
14.5976677951441
30
0.00000000000000
11
-58.0743173424312
21
14.5961188473409
31
0.00000000000000
  0
LINE
  5
F102B4
330
F102B5
100
AcDbEntity
8
Geo
100
AcDbLine
10
-58.0743173424312
20
14.5961188473409
30
0.00000000000000
11
-58.0713173424312
21
14.5945632453564
31
0.00000000000000
  0
LINE
  5
F102B6
330
F102B7
100
AcDbEntity
8
Geo
100
AcDbLine
10
-58.0713173424312
20
14.5945632453564
30
0.00000000000000
11
-58.0683173424312
21
14.5930011058601
31
0.00000000000000
  0
LINE
  5
F102B8
330
F102B9
100
AcDbEntity
8
Geo
100
AcDbLine
10
-58.0683173424312
20
14.5930011058601
30
0.00000000000000
11
-58.0653173424312
21
14.5914325460118
31
0.00000000000000
  0
LINE
  5
F102BA
330
F102BB
100
AcDbEntity
8
Geo
100
AcDbLine
10
-58.0653173424312
20
14.5914325460118
30
0.00000000000000
11
-58.0623173424312
21
14.5898576834527
31
0.00000000000000
  0
LINE
  5
F102BC
330
F102BD
100
AcDbEntity
8
Geo
100
AcDbLine
10
-58.0623173424312
20
14.5898576834527
30
0.00000000000000
11
-58.0593173424312
21
14.5882766362967
31
0.00000000000000
  0
LINE
  5
F102BE
330
F102BF
100
AcDbEntity
8
Geo
100
AcDbLine
10
-58.0593173424312
20
14.5882766362967
30
0.00000000000000
11
-58.0563173424312
21
14.5866895231216
31
0.00000000000000
  0
LINE
  5
F102C0
330
F102C1
100
AcDbEntity
8
Geo
100
AcDbLine
10
-58.0563173424312
20
14.5866895231216
30
0.00000000000000
11
-58.0533173424311
21
14.5850964629603
31
0.00000000000000
  0
LINE
  5
F102C2
330
F102C3
100
AcDbEntity
8
Geo
100
AcDbLine
10
-58.0533173424311
20
14.5850964629603
30
0.00000000000000
11
-58.0503173424312
21
14.5834975752914
31
0.00000000000000
  0
LINE
  5
F102C4
330
F102C5
100
AcDbEntity
8
Geo
100
AcDbLine
10
-58.0503173424312
20
14.5834975752914
30
0.00000000000000
11
-58.0473173424312
21
14.5818929800307
31
0.00000000000000
  0
LINE
  5
F102C6
330
F102C7
100
AcDbEntity
8
Geo
100
AcDbLine
10
-58.0473173424312
20
14.5818929800307
30
0.00000000000000
11
-58.0443173424312
21
14.5802827975223
31
0.00000000000000
  0
LINE
  5
F102C8
330
F102C9
100
AcDbEntity
8
Geo
100
AcDbLine
10
-58.0443173424312
20
14.5802827975223
30
0.00000000000000
11
-58.0413173424312
21
14.5786671485289
31
0.00000000000000
  0
LINE
  5
F102CA
330
F102CB
100
AcDbEntity
8
Geo
100
AcDbLine
10
-58.0413173424312
20
14.5786671485289
30
0.00000000000000
11
-58.0383173424312
21
14.5770461542236
31
0.00000000000000
  0
LINE
  5
F102CC
330
F102CD
100
AcDbEntity
8
Geo
100
AcDbLine
10
-58.0383173424312
20
14.5770461542236
30
0.00000000000000
11
-58.0353173424312
21
14.5754199361801
31
0.00000000000000
  0
LINE
  5
F102CE
330
F102CF
100
AcDbEntity
8
Geo
100
AcDbLine
10
-58.0353173424312
20
14.5754199361801
30
0.00000000000000
11
-58.0323173424312
21
14.5737886163640
31
0.00000000000000
  0
LINE
  5
F102D0
330
F102D1
100
AcDbEntity
8
Geo
100
AcDbLine
10
-58.0323173424312
20
14.5737886163640
30
0.00000000000000
11
-58.0293173424312
21
14.5721523171236
31
0.00000000000000
  0
LINE
  5
F102D2
330
F102D3
100
AcDbEntity
8
Geo
100
AcDbLine
10
-58.0293173424312
20
14.5721523171236
30
0.00000000000000
11
-58.0263173424312
21
14.5705111611805
31
0.00000000000000
  0
LINE
  5
F102D4
330
F102D5
100
AcDbEntity
8
Geo
100
AcDbLine
10
-58.0263173424312
20
14.5705111611805
30
0.00000000000000
11
-58.0233173424312
21
14.5688652716206
31
0.00000000000000
  0
LINE
  5
F102D6
330
F102D7
100
AcDbEntity
8
Geo
100
AcDbLine
10
-58.0233173424312
20
14.5688652716206
30
0.00000000000000
11
-58.0203173424312
21
14.5672147718850
31
0.00000000000000
  0
LINE
  5
F102D8
330
F102D9
100
AcDbEntity
8
Geo
100
AcDbLine
10
-58.0203173424312
20
14.5672147718850
30
0.00000000000000
11
-58.0173173424312
21
14.5655597857602
31
0.00000000000000
  0
LINE
  5
F102DA
330
F102DB
100
AcDbEntity
8
Geo
100
AcDbLine
10
-58.0173173424312
20
14.5655597857602
30
0.00000000000000
11
-58.0143173424312
21
14.5639004373695
31
0.00000000000000
  0
LINE
  5
F102DC
330
F102DD
100
AcDbEntity
8
Geo
100
AcDbLine
10
-58.0143173424312
20
14.5639004373695
30
0.00000000000000
11
-58.0113173424312
21
14.5622368511633
31
0.00000000000000
  0
LINE
  5
F102DE
330
F102DF
100
AcDbEntity
8
Geo
100
AcDbLine
10
-58.0113173424312
20
14.5622368511633
30
0.00000000000000
11
-58.0083173424312
21
14.5605691519097
31
0.00000000000000
  0
LINE
  5
F102E0
330
F102E1
100
AcDbEntity
8
Geo
100
AcDbLine
10
-58.0083173424312
20
14.5605691519097
30
0.00000000000000
11
-58.0053173424312
21
14.5588974646853
31
0.00000000000000
  0
LINE
  5
F102E2
330
F102E3
100
AcDbEntity
8
Geo
100
AcDbLine
10
-58.0053173424312
20
14.5588974646853
30
0.00000000000000
11
-58.0023173424312
21
14.5572219148660
31
0.00000000000000
  0
LINE
  5
F102E4
330
F102E5
100
AcDbEntity
8
Geo
100
AcDbLine
10
-58.0023173424312
20
14.5572219148660
30
0.00000000000000
11
-57.9993173424312
21
14.5555426281172
31
0.00000000000000
  0
LINE
  5
F102E6
330
F102E7
100
AcDbEntity
8
Geo
100
AcDbLine
10
-57.9993173424312
20
14.5555426281172
30
0.00000000000000
11
-57.9963173424312
21
14.5538597303846
31
0.00000000000000
  0
LINE
  5
F102E8
330
F102E9
100
AcDbEntity
8
Geo
100
AcDbLine
10
-57.9963173424312
20
14.5538597303846
30
0.00000000000000
11
-57.9933173424312
21
14.5521733478848
31
0.00000000000000
  0
LINE
  5
F102EA
330
F102EB
100
AcDbEntity
8
Geo
100
AcDbLine
10
-57.9933173424312
20
14.5521733478848
30
0.00000000000000
11
-57.9903173424312
21
14.5504836070956
31
0.00000000000000
  0
LINE
  5
F102EC
330
F102ED
100
AcDbEntity
8
Geo
100
AcDbLine
10
-57.9903173424312
20
14.5504836070956
30
0.00000000000000
11
-57.9873173424312
21
14.5487906347469
31
0.00000000000000
  0
LINE
  5
F102EE
330
F102EF
100
AcDbEntity
8
Geo
100
AcDbLine
10
-57.9873173424312
20
14.5487906347469
30
0.00000000000000
11
-57.9843173424312
21
14.5470945578106
31
0.00000000000000
  0
LINE
  5
F102F0
330
F102F1
100
AcDbEntity
8
Geo
100
AcDbLine
10
-57.9843173424312
20
14.5470945578106
30
0.00000000000000
11
-57.9813173424312
21
14.5453955034919
31
0.00000000000000
  0
LINE
  5
F102F2
330
F102F3
100
AcDbEntity
8
Geo
100
AcDbLine
10
-57.9813173424312
20
14.5453955034919
30
0.00000000000000
11
-57.9783173424312
21
14.5436935992191
31
0.00000000000000
  0
LINE
  5
F102F4
330
F102F5
100
AcDbEntity
8
Geo
100
AcDbLine
10
-57.9783173424312
20
14.5436935992191
30
0.00000000000000
11
-57.9753173424312
21
14.5419889726340
31
0.00000000000000
  0
LINE
  5
F102F6
330
F102F7
100
AcDbEntity
8
Geo
100
AcDbLine
10
-57.9753173424312
20
14.5419889726340
30
0.00000000000000
11
-57.9723173424312
21
14.5402817515829
31
0.00000000000000
  0
LINE
  5
F102F8
330
F102F9
100
AcDbEntity
8
Geo
100
AcDbLine
10
-57.9723173424312
20
14.5402817515829
30
0.00000000000000
11
-57.9693173424312
21
14.5385720641067
31
0.00000000000000
  0
LINE
  5
F102FA
330
F102FB
100
AcDbEntity
8
Geo
100
AcDbLine
10
-57.9693173424312
20
14.5385720641067
30
0.00000000000000
11
-57.9663173424312
21
14.5368600384310
31
0.00000000000000
  0
LINE
  5
F102FC
330
F102FD
100
AcDbEntity
8
Geo
100
AcDbLine
10
-57.9663173424312
20
14.5368600384310
30
0.00000000000000
11
-57.9633173424312
21
14.5351458029570
31
0.00000000000000
  0
LINE
  5
F102FE
330
F102FF
100
AcDbEntity
8
Geo
100
AcDbLine
10
-57.9633173424312
20
14.5351458029570
30
0.00000000000000
11
-57.9603173424312
21
14.5334294862515
31
0.00000000000000
  0
LINE
  5
F10300
330
F10301
100
AcDbEntity
8
Geo
100
AcDbLine
10
-57.9603173424312
20
14.5334294862515
30
0.00000000000000
11
-57.9573173424312
21
14.5317112170375
31
0.00000000000000
  0
LINE
  5
F10302
330
F10303
100
AcDbEntity
8
Geo
100
AcDbLine
10
-57.9573173424312
20
14.5317112170375
30
0.00000000000000
11
-57.9543173424312
21
14.5299911241844
31
0.00000000000000
  0
LINE
  5
F10304
330
F10305
100
AcDbEntity
8
Geo
100
AcDbLine
10
-57.9543173424312
20
14.5299911241844
30
0.00000000000000
11
-57.9513173424312
21
14.5282693366983
31
0.00000000000000
  0
LINE
  5
F10306
330
F10307
100
AcDbEntity
8
Geo
100
AcDbLine
10
-57.9513173424312
20
14.5282693366983
30
0.00000000000000
11
-57.9483173424312
21
14.5265459837126
31
0.00000000000000
  0
LINE
  5
F10308
330
F10309
100
AcDbEntity
8
Geo
100
AcDbLine
10
-57.9483173424312
20
14.5265459837126
30
0.00000000000000
11
-57.9453173424312
21
14.5248211944777
31
0.00000000000000
  0
LINE
  5
F1030A
330
F1030B
100
AcDbEntity
8
Geo
100
AcDbLine
10
-57.9453173424312
20
14.5248211944777
30
0.00000000000000
11
-57.9423173424312
21
14.5230950983522
31
0.00000000000000
  0
LINE
  5
F1030C
330
F1030D
100
AcDbEntity
8
Geo
100
AcDbLine
10
-57.9423173424312
20
14.5230950983522
30
0.00000000000000
11
-57.9393173424312
21
14.5213678247924
31
0.00000000000000
  0
LINE
  5
F1030E
330
F1030F
100
AcDbEntity
8
Geo
100
AcDbLine
10
-57.9393173424312
20
14.5213678247924
30
0.00000000000000
11
-57.9363173424312
21
14.5196395033431
31
0.00000000000000
  0
LINE
  5
F10310
330
F10311
100
AcDbEntity
8
Geo
100
AcDbLine
10
-57.9363173424312
20
14.5196395033431
30
0.00000000000000
11
-57.9333173424312
21
14.5179102636275
31
0.00000000000000
  0
LINE
  5
F10312
330
F10313
100
AcDbEntity
8
Geo
100
AcDbLine
10
-57.9333173424312
20
14.5179102636275
30
0.00000000000000
11
-57.9303173424312
21
14.5161802353378
31
0.00000000000000
  0
LINE
  5
F10314
330
F10315
100
AcDbEntity
8
Geo
100
AcDbLine
10
-57.9303173424312
20
14.5161802353378
30
0.00000000000000
11
-57.9273173424312
21
14.5144495482253
31
0.00000000000000
  0
LINE
  5
F10316
330
F10317
100
AcDbEntity
8
Geo
100
AcDbLine
10
-57.9273173424312
20
14.5144495482253
30
0.00000000000000
11
-57.9243173424312
21
14.5127183320908
31
0.00000000000000
  0
LINE
  5
F10318
330
F10319
100
AcDbEntity
8
Geo
100
AcDbLine
10
-57.9243173424312
20
14.5127183320908
30
0.00000000000000
11
-57.9213173424312
21
14.5109867167746
31
0.00000000000000
  0
LINE
  5
F1031A
330
F1031B
100
AcDbEntity
8
Geo
100
AcDbLine
10
-57.9213173424312
20
14.5109867167746
30
0.00000000000000
11
-57.9183173424312
21
14.5092548321471
31
0.00000000000000
  0
LINE
  5
F1031C
330
F1031D
100
AcDbEntity
8
Geo
100
AcDbLine
10
-57.9183173424312
20
14.5092548321471
30
0.00000000000000
11
-57.9153173424312
21
14.5075228080988
31
0.00000000000000
  0
LINE
  5
F1031E
330
F1031F
100
AcDbEntity
8
Geo
100
AcDbLine
10
-57.9153173424312
20
14.5075228080988
30
0.00000000000000
11
-57.9123173424312
21
14.5057907745307
31
0.00000000000000
  0
LINE
  5
F10320
330
F10321
100
AcDbEntity
8
Geo
100
AcDbLine
10
-57.9123173424312
20
14.5057907745307
30
0.00000000000000
11
-57.9093173424312
21
14.5040588613445
31
0.00000000000000
  0
LINE
  5
F10322
330
F10323
100
AcDbEntity
8
Geo
100
AcDbLine
10
-57.9093173424312
20
14.5040588613445
30
0.00000000000000
11
-57.9063173424312
21
14.5023271984329
31
0.00000000000000
  0
LINE
  5
F10324
330
F10325
100
AcDbEntity
8
Geo
100
AcDbLine
10
-57.9063173424312
20
14.5023271984329
30
0.00000000000000
11
-57.9033173424312
21
14.5005959156698
31
0.00000000000000
  0
LINE
  5
F10326
330
F10327
100
AcDbEntity
8
Geo
100
AcDbLine
10
-57.9033173424312
20
14.5005959156698
30
0.00000000000000
11
-57.9003173424312
21
14.4988651429006
31
0.00000000000000
  0
LINE
  5
F10328
330
F10329
100
AcDbEntity
8
Geo
100
AcDbLine
10
-57.9003173424312
20
14.4988651429006
30
0.00000000000000
11
-57.8973173424312
21
14.4971350099325
31
0.00000000000000
  0
LINE
  5
F1032A
330
F1032B
100
AcDbEntity
8
Geo
100
AcDbLine
10
-57.8973173424312
20
14.4971350099325
30
0.00000000000000
11
-57.8943173424312
21
14.4954056465245
31
0.00000000000000
  0
LINE
  5
F1032C
330
F1032D
100
AcDbEntity
8
Geo
100
AcDbLine
10
-57.8943173424312
20
14.4954056465245
30
0.00000000000000
11
-57.8913173424312
21
14.4936771823781
31
0.00000000000000
  0
LINE
  5
F1032E
330
F1032F
100
AcDbEntity
8
Geo
100
AcDbLine
10
-57.8913173424312
20
14.4936771823781
30
0.00000000000000
11
-57.8883173424312
21
14.4919497471275
31
0.00000000000000
  0
LINE
  5
F10330
330
F10331
100
AcDbEntity
8
Geo
100
AcDbLine
10
-57.8883173424312
20
14.4919497471275
30
0.00000000000000
11
-57.8853173424312
21
14.4902234703292
31
0.00000000000000
  0
LINE
  5
F10332
330
F10333
100
AcDbEntity
8
Geo
100
AcDbLine
10
-57.8853173424312
20
14.4902234703292
30
0.00000000000000
11
-57.8823173424312
21
14.4884984814535
31
0.00000000000000
  0
LINE
  5
F10334
330
F10335
100
AcDbEntity
8
Geo
100
AcDbLine
10
-57.8823173424312
20
14.4884984814535
30
0.00000000000000
11
-57.8793173424312
21
14.4867749098735
31
0.00000000000000
  0
LINE
  5
F10336
330
F10337
100
AcDbEntity
8
Geo
100
AcDbLine
10
-57.8793173424312
20
14.4867749098735
30
0.00000000000000
11
-57.8763173424312
21
14.4850528848563
31
0.00000000000000
  0
LINE
  5
F10338
330
F10339
100
AcDbEntity
8
Geo
100
AcDbLine
10
-57.8763173424312
20
14.4850528848563
30
0.00000000000000
11
-57.8733173424312
21
14.4833325355531
31
0.00000000000000
  0
LINE
  5
F1033A
330
F1033B
100
AcDbEntity
8
Geo
100
AcDbLine
10
-57.8733173424312
20
14.4833325355531
30
0.00000000000000
11
-57.8703173424312
21
14.4816139909891
31
0.00000000000000
  0
LINE
  5
F1033C
330
F1033D
100
AcDbEntity
8
Geo
100
AcDbLine
10
-57.8703173424312
20
14.4816139909891
30
0.00000000000000
11
-57.8673173424311
21
14.4798973800545
31
0.00000000000000
  0
LINE
  5
F1033E
330
F1033F
100
AcDbEntity
8
Geo
100
AcDbLine
10
-57.8673173424311
20
14.4798973800545
30
0.00000000000000
11
-57.8643173424311
21
14.4781828314943
31
0.00000000000000
  0
LINE
  5
F10340
330
F10341
100
AcDbEntity
8
Geo
100
AcDbLine
10
-57.8643173424311
20
14.4781828314943
30
0.00000000000000
11
-57.8613173424311
21
14.4764704738988
31
0.00000000000000
  0
LINE
  5
F10342
330
F10343
100
AcDbEntity
8
Geo
100
AcDbLine
10
-57.8613173424311
20
14.4764704738988
30
0.00000000000000
11
-57.8583173424312
21
14.4747604356939
31
0.00000000000000
  0
LINE
  5
F10344
330
F10345
100
AcDbEntity
8
Geo
100
AcDbLine
10
-57.8583173424312
20
14.4747604356939
30
0.00000000000000
11
-57.8553173424312
21
14.4730528451319
31
0.00000000000000
  0
LINE
  5
F10346
330
F10347
100
AcDbEntity
8
Geo
100
AcDbLine
10
-57.8553173424312
20
14.4730528451319
30
0.00000000000000
11
-57.8523173424312
21
14.4713478302811
31
0.00000000000000
  0
LINE
  5
F10348
330
F10349
100
AcDbEntity
8
Geo
100
AcDbLine
10
-57.8523173424312
20
14.4713478302811
30
0.00000000000000
11
-57.8493173424312
21
14.4696455190169
31
0.00000000000000
  0
LINE
  5
F1034A
330
F1034B
100
AcDbEntity
8
Geo
100
AcDbLine
10
-57.8493173424312
20
14.4696455190169
30
0.00000000000000
11
-57.8463173424312
21
14.4679460390118
31
0.00000000000000
  0
LINE
  5
F1034C
330
F1034D
100
AcDbEntity
8
Geo
100
AcDbLine
10
-57.8463173424312
20
14.4679460390118
30
0.00000000000000
11
-57.8433173424312
21
14.4662495177261
31
0.00000000000000
  0
LINE
  5
F1034E
330
F1034F
100
AcDbEntity
8
Geo
100
AcDbLine
10
-57.8433173424312
20
14.4662495177261
30
0.00000000000000
11
-57.8403173424312
21
14.4645560823980
31
0.00000000000000
  0
LINE
  5
F10350
330
F10351
100
AcDbEntity
8
Geo
100
AcDbLine
10
-57.8403173424312
20
14.4645560823980
30
0.00000000000000
11
-57.8373173424312
21
14.4628658600344
31
0.00000000000000
  0
LINE
  5
F10352
330
F10353
100
AcDbEntity
8
Geo
100
AcDbLine
10
-57.8373173424312
20
14.4628658600344
30
0.00000000000000
11
-57.8343173424312
21
14.4611789774012
31
0.00000000000000
  0
LINE
  5
F10354
330
F10355
100
AcDbEntity
8
Geo
100
AcDbLine
10
-57.8343173424312
20
14.4611789774012
30
0.00000000000000
11
-57.8313173424312
21
14.4594955610137
31
0.00000000000000
  0
LINE
  5
F10356
330
F10357
100
AcDbEntity
8
Geo
100
AcDbLine
10
-57.8313173424312
20
14.4594955610137
30
0.00000000000000
11
-57.8283173424312
21
14.4578157371275
31
0.00000000000000
  0
LINE
  5
F10358
330
F10359
100
AcDbEntity
8
Geo
100
AcDbLine
10
-57.8283173424312
20
14.4578157371275
30
0.00000000000000
11
-57.8253173424312
21
14.4561396317285
31
0.00000000000000
  0
LINE
  5
F1035A
330
F1035B
100
AcDbEntity
8
Geo
100
AcDbLine
10
-57.8253173424312
20
14.4561396317285
30
0.00000000000000
11
-57.8223173424312
21
14.4544673705239
31
0.00000000000000
  0
LINE
  5
F1035C
330
F1035D
100
AcDbEntity
8
Geo
100
AcDbLine
10
-57.8223173424312
20
14.4544673705239
30
0.00000000000000
11
-57.8193173424312
21
14.4527990789324
31
0.00000000000000
  0
LINE
  5
F1035E
330
F1035F
100
AcDbEntity
8
Geo
100
AcDbLine
10
-57.8193173424312
20
14.4527990789324
30
0.00000000000000
11
-57.8163173424312
21
14.4511348820751
31
0.00000000000000
  0
LINE
  5
F10360
330
F10361
100
AcDbEntity
8
Geo
100
AcDbLine
10
-57.8163173424312
20
14.4511348820751
30
0.00000000000000
11
-57.8133173424312
21
14.4494749047661
31
0.00000000000000
  0
LINE
  5
F10362
330
F10363
100
AcDbEntity
8
Geo
100
AcDbLine
10
-57.8133173424312
20
14.4494749047661
30
0.00000000000000
11
-57.8103173424312
21
14.4478192715028
31
0.00000000000000
  0
LINE
  5
F10364
330
F10365
100
AcDbEntity
8
Geo
100
AcDbLine
10
-57.8103173424312
20
14.4478192715028
30
0.00000000000000
11
-57.8073173424312
21
14.4461681064570
31
0.00000000000000
  0
LINE
  5
F10366
330
F10367
100
AcDbEntity
8
Geo
100
AcDbLine
10
-57.8073173424312
20
14.4461681064570
30
0.00000000000000
11
-57.8043173424312
21
14.4445215334652
31
0.00000000000000
  0
LINE
  5
F10368
330
F10369
100
AcDbEntity
8
Geo
100
AcDbLine
10
-57.8043173424312
20
14.4445215334652
30
0.00000000000000
11
-57.8013173424312
21
14.4428796760197
31
0.00000000000000
  0
LINE
  5
F1036A
330
F1036B
100
AcDbEntity
8
Geo
100
AcDbLine
10
-57.8013173424312
20
14.4428796760197
30
0.00000000000000
11
-57.7983173424312
21
14.4412426572591
31
0.00000000000000
  0
LINE
  5
F1036C
330
F1036D
100
AcDbEntity
8
Geo
100
AcDbLine
10
-57.7983173424312
20
14.4412426572591
30
0.00000000000000
11
-57.7953173424312
21
14.4396105999588
31
0.00000000000000
  0
LINE
  5
F1036E
330
F1036F
100
AcDbEntity
8
Geo
100
AcDbLine
10
-57.7953173424312
20
14.4396105999588
30
0.00000000000000
11
-57.7923173424312
21
14.4379836265226
31
0.00000000000000
  0
LINE
  5
F10370
330
F10371
100
AcDbEntity
8
Geo
100
AcDbLine
10
-57.7923173424312
20
14.4379836265226
30
0.00000000000000
11
-57.7893173424312
21
14.4363618589726
31
0.00000000000000
  0
LINE
  5
F10372
330
F10373
100
AcDbEntity
8
Geo
100
AcDbLine
10
-57.7893173424312
20
14.4363618589726
30
0.00000000000000
11
-57.7863173424312
21
14.4347454189406
31
0.00000000000000
  0
LINE
  5
F10374
330
F10375
100
AcDbEntity
8
Geo
100
AcDbLine
10
-57.7863173424312
20
14.4347454189406
30
0.00000000000000
11
-57.7833173424312
21
14.4331344276589
31
0.00000000000000
  0
LINE
  5
F10376
330
F10377
100
AcDbEntity
8
Geo
100
AcDbLine
10
-57.7833173424312
20
14.4331344276589
30
0.00000000000000
11
-57.7803173424312
21
14.4315290059510
31
0.00000000000000
  0
LINE
  5
F10378
330
F10379
100
AcDbEntity
8
Geo
100
AcDbLine
10
-57.7803173424312
20
14.4315290059510
30
0.00000000000000
11
-57.7773173424312
21
14.4299292742229
31
0.00000000000000
  0
LINE
  5
F1037A
330
F1037B
100
AcDbEntity
8
Geo
100
AcDbLine
10
-57.7773173424312
20
14.4299292742229
30
0.00000000000000
11
-57.7743173424312
21
14.4283353524537
31
0.00000000000000
  0
LINE
  5
F1037C
330
F1037D
100
AcDbEntity
8
Geo
100
AcDbLine
10
-57.7743173424312
20
14.4283353524537
30
0.00000000000000
11
-57.7713173424312
21
14.4267473601867
31
0.00000000000000
  0
LINE
  5
F1037E
330
F1037F
100
AcDbEntity
8
Geo
100
AcDbLine
10
-57.7713173424312
20
14.4267473601867
30
0.00000000000000
11
-57.7683173424312
21
14.4251654165207
31
0.00000000000000
  0
LINE
  5
F10380
330
F10381
100
AcDbEntity
8
Geo
100
AcDbLine
10
-57.7683173424312
20
14.4251654165207
30
0.00000000000000
11
-57.7653173424312
21
14.4235896401006
31
0.00000000000000
  0
LINE
  5
F10382
330
F10383
100
AcDbEntity
8
Geo
100
AcDbLine
10
-57.7653173424312
20
14.4235896401006
30
0.00000000000000
11
-57.7623173424312
21
14.4220201491090
31
0.00000000000000
  0
LINE
  5
F10384
330
F10385
100
AcDbEntity
8
Geo
100
AcDbLine
10
-57.7623173424312
20
14.4220201491090
30
0.00000000000000
11
-57.7593173424312
21
14.4204570612569
31
0.00000000000000
  0
LINE
  5
F10386
330
F10387
100
AcDbEntity
8
Geo
100
AcDbLine
10
-57.7593173424312
20
14.4204570612569
30
0.00000000000000
11
-57.7563173424312
21
14.4189004937753
31
0.00000000000000
  0
LINE
  5
F10388
330
F10389
100
AcDbEntity
8
Geo
100
AcDbLine
10
-57.7563173424312
20
14.4189004937753
30
0.00000000000000
11
-57.7533173424312
21
14.4173505634059
31
0.00000000000000
  0
LINE
  5
F1038A
330
F1038B
100
AcDbEntity
8
Geo
100
AcDbLine
10
-57.7533173424312
20
14.4173505634059
30
0.00000000000000
11
-57.7503173424312
21
14.4158073863927
31
0.00000000000000
  0
LINE
  5
F1038C
330
F1038D
100
AcDbEntity
8
Geo
100
AcDbLine
10
-57.7503173424312
20
14.4158073863927
30
0.00000000000000
11
-57.7473173424312
21
14.4142710784734
31
0.00000000000000
  0
LINE
  5
F1038E
330
F1038F
100
AcDbEntity
8
Geo
100
AcDbLine
10
-57.7473173424312
20
14.4142710784734
30
0.00000000000000
11
-57.7443173424312
21
14.4127417548704
31
0.00000000000000
  0
LINE
  5
F10390
330
F10391
100
AcDbEntity
8
Geo
100
AcDbLine
10
-57.7443173424312
20
14.4127417548704
30
0.00000000000000
11
-57.7413173424312
21
14.4112195302821
31
0.00000000000000
  0
LINE
  5
F10392
330
F10393
100
AcDbEntity
8
Geo
100
AcDbLine
10
-57.7413173424312
20
14.4112195302821
30
0.00000000000000
11
-57.7383173424312
21
14.4097045188747
31
0.00000000000000
  0
LINE
  5
F10394
330
F10395
100
AcDbEntity
8
Geo
100
AcDbLine
10
-57.7383173424312
20
14.4097045188747
30
0.00000000000000
11
-57.7353173424312
21
14.4081968342733
31
0.00000000000000
  0
LINE
  5
F10396
330
F10397
100
AcDbEntity
8
Geo
100
AcDbLine
10
-57.7353173424312
20
14.4081968342733
30
0.00000000000000
11
-57.7323173424312
21
14.4066965895536
31
0.00000000000000
  0
LINE
  5
F10398
330
F10399
100
AcDbEntity
8
Geo
100
AcDbLine
10
-57.7323173424312
20
14.4066965895536
30
0.00000000000000
11
-57.7293173424312
21
14.4052038972333
31
0.00000000000000
  0
LINE
  5
F1039A
330
F1039B
100
AcDbEntity
8
Geo
100
AcDbLine
10
-57.7293173424312
20
14.4052038972333
30
0.00000000000000
11
-57.7263173424312
21
14.4037188692635
31
0.00000000000000
  0
LINE
  5
F1039C
330
F1039D
100
AcDbEntity
8
Geo
100
AcDbLine
10
-57.7263173424312
20
14.4037188692635
30
0.00000000000000
11
-57.7233173424312
21
14.4022416170206
31
0.00000000000000
  0
LINE
  5
F1039E
330
F1039F
100
AcDbEntity
8
Geo
100
AcDbLine
10
-57.7233173424312
20
14.4022416170206
30
0.00000000000000
11
-57.7203173424312
21
14.4007722512980
31
0.00000000000000
  0
LINE
  5
F103A0
330
F103A1
100
AcDbEntity
8
Geo
100
AcDbLine
10
-57.7203173424312
20
14.4007722512980
30
0.00000000000000
11
-57.7173173424312
21
14.3993108822973
31
0.00000000000000
  0
LINE
  5
F103A2
330
F103A3
100
AcDbEntity
8
Geo
100
AcDbLine
10
-57.7173173424312
20
14.3993108822973
30
0.00000000000000
11
-57.7143173424312
21
14.3978576196205
31
0.00000000000000
  0
LINE
  5
F103A4
330
F103A5
100
AcDbEntity
8
Geo
100
AcDbLine
10
-57.7143173424312
20
14.3978576196205
30
0.00000000000000
11
-57.7113173424312
21
14.3964125722616
31
0.00000000000000
  0
LINE
  5
F103A6
330
F103A7
100
AcDbEntity
8
Geo
100
AcDbLine
10
-57.7113173424312
20
14.3964125722616
30
0.00000000000000
11
-57.7083173424312
21
14.3949758485985
31
0.00000000000000
  0
LINE
  5
F103A8
330
F103A9
100
AcDbEntity
8
Geo
100
AcDbLine
10
-57.7083173424312
20
14.3949758485985
30
0.00000000000000
11
-57.7053173424312
21
14.3935475563849
31
0.00000000000000
  0
LINE
  5
F103AA
330
F103AB
100
AcDbEntity
8
Geo
100
AcDbLine
10
-57.7053173424312
20
14.3935475563849
30
0.00000000000000
11
-57.7023173424312
21
14.3921278027419
31
0.00000000000000
  0
LINE
  5
F103AC
330
F103AD
100
AcDbEntity
8
Geo
100
AcDbLine
10
-57.7023173424312
20
14.3921278027419
30
0.00000000000000
11
-57.6993173424312
21
14.3907166941504
31
0.00000000000000
  0
LINE
  5
F103AE
330
F103AF
100
AcDbEntity
8
Geo
100
AcDbLine
10
-57.6993173424312
20
14.3907166941504
30
0.00000000000000
11
-57.6963173424312
21
14.3893143364429
31
0.00000000000000
  0
LINE
  5
F103B0
330
F103B1
100
AcDbEntity
8
Geo
100
AcDbLine
10
-57.6963173424312
20
14.3893143364429
30
0.00000000000000
11
-57.6933173424312
21
14.3879208347956
31
0.00000000000000
  0
LINE
  5
F103B2
330
F103B3
100
AcDbEntity
8
Geo
100
AcDbLine
10
-57.6933173424312
20
14.3879208347956
30
0.00000000000000
11
-57.6903173424312
21
14.3865362937204
31
0.00000000000000
  0
LINE
  5
F103B4
330
F103B5
100
AcDbEntity
8
Geo
100
AcDbLine
10
-57.6903173424312
20
14.3865362937204
30
0.00000000000000
11
-57.6873173424312
21
14.3851608170573
31
0.00000000000000
  0
LINE
  5
F103B6
330
F103B7
100
AcDbEntity
8
Geo
100
AcDbLine
10
-57.6873173424312
20
14.3851608170573
30
0.00000000000000
11
-57.6843173424312
21
14.3837945079664
31
0.00000000000000
  0
LINE
  5
F103B8
330
F103B9
100
AcDbEntity
8
Geo
100
AcDbLine
10
-57.6843173424312
20
14.3837945079664
30
0.00000000000000
11
-57.6813173424312
21
14.3824374689202
31
0.00000000000000
  0
LINE
  5
F103BA
330
F103BB
100
AcDbEntity
8
Geo
100
AcDbLine
10
-57.6813173424312
20
14.3824374689202
30
0.00000000000000
11
-57.6783173424311
21
14.3810898016960
31
0.00000000000000
  0
LINE
  5
F103BC
330
F103BD
100
AcDbEntity
8
Geo
100
AcDbLine
10
-57.6783173424311
20
14.3810898016960
30
0.00000000000000
11
-57.6753173424311
21
14.3797516073682
31
0.00000000000000
  0
LINE
  5
F103BE
330
F103BF
100
AcDbEntity
8
Geo
100
AcDbLine
10
-57.6753173424311
20
14.3797516073682
30
0.00000000000000
11
-57.6723173424311
21
14.3784229863008
31
0.00000000000000
  0
LINE
  5
F103C0
330
F103C1
100
AcDbEntity
8
Geo
100
AcDbLine
10
-57.6723173424311
20
14.3784229863008
30
0.00000000000000
11
-57.6693173424312
21
14.3771040381397
31
0.00000000000000
  0
LINE
  5
F103C2
330
F103C3
100
AcDbEntity
8
Geo
100
AcDbLine
10
-57.6693173424312
20
14.3771040381397
30
0.00000000000000
11
-57.6663173424312
21
14.3757948618054
31
0.00000000000000
  0
LINE
  5
F103C4
330
F103C5
100
AcDbEntity
8
Geo
100
AcDbLine
10
-57.6663173424312
20
14.3757948618054
30
0.00000000000000
11
-57.6633173424312
21
14.3744955554855
31
0.00000000000000
  0
LINE
  5
F103C6
330
F103C7
100
AcDbEntity
8
Geo
100
AcDbLine
10
-57.6633173424312
20
14.3744955554855
30
0.00000000000000
11
-57.6603173424312
21
14.3732062166275
31
0.00000000000000
  0
LINE
  5
F103C8
330
F103C9
100
AcDbEntity
8
Geo
100
AcDbLine
10
-57.6603173424312
20
14.3732062166275
30
0.00000000000000
11
-57.6573173424312
21
14.3719269419310
31
0.00000000000000
  0
LINE
  5
F103CA
330
F103CB
100
AcDbEntity
8
Geo
100
AcDbLine
10
-57.6573173424312
20
14.3719269419310
30
0.00000000000000
11
-57.6543173424312
21
14.3706578273412
31
0.00000000000000
  0
LINE
  5
F103CC
330
F103CD
100
AcDbEntity
8
Geo
100
AcDbLine
10
-57.6543173424312
20
14.3706578273412
30
0.00000000000000
11
-57.6513173424312
21
14.3693989680409
31
0.00000000000000
  0
LINE
  5
F103CE
330
F103CF
100
AcDbEntity
8
Geo
100
AcDbLine
10
-57.6513173424312
20
14.3693989680409
30
0.00000000000000
11
-57.6483173424312
21
14.3681504584442
31
0.00000000000000
  0
LINE
  5
F103D0
330
F103D1
100
AcDbEntity
8
Geo
100
AcDbLine
10
-57.6483173424312
20
14.3681504584442
30
0.00000000000000
11
-57.6453173424312
21
14.3669123921885
31
0.00000000000000
  0
LINE
  5
F103D2
330
F103D3
100
AcDbEntity
8
Geo
100
AcDbLine
10
-57.6453173424312
20
14.3669123921885
30
0.00000000000000
11
-57.6423173424312
21
14.3656848621283
31
0.00000000000000
  0
LINE
  5
F103D4
330
F103D5
100
AcDbEntity
8
Geo
100
AcDbLine
10
-57.6423173424312
20
14.3656848621283
30
0.00000000000000
11
-57.6393173424312
21
14.3644679603278
31
0.00000000000000
  0
LINE
  5
F103D6
330
F103D7
100
AcDbEntity
8
Geo
100
AcDbLine
10
-57.6393173424312
20
14.3644679603278
30
0.00000000000000
11
-57.6363173424312
21
14.3632617780540
31
0.00000000000000
  0
LINE
  5
F103D8
330
F103D9
100
AcDbEntity
8
Geo
100
AcDbLine
10
-57.6363173424312
20
14.3632617780540
30
0.00000000000000
11
-57.6333173424312
21
14.3620664057700
31
0.00000000000000
  0
LINE
  5
F103DA
330
F103DB
100
AcDbEntity
8
Geo
100
AcDbLine
10
-57.6333173424312
20
14.3620664057700
30
0.00000000000000
11
-57.6303173424312
21
14.3608819331283
31
0.00000000000000
  0
LINE
  5
F103DC
330
F103DD
100
AcDbEntity
8
Geo
100
AcDbLine
10
-57.6303173424312
20
14.3608819331283
30
0.00000000000000
11
-57.6273173424312
21
14.3597084489636
31
0.00000000000000
  0
LINE
  5
F103DE
330
F103DF
100
AcDbEntity
8
Geo
100
AcDbLine
10
-57.6273173424312
20
14.3597084489636
30
0.00000000000000
11
-57.6243173424312
21
14.3585460412868
31
0.00000000000000
  0
LINE
  5
F103E0
330
F103E1
100
AcDbEntity
8
Geo
100
AcDbLine
10
-57.6243173424312
20
14.3585460412868
30
0.00000000000000
11
-57.6213173424312
21
14.3573947972778
31
0.00000000000000
  0
LINE
  5
F103E2
330
F103E3
100
AcDbEntity
8
Geo
100
AcDbLine
10
-57.6213173424312
20
14.3573947972778
30
0.00000000000000
11
-57.6183173424312
21
14.3562548032795
31
0.00000000000000
  0
LINE
  5
F103E4
330
F103E5
100
AcDbEntity
8
Geo
100
AcDbLine
10
-57.6183173424312
20
14.3562548032795
30
0.00000000000000
11
-57.6153173424312
21
14.3551261447909
31
0.00000000000000
  0
LINE
  5
F103E6
330
F103E7
100
AcDbEntity
8
Geo
100
AcDbLine
10
-57.6153173424312
20
14.3551261447909
30
0.00000000000000
11
-57.6123173424312
21
14.3540089064608
31
0.00000000000000
  0
LINE
  5
F103E8
330
F103E9
100
AcDbEntity
8
Geo
100
AcDbLine
10
-57.6123173424312
20
14.3540089064608
30
0.00000000000000
11
-57.6093173424312
21
14.3529031720815
31
0.00000000000000
  0
LINE
  5
F103EA
330
F103EB
100
AcDbEntity
8
Geo
100
AcDbLine
10
-57.6093173424312
20
14.3529031720815
30
0.00000000000000
11
-57.6063173424312
21
14.3518090245827
31
0.00000000000000
  0
LINE
  5
F103EC
330
F103ED
100
AcDbEntity
8
Geo
100
AcDbLine
10
-57.6063173424312
20
14.3518090245827
30
0.00000000000000
11
-57.6033173424312
21
14.3507265460248
31
0.00000000000000
  0
LINE
  5
F103EE
330
F103EF
100
AcDbEntity
8
Geo
100
AcDbLine
10
-57.6033173424312
20
14.3507265460248
30
0.00000000000000
11
-57.6003173424312
21
14.3496558175933
31
0.00000000000000
  0
LINE
  5
F103F0
330
F103F1
100
AcDbEntity
8
Geo
100
AcDbLine
10
-57.6003173424312
20
14.3496558175933
30
0.00000000000000
11
-57.5973173424312
21
14.3485969195923
31
0.00000000000000
  0
LINE
  5
F103F2
330
F103F3
100
AcDbEntity
8
Geo
100
AcDbLine
10
-57.5973173424312
20
14.3485969195923
30
0.00000000000000
11
-57.5943173424312
21
14.3475499314387
31
0.00000000000000
  0
LINE
  5
F103F4
330
F103F5
100
AcDbEntity
8
Geo
100
AcDbLine
10
-57.5943173424312
20
14.3475499314387
30
0.00000000000000
11
-57.5913173424312
21
14.3465149316560
31
0.00000000000000
  0
LINE
  5
F103F6
330
F103F7
100
AcDbEntity
8
Geo
100
AcDbLine
10
-57.5913173424312
20
14.3465149316560
30
0.00000000000000
11
-57.5883173424312
21
14.3454919978688
31
0.00000000000000
  0
LINE
  5
F103F8
330
F103F9
100
AcDbEntity
8
Geo
100
AcDbLine
10
-57.5883173424312
20
14.3454919978688
30
0.00000000000000
11
-57.5853173424312
21
14.3444812067966
31
0.00000000000000
  0
LINE
  5
F103FA
330
F103FB
100
AcDbEntity
8
Geo
100
AcDbLine
10
-57.5853173424312
20
14.3444812067966
30
0.00000000000000
11
-57.5823173424312
21
14.3434826342483
31
0.00000000000000
  0
LINE
  5
F103FC
330
F103FD
100
AcDbEntity
8
Geo
100
AcDbLine
10
-57.5823173424312
20
14.3434826342483
30
0.00000000000000
11
-57.5793173424312
21
14.3424963551163
31
0.00000000000000
  0
LINE
  5
F103FE
330
F103FF
100
AcDbEntity
8
Geo
100
AcDbLine
10
-57.5793173424312
20
14.3424963551163
30
0.00000000000000
11
-57.5763173424312
21
14.3415224433711
31
0.00000000000000
  0
LINE
  5
F10400
330
F10401
100
AcDbEntity
8
Geo
100
AcDbLine
10
-57.5763173424312
20
14.3415224433711
30
0.00000000000000
11
-57.5733173424312
21
14.3405609720557
31
0.00000000000000
  0
LINE
  5
F10402
330
F10403
100
AcDbEntity
8
Geo
100
AcDbLine
10
-57.5733173424312
20
14.3405609720557
30
0.00000000000000
11
-57.5703173424312
21
14.3396120132800
31
0.00000000000000
  0
LINE
  5
F10404
330
F10405
100
AcDbEntity
8
Geo
100
AcDbLine
10
-57.5703173424312
20
14.3396120132800
30
0.00000000000000
11
-57.5673173424312
21
14.3386756382153
31
0.00000000000000
  0
LINE
  5
F10406
330
F10407
100
AcDbEntity
8
Geo
100
AcDbLine
10
-57.5673173424312
20
14.3386756382153
30
0.00000000000000
11
-57.5643173424312
21
14.3377519170895
31
0.00000000000000
  0
LINE
  5
F10408
330
F10409
100
AcDbEntity
8
Geo
100
AcDbLine
10
-57.5643173424312
20
14.3377519170895
30
0.00000000000000
11
-57.5613173424312
21
14.3368409191811
31
0.00000000000000
  0
LINE
  5
F1040A
330
F1040B
100
AcDbEntity
8
Geo
100
AcDbLine
10
-57.5613173424312
20
14.3368409191811
30
0.00000000000000
11
-57.5583173424312
21
14.3359427128145
31
0.00000000000000
  0
LINE
  5
F1040C
330
F1040D
100
AcDbEntity
8
Geo
100
AcDbLine
10
-57.5583173424312
20
14.3359427128145
30
0.00000000000000
11
-57.5553173424312
21
14.3350573653549
31
0.00000000000000
  0
LINE
  5
F1040E
330
F1040F
100
AcDbEntity
8
Geo
100
AcDbLine
10
-57.5553173424312
20
14.3350573653549
30
0.00000000000000
11
-57.5523173424312
21
14.3341849432029
31
0.00000000000000
  0
LINE
  5
F10410
330
F10411
100
AcDbEntity
8
Geo
100
AcDbLine
10
-57.5523173424312
20
14.3341849432029
30
0.00000000000000
11
-57.5493173424312
21
14.3333255117897
31
0.00000000000000
  0
LINE
  5
F10412
330
F10413
100
AcDbEntity
8
Geo
100
AcDbLine
10
-57.5493173424312
20
14.3333255117897
30
0.00000000000000
11
-57.5463173424312
21
14.3324791355722
31
0.00000000000000
  0
LINE
  5
F10414
330
F10415
100
AcDbEntity
8
Geo
100
AcDbLine
10
-57.5463173424312
20
14.3324791355722
30
0.00000000000000
11
-57.5433173424312
21
14.3316458780283
31
0.00000000000000
  0
LINE
  5
F10416
330
F10417
100
AcDbEntity
8
Geo
100
AcDbLine
10
-57.5433173424312
20
14.3316458780283
30
0.00000000000000
11
-57.5403173424312
21
14.3308258016520
31
0.00000000000000
  0
LINE
  5
F10418
330
F10419
100
AcDbEntity
8
Geo
100
AcDbLine
10
-57.5403173424312
20
14.3736005302194
30
0.00000000000000
11
-57.5373173424312
21
14.3722122303101
31
0.00000000000000
  0
LINE
  5
F1041A
330
F1041B
100
AcDbEntity
8
Geo
100
AcDbLine
10
-57.5373173424312
20
14.3722122303101
30
0.00000000000000
11
-57.5343173424312
21
14.3704733119987
31
0.00000000000000
  0
LINE
  5
F1041C
330
F1041D
100
AcDbEntity
8
Geo
100
AcDbLine
10
-57.5343173424312
20
14.3704733119987
30
0.00000000000000
11
-57.5313173424312
21
14.3687331805471
31
0.00000000000000
  0
LINE
  5
F1041E
330
F1041F
100
AcDbEntity
8
Geo
100
AcDbLine
10
-57.5313173424312
20
14.3687331805471
30
0.00000000000000
11
-57.5283173424312
21
14.3669920375859
31
0.00000000000000
  0
LINE
  5
F10420
330
F10421
100
AcDbEntity
8
Geo
100
AcDbLine
10
-57.5283173424312
20
14.3669920375859
30
0.00000000000000
11
-57.5253173424312
21
14.3652500856552
31
0.00000000000000
  0
LINE
  5
F10422
330
F10423
100
AcDbEntity
8
Geo
100
AcDbLine
10
-57.5253173424312
20
14.3652500856552
30
0.00000000000000
11
-57.5223173424312
21
14.3635075282119
31
0.00000000000000
  0
LINE
  5
F10424
330
F10425
100
AcDbEntity
8
Geo
100
AcDbLine
10
-57.5223173424312
20
14.3635075282119
30
0.00000000000000
11
-57.5193173424312
21
14.3617645697709
31
0.00000000000000
  0
LINE
  5
F10426
330
F10427
100
AcDbEntity
8
Geo
100
AcDbLine
10
-57.5193173424312
20
14.3617645697709
30
0.00000000000000
11
-57.5163173424312
21
14.3600214165641
31
0.00000000000000
  0
LINE
  5
F10428
330
F10429
100
AcDbEntity
8
Geo
100
AcDbLine
10
-57.5163173424312
20
14.3600214165641
30
0.00000000000000
11
-57.5133173424312
21
14.3582782788003
31
0.00000000000000
  0
LINE
  5
F1042A
330
F1042B
100
AcDbEntity
8
Geo
100
AcDbLine
10
-57.5133173424312
20
14.3582782788003
30
0.00000000000000
11
-57.5103173424312
21
14.3565353770796
31
0.00000000000000
  0
LINE
  5
F1042C
330
F1042D
100
AcDbEntity
8
Geo
100
AcDbLine
10
-57.5103173424312
20
14.3565353770796
30
0.00000000000000
11
-57.5073173424312
21
14.3547929583110
31
0.00000000000000
  0
LINE
  5
F1042E
330
F1042F
100
AcDbEntity
8
Geo
100
AcDbLine
10
-57.5073173424312
20
14.3547929583110
30
0.00000000000000
11
-57.5043173424312
21
14.3530513313090
31
0.00000000000000
  0
LINE
  5
F10430
330
F10431
100
AcDbEntity
8
Geo
100
AcDbLine
10
-57.5043173424312
20
14.3530513313090
30
0.00000000000000
11
-57.5013173424312
21
14.3513109400345
31
0.00000000000000
  0
LINE
  5
F10432
330
F10433
100
AcDbEntity
8
Geo
100
AcDbLine
10
-57.5013173424312
20
14.3513109400345
30
0.00000000000000
11
-57.4983173424312
21
14.3495725043745
31
0.00000000000000
  0
LINE
  5
F10434
330
F10435
100
AcDbEntity
8
Geo
100
AcDbLine
10
-57.4983173424312
20
14.3495725043745
30
0.00000000000000
11
-57.4953173424312
21
14.3478372758044
31
0.00000000000000
  0
LINE
  5
F10436
330
F10437
100
AcDbEntity
8
Geo
100
AcDbLine
10
-57.4953173424312
20
14.3478372758044
30
0.00000000000000
11
-57.4923173424311
21
14.3461074799498
31
0.00000000000000
  0
LINE
  5
F10438
330
F10439
100
AcDbEntity
8
Geo
100
AcDbLine
10
-57.4923173424311
20
14.3461074799498
30
0.00000000000000
11
-57.4893173424311
21
14.3443870520045
31
0.00000000000000
  0
LINE
  5
F1043A
330
F1043B
100
AcDbEntity
8
Geo
100
AcDbLine
10
-57.4893173424311
20
14.3443870520045
30
0.00000000000000
11
-57.4863173424311
21
14.3426828168682
31
0.00000000000000
  0
LINE
  5
F1043C
330
F1043D
100
AcDbEntity
8
Geo
100
AcDbLine
10
-57.4863173424311
20
14.3426828168682
30
0.00000000000000
11
-57.4833173424311
21
14.3410063277595
31
0.00000000000000
  0
LINE
  5
F1043E
330
F1043F
100
AcDbEntity
8
Geo
100
AcDbLine
10
-57.4833173424311
20
14.3410063277595
30
0.00000000000000
11
-57.4803173424311
21
14.3393766620310
31
0.00000000000000
  0
LINE
  5
F10440
330
F10441
100
AcDbEntity
8
Geo
100
AcDbLine
10
-57.4803173424311
20
14.3393766620310
30
0.00000000000000
11
-57.4773173424311
21
14.3378245951313
31
0.00000000000000
  0
LINE
  5
F10442
330
F10443
100
AcDbEntity
8
Geo
100
AcDbLine
10
-57.4773173424311
20
14.3378245951313
30
0.00000000000000
11
-57.4743173424312
21
14.3363987631147
31
0.00000000000000
  0
LINE
  5
F10444
330
F10445
100
AcDbEntity
8
Geo
100
AcDbLine
10
-57.4743173424312
20
14.3363987631147
30
0.00000000000000
11
-57.4713173424312
21
14.3351747447070
31
0.00000000000000
  0
LINE
  5
F10446
330
F10447
100
AcDbEntity
8
Geo
100
AcDbLine
10
-57.4713173424312
20
14.3351747447070
30
0.00000000000000
11
-57.4683173424312
21
14.3342685785644
31
0.00000000000000
  0
LINE
  5
F10448
330
F10449
100
AcDbEntity
8
Geo
100
AcDbLine
10
-57.4683173424312
20
14.3342685785644
30
0.00000000000000
11
-57.4653173424312
21
14.3338573452181
31
0.00000000000000
  0
LINE
  5
F1044A
330
F1044B
100
AcDbEntity
8
Geo
100
AcDbLine
10
-57.4653173424312
20
14.3338573452181
30
0.00000000000000
11
-57.4623173424312
21
14.3342115862146
31
0.00000000000000
  0
LINE
  5
F1044C
330
F1044D
100
AcDbEntity
8
Geo
100
AcDbLine
10
-57.4623173424312
20
14.3342115862146
30
0.00000000000000
11
-57.4593173424312
21
14.3357483724780
31
0.00000000000000
  0
LINE
  5
F1044E
330
F1044F
100
AcDbEntity
8
Geo
100
AcDbLine
10
-57.4593173424312
20
14.3357483724780
30
0.00000000000000
11
-57.4563173424312
21
14.3391210651536
31
0.00000000000000
  0
LINE
  5
F10450
330
F10451
100
AcDbEntity
8
Geo
100
AcDbLine
10
-57.4563173424312
20
14.3391210651536
30
0.00000000000000
11
-57.4533173424312
21
14.3453735037308
31
0.00000000000000
  0
LINE
  5
F10452
330
F10453
100
AcDbEntity
8
Geo
100
AcDbLine
10
-57.4533173424312
20
14.3453735037308
30
0.00000000000000
11
-57.4503173424312
21
14.3562012012963
31
0.00000000000000
  0
LINE
  5
F10454
330
F10455
100
AcDbEntity
8
Geo
100
AcDbLine
10
-57.4503173424312
20
14.3562012012963
30
0.00000000000000
11
-57.4473173424312
21
14.3743664644309
31
0.00000000000000
  0
LINE
  5
F10456
330
F10457
100
AcDbEntity
8
Geo
100
AcDbLine
10
-57.4473173424312
20
14.3743664644309
30
0.00000000000000
11
-57.4443173424312
21
14.4042499002900
31
0.00000000000000
  0
LINE
  5
F10458
330
F10459
100
AcDbEntity
8
Geo
100
AcDbLine
10
-57.4443173424312
20
14.4042499002900
30
0.00000000000000
11
-57.4413173424312
21
14.4521916048926
31
0.00000000000000
  0
LINE
  5
F1045A
330
F1045B
100
AcDbEntity
8
Geo
100
AcDbLine
10
-57.4413173424312
20
14.4521916048926
30
0.00000000000000
11
-57.4383173424312
21
14.5251397640536
31
0.00000000000000
  0
LINE
  5
F1045C
330
F1045D
100
AcDbEntity
8
Geo
100
AcDbLine
10
-57.4383173424312
20
14.5251397640536
30
0.00000000000000
11
-57.4383173424312
21
14.5489750144693
31
0.00000000000000
  0
LINE
  5
F1045E
330
F1045F
100
AcDbEntity
8
Geo
100
AcDbLine
10
-57.4383173424312
20
14.5489750144693
30
0.00000000000000
11
-57.4413173424312
21
14.6090110010432
31
0.00000000000000
  0
LINE
  5
F10460
330
F10461
100
AcDbEntity
8
Geo
100
AcDbLine
10
-57.4413173424312
20
14.6090110010432
30
0.00000000000000
11
-57.4443173424312
21
14.6539933419855
31
0.00000000000000
  0
LINE
  5
F10462
330
F10463
100
AcDbEntity
8
Geo
100
AcDbLine
10
-57.4443173424312
20
14.6539933419855
30
0.00000000000000
11
-57.4473173424312
21
14.6854562739311
31
0.00000000000000
  0
LINE
  5
F10464
330
F10465
100
AcDbEntity
8
Geo
100
AcDbLine
10
-57.4473173424312
20
14.6854562739311
30
0.00000000000000
11
-57.4503173424312
21
14.7060117190875
31
0.00000000000000
  0
LINE
  5
F10466
330
F10467
100
AcDbEntity
8
Geo
100
AcDbLine
10
-57.4503173424312
20
14.7060117190875
30
0.00000000000000
11
-57.4533173424312
21
14.7183785462919
31
0.00000000000000
  0
LINE
  5
F10468
330
F10469
100
AcDbEntity
8
Geo
100
AcDbLine
10
-57.4533173424312
20
14.7183785462919
30
0.00000000000000
11
-57.4563173424312
21
14.7249327354479
31
0.00000000000000
  0
LINE
  5
F1046A
330
F1046B
100
AcDbEntity
8
Geo
100
AcDbLine
10
-57.4563173424312
20
14.7249327354479
30
0.00000000000000
11
-57.4593173424312
21
14.7275624774034
31
0.00000000000000
  0
LINE
  5
F1046C
330
F1046D
100
AcDbEntity
8
Geo
100
AcDbLine
10
-57.4593173424312
20
14.7275624774034
30
0.00000000000000
11
-57.4623173424312
21
14.7276771341069
31
0.00000000000000
  0
LINE
  5
F1046E
330
F1046F
100
AcDbEntity
8
Geo
100
AcDbLine
10
-57.4623173424312
20
14.7276771341069
30
0.00000000000000
11
-57.4623723920993
21
14.7276625900537
31
0.00000000000000
  0
LINE
  5
F10470
330
F10471
100
AcDbEntity
8
Geo
100
AcDbLine
10
-57.4623723920993
20
14.2871291633370
30
0.00000000000000
11
-57.4653173424312
21
14.2885120871431
31
0.00000000000000
  0
LINE
  5
F10472
330
F10473
100
AcDbEntity
8
Geo
100
AcDbLine
10
-57.4653173424312
20
14.2885120871431
30
0.00000000000000
11
-57.4683173424312
21
14.2907369980707
31
0.00000000000000
  0
LINE
  5
F10474
330
F10475
100
AcDbEntity
8
Geo
100
AcDbLine
10
-57.4683173424312
20
14.2907369980707
30
0.00000000000000
11
-57.4713173424312
21
14.2933410956101
31
0.00000000000000
  0
LINE
  5
F10476
330
F10477
100
AcDbEntity
8
Geo
100
AcDbLine
10
-57.4713173424312
20
14.2933410956101
30
0.00000000000000
11
-57.4743173424312
21
14.2960449092531
31
0.00000000000000
  0
LINE
  5
F10478
330
F10479
100
AcDbEntity
8
Geo
100
AcDbLine
10
-57.4743173424312
20
14.2960449092531
30
0.00000000000000
11
-57.4773173424311
21
14.2986854480035
31
0.00000000000000
  0
LINE
  5
F1047A
330
F1047B
100
AcDbEntity
8
Geo
100
AcDbLine
10
-57.4773173424311
20
14.2986854480035
30
0.00000000000000
11
-57.4803173424311
21
14.3011774793344
31
0.00000000000000
  0
LINE
  5
F1047C
330
F1047D
100
AcDbEntity
8
Geo
100
AcDbLine
10
-57.4803173424311
20
14.3011774793344
30
0.00000000000000
11
-57.4833173424311
21
14.3034857804360
31
0.00000000000000
  0
LINE
  5
F1047E
330
F1047F
100
AcDbEntity
8
Geo
100
AcDbLine
10
-57.4833173424311
20
14.3034857804360
30
0.00000000000000
11
-57.4863173424311
21
14.3056057871985
31
0.00000000000000
  0
LINE
  5
F10480
330
F10481
100
AcDbEntity
8
Geo
100
AcDbLine
10
-57.4863173424311
20
14.3056057871985
30
0.00000000000000
11
-57.4893173424311
21
14.3075504459879
31
0.00000000000000
  0
LINE
  5
F10482
330
F10483
100
AcDbEntity
8
Geo
100
AcDbLine
10
-57.4893173424311
20
14.3075504459879
30
0.00000000000000
11
-57.4923173424311
21
14.3093415279195
31
0.00000000000000
  0
LINE
  5
F10484
330
F10485
100
AcDbEntity
8
Geo
100
AcDbLine
10
-57.4923173424311
20
14.3093415279195
30
0.00000000000000
11
-57.4953173424312
21
14.3110040839030
31
0.00000000000000
  0
LINE
  5
F10486
330
F10487
100
AcDbEntity
8
Geo
100
AcDbLine
10
-57.4953173424312
20
14.3110040839030
30
0.00000000000000
11
-57.4983173424312
21
14.3125630651089
31
0.00000000000000
  0
LINE
  5
F10488
330
F10489
100
AcDbEntity
8
Geo
100
AcDbLine
10
-57.4983173424312
20
14.3125630651089
30
0.00000000000000
11
-57.5013173424312
21
14.3140414046243
31
0.00000000000000
  0
LINE
  5
F1048A
330
F1048B
100
AcDbEntity
8
Geo
100
AcDbLine
10
-57.5013173424312
20
14.3140414046243
30
0.00000000000000
11
-57.5043173424312
21
14.3154590612990
31
0.00000000000000
  0
LINE
  5
F1048C
330
F1048D
100
AcDbEntity
8
Geo
100
AcDbLine
10
-57.5043173424312
20
14.3154590612990
30
0.00000000000000
11
-57.5073173424312
21
14.3168326785933
31
0.00000000000000
  0
LINE
  5
F1048E
330
F1048F
100
AcDbEntity
8
Geo
100
AcDbLine
10
-57.5073173424312
20
14.3168326785933
30
0.00000000000000
11
-57.5103173424312
21
14.3181756214130
31
0.00000000000000
  0
LINE
  5
F10490
330
F10491
100
AcDbEntity
8
Geo
100
AcDbLine
10
-57.5103173424312
20
14.3181756214130
30
0.00000000000000
11
-57.5133173424312
21
14.3194982323910
31
0.00000000000000
  0
LINE
  5
F10492
330
F10493
100
AcDbEntity
8
Geo
100
AcDbLine
10
-57.5133173424312
20
14.3194982323910
30
0.00000000000000
11
-57.5163173424312
21
14.3208082038057
31
0.00000000000000
  0
LINE
  5
F10494
330
F10495
100
AcDbEntity
8
Geo
100
AcDbLine
10
-57.5163173424312
20
14.3208082038057
30
0.00000000000000
11
-57.5193173424312
21
14.3221109985623
31
0.00000000000000
  0
LINE
  5
F10496
330
F10497
100
AcDbEntity
8
Geo
100
AcDbLine
10
-57.5193173424312
20
14.3221109985623
30
0.00000000000000
11
-57.5223173424312
21
14.3234102782286
31
0.00000000000000
  0
LINE
  5
F10498
330
F10499
100
AcDbEntity
8
Geo
100
AcDbLine
10
-57.5223173424312
20
14.3234102782286
30
0.00000000000000
11
-57.5253173424312
21
14.3247083117506
31
0.00000000000000
  0
LINE
  5
F1049A
330
F1049B
100
AcDbEntity
8
Geo
100
AcDbLine
10
-57.5253173424312
20
14.3247083117506
30
0.00000000000000
11
-57.5283173424312
21
14.3260063479829
31
0.00000000000000
  0
LINE
  5
F1049C
330
F1049D
100
AcDbEntity
8
Geo
100
AcDbLine
10
-57.5283173424312
20
14.3260063479829
30
0.00000000000000
11
-57.5313173424312
21
14.3273049406766
31
0.00000000000000
  0
LINE
  5
F1049E
330
F1049F
100
AcDbEntity
8
Geo
100
AcDbLine
10
-57.5313173424312
20
14.3273049406766
30
0.00000000000000
11
-57.5343173424312
21
14.3286042175926
31
0.00000000000000
  0
LINE
  5
F104A0
330
F104A1
100
AcDbEntity
8
Geo
100
AcDbLine
10
-57.5343173424312
20
14.3286042175926
30
0.00000000000000
11
-57.5373173424312
21
14.3299040870109
31
0.00000000000000
  0
LINE
  5
F104A2
330
F104A3
100
AcDbEntity
8
Geo
100
AcDbLine
10
-57.5373173424312
20
14.3299040870109
30
0.00000000000000
11
-57.5403173424312
21
14.3308258016520
31
0.00000000000000
  0
LINE
  5
F104A4
330
F104A5
100
AcDbEntity
8
Geo
100
AcDbLine
10
-58.3113173424312
20
14.6057999172562
30
0.00000000000000
11
-58.3083173424312
21
14.6087601106198
31
0.00000000000000
  0
LINE
  5
F104A6
330
F104A7
100
AcDbEntity
8
Geo
100
AcDbLine
10
-58.3083173424312
20
14.6087601106198
30
0.00000000000000
11
-58.3053173424312
21
14.6119837670845
31
0.00000000000000
  0
LINE
  5
F104A8
330
F104A9
100
AcDbEntity
8
Geo
100
AcDbLine
10
-58.3053173424312
20
14.6119837670845
30
0.00000000000000
11
-58.3023173424312
21
14.6152022636383
31
0.00000000000000
  0
LINE
  5
F104AA
330
F104AB
100
AcDbEntity
8
Geo
100
AcDbLine
10
-58.3023173424312
20
14.6152022636383
30
0.00000000000000
11
-58.2993173424312
21
14.6183731493033
31
0.00000000000000
  0
LINE
  5
F104AC
330
F104AD
100
AcDbEntity
8
Geo
100
AcDbLine
10
-58.2993173424312
20
14.6183731493033
30
0.00000000000000
11
-58.2963173424312
21
14.6214782728638
31
0.00000000000000
  0
LINE
  5
F104AE
330
F104AF
100
AcDbEntity
8
Geo
100
AcDbLine
10
-58.2963173424312
20
14.6214782728638
30
0.00000000000000
11
-58.2933173424312
21
14.6245129509901
31
0.00000000000000
  0
LINE
  5
F104B0
330
F104B1
100
AcDbEntity
8
Geo
100
AcDbLine
10
-58.2933173424312
20
14.6245129509901
30
0.00000000000000
11
-58.2903173424312
21
14.6274733898064
31
0.00000000000000
  0
LINE
  5
F104B2
330
F104B3
100
AcDbEntity
8
Geo
100
AcDbLine
10
-58.2903173424312
20
14.6274733898064
30
0.00000000000000
11
-58.2873173424312
21
14.6303637864966
31
0.00000000000000
  0
LINE
  5
F104B4
330
F104B5
100
AcDbEntity
8
Geo
100
AcDbLine
10
-58.2873173424312
20
14.6303637864966
30
0.00000000000000
11
-58.2843173424312
21
14.6331796644501
31
0.00000000000000
  0
LINE
  5
F104B6
330
F104B7
100
AcDbEntity
8
Geo
100
AcDbLine
10
-58.2843173424312
20
14.6331796644501
30
0.00000000000000
11
-58.2813173424312
21
14.6359287503346
31
0.00000000000000
  0
LINE
  5
F104B8
330
F104B9
100
AcDbEntity
8
Geo
100
AcDbLine
10
-58.2813173424312
20
14.6359287503346
30
0.00000000000000
11
-58.2783173424312
21
14.6386059705737
31
0.00000000000000
  0
LINE
  5
F104BA
330
F104BB
100
AcDbEntity
8
Geo
100
AcDbLine
10
-58.2783173424312
20
14.6386059705737
30
0.00000000000000
11
-58.2753173424312
21
14.6411647209388
31
0.00000000000000
  0
LINE
  5
F104BC
330
F104BD
100
AcDbEntity
8
Geo
100
AcDbLine
10
-58.2753173424312
20
14.6411647209388
30
0.00000000000000
11
-58.2723173424312
21
14.6435847170457
31
0.00000000000000
  0
LINE
  5
F104BE
330
F104BF
100
AcDbEntity
8
Geo
100
AcDbLine
10
-58.2723173424312
20
14.6435847170457
30
0.00000000000000
11
-58.2693173424312
21
14.6458729968980
31
0.00000000000000
  0
LINE
  5
F104C0
330
F104C1
100
AcDbEntity
8
Geo
100
AcDbLine
10
-58.2693173424312
20
14.6458729968980
30
0.00000000000000
11
-58.2663173424312
21
14.6480357874066
31
0.00000000000000
  0
LINE
  5
F104C2
330
F104C3
100
AcDbEntity
8
Geo
100
AcDbLine
10
-58.2663173424312
20
14.6480357874066
30
0.00000000000000
11
-58.2633173424312
21
14.6500786294096
31
0.00000000000000
  0
LINE
  5
F104C4
330
F104C5
100
AcDbEntity
8
Geo
100
AcDbLine
10
-58.2633173424312
20
14.6500786294096
30
0.00000000000000
11
-58.2603173424312
21
14.6520064792771
31
0.00000000000000
  0
LINE
  5
F104C6
330
F104C7
100
AcDbEntity
8
Geo
100
AcDbLine
10
-58.2603173424312
20
14.6520064792771
30
0.00000000000000
11
-58.2573173424312
21
14.6538237922349
31
0.00000000000000
  0
LINE
  5
F104C8
330
F104C9
100
AcDbEntity
8
Geo
100
AcDbLine
10
-58.2573173424312
20
14.6538237922349
30
0.00000000000000
11
-58.2543173424312
21
14.6555345912649
31
0.00000000000000
  0
LINE
  5
F104CA
330
F104CB
100
AcDbEntity
8
Geo
100
AcDbLine
10
-58.2543173424312
20
14.6555345912649
30
0.00000000000000
11
-58.2513173424312
21
14.6571425245132
31
0.00000000000000
  0
LINE
  5
F104CC
330
F104CD
100
AcDbEntity
8
Geo
100
AcDbLine
10
-58.2513173424312
20
14.6571425245132
30
0.00000000000000
11
-58.2483173424312
21
14.6586509134592
31
0.00000000000000
  0
LINE
  5
F104CE
330
F104CF
100
AcDbEntity
8
Geo
100
AcDbLine
10
-58.2483173424312
20
14.6586509134592
30
0.00000000000000
11
-58.2453173424312
21
14.6600627935954
31
0.00000000000000
  0
LINE
  5
F104D0
330
F104D1
100
AcDbEntity
8
Geo
100
AcDbLine
10
-58.2453173424312
20
14.6600627935954
30
0.00000000000000
11
-58.2423173424312
21
14.6613809489890
31
0.00000000000000
  0
LINE
  5
F104D2
330
F104D3
100
AcDbEntity
8
Geo
100
AcDbLine
10
-58.2423173424312
20
14.6613809489890
30
0.00000000000000
11
-58.2393173424312
21
14.6626079418098
31
0.00000000000000
  0
LINE
  5
F104D4
330
F104D5
100
AcDbEntity
8
Geo
100
AcDbLine
10
-58.2393173424312
20
14.6626079418098
30
0.00000000000000
11
-58.2363173424312
21
14.6637461376890
31
0.00000000000000
  0
LINE
  5
F104D6
330
F104D7
100
AcDbEntity
8
Geo
100
AcDbLine
10
-58.2363173424312
20
14.6637461376890
30
0.00000000000000
11
-58.2333173424312
21
14.6647977276032
31
0.00000000000000
  0
LINE
  5
F104D8
330
F104D9
100
AcDbEntity
8
Geo
100
AcDbLine
10
-58.2333173424312
20
14.6647977276032
30
0.00000000000000
11
-58.2303173424312
21
14.6657647468453
31
0.00000000000000
  0
LINE
  5
F104DA
330
F104DB
100
AcDbEntity
8
Geo
100
AcDbLine
10
-58.2303173424312
20
14.6657647468453
30
0.00000000000000
11
-58.2273173424312
21
14.6666490915400
31
0.00000000000000
  0
LINE
  5
F104DC
330
F104DD
100
AcDbEntity
8
Geo
100
AcDbLine
10
-58.2273173424312
20
14.6666490915400
30
0.00000000000000
11
-58.2243173424312
21
14.6674525330794
31
0.00000000000000
  0
LINE
  5
F104DE
330
F104DF
100
AcDbEntity
8
Geo
100
AcDbLine
10
-58.2243173424312
20
14.6674525330794
30
0.00000000000000
11
-58.2213173424312
21
14.6681767307862
31
0.00000000000000
  0
LINE
  5
F104E0
330
F104E1
100
AcDbEntity
8
Geo
100
AcDbLine
10
-58.2213173424312
20
14.6681767307862
30
0.00000000000000
11
-58.2183173424312
21
14.6688232430626
31
0.00000000000000
  0
LINE
  5
F104E2
330
F104E3
100
AcDbEntity
8
Geo
100
AcDbLine
10
-58.2183173424312
20
14.6688232430626
30
0.00000000000000
11
-58.2153173424312
21
14.6693935372375
31
0.00000000000000
  0
LINE
  5
F104E4
330
F104E5
100
AcDbEntity
8
Geo
100
AcDbLine
10
-58.2153173424312
20
14.6693935372375
30
0.00000000000000
11
-58.2123173424312
21
14.6698889982903
31
0.00000000000000
  0
LINE
  5
F104E6
330
F104E7
100
AcDbEntity
8
Geo
100
AcDbLine
10
-58.2123173424312
20
14.6698889982903
30
0.00000000000000
11
-58.2093173424312
21
14.6703109366026
31
0.00000000000000
  0
LINE
  5
F104E8
330
F104E9
100
AcDbEntity
8
Geo
100
AcDbLine
10
-58.2093173424312
20
14.6703109366026
30
0.00000000000000
11
-58.2063173424312
21
14.6706605948646
31
0.00000000000000
  0
LINE
  5
F104EA
330
F104EB
100
AcDbEntity
8
Geo
100
AcDbLine
10
-58.2063173424312
20
14.6706605948646
30
0.00000000000000
11
-58.2033173424312
21
14.6709391542432
31
0.00000000000000
  0
LINE
  5
F104EC
330
F104ED
100
AcDbEntity
8
Geo
100
AcDbLine
10
-58.2033173424312
20
14.6709391542432
30
0.00000000000000
11
-58.2003173424312
21
14.6711477399050
31
0.00000000000000
  0
LINE
  5
F104EE
330
F104EF
100
AcDbEntity
8
Geo
100
AcDbLine
10
-58.2003173424312
20
14.6711477399050
30
0.00000000000000
11
-58.1973173424312
21
14.6712874259719
31
0.00000000000000
  0
LINE
  5
F104F0
330
F104F1
100
AcDbEntity
8
Geo
100
AcDbLine
10
-58.1973173424312
20
14.6712874259719
30
0.00000000000000
11
-58.1943173424312
21
14.6713592399759
31
0.00000000000000
  0
LINE
  5
F104F2
330
F104F3
100
AcDbEntity
8
Geo
100
AcDbLine
10
-58.1943173424312
20
14.6713592399759
30
0.00000000000000
11
-58.1913173424312
21
14.6713641668730
31
0.00000000000000
  0
LINE
  5
F104F4
330
F104F5
100
AcDbEntity
8
Geo
100
AcDbLine
10
-58.1913173424312
20
14.6713641668730
30
0.00000000000000
11
-58.1883173424312
21
14.6713031526645
31
0.00000000000000
  0
LINE
  5
F104F6
330
F104F7
100
AcDbEntity
8
Geo
100
AcDbLine
10
-58.1883173424312
20
14.6713031526645
30
0.00000000000000
11
-58.1853173424312
21
14.6711771076702
31
0.00000000000000
  0
LINE
  5
F104F8
330
F104F9
100
AcDbEntity
8
Geo
100
AcDbLine
10
-58.1853173424312
20
14.6711771076702
30
0.00000000000000
11
-58.1823173424312
21
14.6709869094897
31
0.00000000000000
  0
LINE
  5
F104FA
330
F104FB
100
AcDbEntity
8
Geo
100
AcDbLine
10
-58.1823173424312
20
14.6709869094897
30
0.00000000000000
11
-58.1793173424312
21
14.6707334056869
31
0.00000000000000
  0
LINE
  5
F104FC
330
F104FD
100
AcDbEntity
8
Geo
100
AcDbLine
10
-58.1793173424312
20
14.6707334056869
30
0.00000000000000
11
-58.1763173424312
21
14.6704174162235
31
0.00000000000000
  0
LINE
  5
F104FE
330
F104FF
100
AcDbEntity
8
Geo
100
AcDbLine
10
-58.1763173424312
20
14.6704174162235
30
0.00000000000000
11
-58.1733173424312
21
14.6700397356692
31
0.00000000000000
  0
LINE
  5
F10500
330
F10501
100
AcDbEntity
8
Geo
100
AcDbLine
10
-58.1733173424312
20
14.6700397356692
30
0.00000000000000
11
-58.1703173424312
21
14.6696011352078
31
0.00000000000000
  0
LINE
  5
F10502
330
F10503
100
AcDbEntity
8
Geo
100
AcDbLine
10
-58.1703173424312
20
14.6696011352078
30
0.00000000000000
11
-58.1673173424312
21
14.6691023644613
31
0.00000000000000
  0
LINE
  5
F10504
330
F10505
100
AcDbEntity
8
Geo
100
AcDbLine
10
-58.1673173424312
20
14.6691023644613
30
0.00000000000000
11
-58.1643173424312
21
14.6685441531458
31
0.00000000000000
  0
LINE
  5
F10506
330
F10507
100
AcDbEntity
8
Geo
100
AcDbLine
10
-58.1643173424312
20
14.6685441531458
30
0.00000000000000
11
-58.1613173424312
21
14.6679272125769
31
0.00000000000000
  0
LINE
  5
F10508
330
F10509
100
AcDbEntity
8
Geo
100
AcDbLine
10
-58.1613173424312
20
14.6679272125769
30
0.00000000000000
11
-58.1583173424312
21
14.6672522370354
31
0.00000000000000
  0
LINE
  5
F1050A
330
F1050B
100
AcDbEntity
8
Geo
100
AcDbLine
10
-58.1583173424312
20
14.6672522370354
30
0.00000000000000
11
-58.1553173424312
21
14.6665199050062
31
0.00000000000000
  0
LINE
  5
F1050C
330
F1050D
100
AcDbEntity
8
Geo
100
AcDbLine
10
-58.1553173424312
20
14.6665199050062
30
0.00000000000000
11
-58.1523173424312
21
14.6657308802997
31
0.00000000000000
  0
LINE
  5
F1050E
330
F1050F
100
AcDbEntity
8
Geo
100
AcDbLine
10
-58.1523173424312
20
14.6657308802997
30
0.00000000000000
11
-58.1493173424312
21
14.6648858130645
31
0.00000000000000
  0
LINE
  5
F10510
330
F10511
100
AcDbEntity
8
Geo
100
AcDbLine
10
-58.1493173424312
20
14.6648858130645
30
0.00000000000000
11
-58.1463173424312
21
14.6639853407002
31
0.00000000000000
  0
LINE
  5
F10512
330
F10513
100
AcDbEntity
8
Geo
100
AcDbLine
10
-58.1463173424312
20
14.6639853407002
30
0.00000000000000
11
-58.1433173424312
21
14.6630300886755
31
0.00000000000000
  0
LINE
  5
F10514
330
F10515
100
AcDbEntity
8
Geo
100
AcDbLine
10
-58.1433173424312
20
14.6630300886755
30
0.00000000000000
11
-58.1403173424312
21
14.6620206712585
31
0.00000000000000
  0
LINE
  5
F10516
330
F10517
100
AcDbEntity
8
Geo
100
AcDbLine
10
-58.1403173424312
20
14.6620206712585
30
0.00000000000000
11
-58.1373173424312
21
14.6609600012231
31
0.00000000000000
  0
LINE
  5
F10518
330
F10519
100
AcDbEntity
8
Geo
100
AcDbLine
10
-58.1373173424312
20
14.6609600012231
30
0.00000000000000
11
-58.1343173424312
21
14.6598785397463
31
0.00000000000000
  0
LINE
  5
F1051A
330
F1051B
100
AcDbEntity
8
Geo
100
AcDbLine
10
-58.1343173424312
20
14.6598785397463
30
0.00000000000000
11
-58.1313173424312
21
14.6587856421413
31
0.00000000000000
  0
LINE
  5
F1051C
330
F1051D
100
AcDbEntity
8
Geo
100
AcDbLine
10
-58.1313173424312
20
14.6587856421413
30
0.00000000000000
11
-58.1283173424312
21
14.6576813903748
31
0.00000000000000
  0
LINE
  5
F1051E
330
F1051F
100
AcDbEntity
8
Geo
100
AcDbLine
10
-58.1283173424312
20
14.6576813903748
30
0.00000000000000
11
-58.1253173424312
21
14.6565658672653
31
0.00000000000000
  0
LINE
  5
F10520
330
F10521
100
AcDbEntity
8
Geo
100
AcDbLine
10
-58.1253173424312
20
14.6565658672653
30
0.00000000000000
11
-58.1223173424312
21
14.6554391564764
31
0.00000000000000
  0
LINE
  5
F10522
330
F10523
100
AcDbEntity
8
Geo
100
AcDbLine
10
-58.1223173424312
20
14.6554391564764
30
0.00000000000000
11
-58.1193173424312
21
14.6543013425109
31
0.00000000000000
  0
LINE
  5
F10524
330
F10525
100
AcDbEntity
8
Geo
100
AcDbLine
10
-58.1193173424312
20
14.6543013425109
30
0.00000000000000
11
-58.1163173424312
21
14.6531525107043
31
0.00000000000000
  0
LINE
  5
F10526
330
F10527
100
AcDbEntity
8
Geo
100
AcDbLine
10
-58.1163173424312
20
14.6531525107043
30
0.00000000000000
11
-58.1133173424312
21
14.6519927472185
31
0.00000000000000
  0
LINE
  5
F10528
330
F10529
100
AcDbEntity
8
Geo
100
AcDbLine
10
-58.1133173424312
20
14.6519927472185
30
0.00000000000000
11
-58.1103173424312
21
14.6508221390352
31
0.00000000000000
  0
LINE
  5
F1052A
330
F1052B
100
AcDbEntity
8
Geo
100
AcDbLine
10
-58.1103173424312
20
14.6508221390352
30
0.00000000000000
11
-58.1073173424312
21
14.6496407739494
31
0.00000000000000
  0
LINE
  5
F1052C
330
F1052D
100
AcDbEntity
8
Geo
100
AcDbLine
10
-58.1073173424312
20
14.6496407739494
30
0.00000000000000
11
-58.1043173424312
21
14.6484487405630
31
0.00000000000000
  0
LINE
  5
F1052E
330
F1052F
100
AcDbEntity
8
Geo
100
AcDbLine
10
-58.1043173424312
20
14.6484487405630
30
0.00000000000000
11
-58.1013173424312
21
14.6472461282780
31
0.00000000000000
  0
LINE
  5
F10530
330
F10531
100
AcDbEntity
8
Geo
100
AcDbLine
10
-58.1013173424312
20
14.6472461282780
30
0.00000000000000
11
-58.0983173424312
21
14.6460330272896
31
0.00000000000000
  0
LINE
  5
F10532
330
F10533
100
AcDbEntity
8
Geo
100
AcDbLine
10
-58.0983173424312
20
14.6460330272896
30
0.00000000000000
11
-58.0953173424312
21
14.6448095285800
31
0.00000000000000
  0
LINE
  5
F10534
330
F10535
100
AcDbEntity
8
Geo
100
AcDbLine
10
-58.0953173424312
20
14.6448095285800
30
0.00000000000000
11
-58.0923173424312
21
14.6435757239108
31
0.00000000000000
  0
LINE
  5
F10536
330
F10537
100
AcDbEntity
8
Geo
100
AcDbLine
10
-58.0923173424312
20
14.6435757239108
30
0.00000000000000
11
-58.0893173424312
21
14.6423317058169
31
0.00000000000000
  0
LINE
  5
F10538
330
F10539
100
AcDbEntity
8
Geo
100
AcDbLine
10
-58.0893173424312
20
14.6423317058169
30
0.00000000000000
11
-58.0863173424312
21
14.6410775675992
31
0.00000000000000
  0
LINE
  5
F1053A
330
F1053B
100
AcDbEntity
8
Geo
100
AcDbLine
10
-58.0863173424312
20
14.6410775675992
30
0.00000000000000
11
-58.0833173424312
21
14.6398134033172
31
0.00000000000000
  0
LINE
  5
F1053C
330
F1053D
100
AcDbEntity
8
Geo
100
AcDbLine
10
-58.0833173424312
20
14.6398134033172
30
0.00000000000000
11
-58.0803173424312
21
14.6385393077828
31
0.00000000000000
  0
LINE
  5
F1053E
330
F1053F
100
AcDbEntity
8
Geo
100
AcDbLine
10
-58.0803173424312
20
14.6385393077828
30
0.00000000000000
11
-58.0773173424312
21
14.6372553765526
31
0.00000000000000
  0
LINE
  5
F10540
330
F10541
100
AcDbEntity
8
Geo
100
AcDbLine
10
-58.0773173424312
20
14.6372553765526
30
0.00000000000000
11
-58.0743173424312
21
14.6359617059208
31
0.00000000000000
  0
LINE
  5
F10542
330
F10543
100
AcDbEntity
8
Geo
100
AcDbLine
10
-58.0743173424312
20
14.6359617059208
30
0.00000000000000
11
-58.0713173424312
21
14.6346583929120
31
0.00000000000000
  0
LINE
  5
F10544
330
F10545
100
AcDbEntity
8
Geo
100
AcDbLine
10
-58.0713173424312
20
14.6346583929120
30
0.00000000000000
11
-58.0683173424312
21
14.6333455352742
31
0.00000000000000
  0
LINE
  5
F10546
330
F10547
100
AcDbEntity
8
Geo
100
AcDbLine
10
-58.0683173424312
20
14.6333455352742
30
0.00000000000000
11
-58.0653173424312
21
14.6320232314710
31
0.00000000000000
  0
LINE
  5
F10548
330
F10549
100
AcDbEntity
8
Geo
100
AcDbLine
10
-58.0653173424312
20
14.6320232314710
30
0.00000000000000
11
-58.0623173424312
21
14.6306915806746
31
0.00000000000000
  0
LINE
  5
F1054A
330
F1054B
100
AcDbEntity
8
Geo
100
AcDbLine
10
-58.0623173424312
20
14.6306915806746
30
0.00000000000000
11
-58.0593173424312
21
14.6293506827582
31
0.00000000000000
  0
LINE
  5
F1054C
330
F1054D
100
AcDbEntity
8
Geo
100
AcDbLine
10
-58.0593173424312
20
14.6293506827582
30
0.00000000000000
11
-58.0563173424312
21
14.6280006382885
31
0.00000000000000
  0
LINE
  5
F1054E
330
F1054F
100
AcDbEntity
8
Geo
100
AcDbLine
10
-58.0563173424312
20
14.6280006382885
30
0.00000000000000
11
-58.0533173424311
21
14.6266415485183
31
0.00000000000000
  0
LINE
  5
F10550
330
F10551
100
AcDbEntity
8
Geo
100
AcDbLine
10
-58.0533173424311
20
14.6266415485183
30
0.00000000000000
11
-58.0503173424312
21
14.6252735153785
31
0.00000000000000
  0
LINE
  5
F10552
330
F10553
100
AcDbEntity
8
Geo
100
AcDbLine
10
-58.0503173424312
20
14.6252735153785
30
0.00000000000000
11
-58.0473173424312
21
14.6238966414711
31
0.00000000000000
  0
LINE
  5
F10554
330
F10555
100
AcDbEntity
8
Geo
100
AcDbLine
10
-58.0473173424312
20
14.6238966414711
30
0.00000000000000
11
-58.0443173424312
21
14.6225110300610
31
0.00000000000000
  0
LINE
  5
F10556
330
F10557
100
AcDbEntity
8
Geo
100
AcDbLine
10
-58.0443173424312
20
14.6225110300610
30
0.00000000000000
11
-58.0413173424312
21
14.6211167850683
31
0.00000000000000
  0
LINE
  5
F10558
330
F10559
100
AcDbEntity
8
Geo
100
AcDbLine
10
-58.0413173424312
20
14.6211167850683
30
0.00000000000000
11
-58.0383173424312
21
14.6197140110608
31
0.00000000000000
  0
LINE
  5
F1055A
330
F1055B
100
AcDbEntity
8
Geo
100
AcDbLine
10
-58.0383173424312
20
14.6197140110608
30
0.00000000000000
11
-58.0353173424312
21
14.6183028132459
31
0.00000000000000
  0
LINE
  5
F1055C
330
F1055D
100
AcDbEntity
8
Geo
100
AcDbLine
10
-58.0353173424312
20
14.6183028132459
30
0.00000000000000
11
-58.0323173424312
21
14.6168832974627
31
0.00000000000000
  0
LINE
  5
F1055E
330
F1055F
100
AcDbEntity
8
Geo
100
AcDbLine
10
-58.0323173424312
20
14.6168832974627
30
0.00000000000000
11
-58.0293173424312
21
14.6154555701743
31
0.00000000000000
  0
LINE
  5
F10560
330
F10561
100
AcDbEntity
8
Geo
100
AcDbLine
10
-58.0293173424312
20
14.6154555701743
30
0.00000000000000
11
-58.0263173424312
21
14.6140197384595
31
0.00000000000000
  0
LINE
  5
F10562
330
F10563
100
AcDbEntity
8
Geo
100
AcDbLine
10
-58.0263173424312
20
14.6140197384595
30
0.00000000000000
11
-58.0233173424312
21
14.6125759100050
31
0.00000000000000
  0
LINE
  5
F10564
330
F10565
100
AcDbEntity
8
Geo
100
AcDbLine
10
-58.0233173424312
20
14.6125759100050
30
0.00000000000000
11
-58.0203173424312
21
14.6111241930974
31
0.00000000000000
  0
LINE
  5
F10566
330
F10567
100
AcDbEntity
8
Geo
100
AcDbLine
10
-58.0203173424312
20
14.6111241930974
30
0.00000000000000
11
-58.0173173424312
21
14.6096646966147
31
0.00000000000000
  0
LINE
  5
F10568
330
F10569
100
AcDbEntity
8
Geo
100
AcDbLine
10
-58.0173173424312
20
14.6096646966147
30
0.00000000000000
11
-58.0143173424312
21
14.6081975300184
31
0.00000000000000
  0
LINE
  5
F1056A
330
F1056B
100
AcDbEntity
8
Geo
100
AcDbLine
10
-58.0143173424312
20
14.6081975300184
30
0.00000000000000
11
-58.0113173424312
21
14.6067228033453
31
0.00000000000000
  0
LINE
  5
F1056C
330
F1056D
100
AcDbEntity
8
Geo
100
AcDbLine
10
-58.0113173424312
20
14.6067228033453
30
0.00000000000000
11
-58.0083173424312
21
14.6052406271994
31
0.00000000000000
  0
LINE
  5
F1056E
330
F1056F
100
AcDbEntity
8
Geo
100
AcDbLine
10
-58.0083173424312
20
14.6052406271994
30
0.00000000000000
11
-58.0053173424312
21
14.6037511127430
31
0.00000000000000
  0
LINE
  5
F10570
330
F10571
100
AcDbEntity
8
Geo
100
AcDbLine
10
-58.0053173424312
20
14.6037511127430
30
0.00000000000000
11
-58.0023173424312
21
14.6022543716890
31
0.00000000000000
  0
LINE
  5
F10572
330
F10573
100
AcDbEntity
8
Geo
100
AcDbLine
10
-58.0023173424312
20
14.6022543716890
30
0.00000000000000
11
-57.9993173424312
21
14.6007505162924
31
0.00000000000000
  0
LINE
  5
F10574
330
F10575
100
AcDbEntity
8
Geo
100
AcDbLine
10
-57.9993173424312
20
14.6007505162924
30
0.00000000000000
11
-57.9963173424312
21
14.5992396593416
31
0.00000000000000
  0
LINE
  5
F10576
330
F10577
100
AcDbEntity
8
Geo
100
AcDbLine
10
-57.9963173424312
20
14.5992396593416
30
0.00000000000000
11
-57.9933173424312
21
14.5977219141501
31
0.00000000000000
  0
LINE
  5
F10578
330
F10579
100
AcDbEntity
8
Geo
100
AcDbLine
10
-57.9933173424312
20
14.5977219141501
30
0.00000000000000
11
-57.9903173424312
21
14.5961973945482
31
0.00000000000000
  0
LINE
  5
F1057A
330
F1057B
100
AcDbEntity
8
Geo
100
AcDbLine
10
-57.9903173424312
20
14.5961973945482
30
0.00000000000000
11
-57.9873173424312
21
14.5946662148741
31
0.00000000000000
  0
LINE
  5
F1057C
330
F1057D
100
AcDbEntity
8
Geo
100
AcDbLine
10
-57.9873173424312
20
14.5946662148741
30
0.00000000000000
11
-57.9843173424312
21
14.5931284899655
31
0.00000000000000
  0
LINE
  5
F1057E
330
F1057F
100
AcDbEntity
8
Geo
100
AcDbLine
10
-57.9843173424312
20
14.5931284899655
30
0.00000000000000
11
-57.9813173424312
21
14.5915843351511
31
0.00000000000000
  0
LINE
  5
F10580
330
F10581
100
AcDbEntity
8
Geo
100
AcDbLine
10
-57.9813173424312
20
14.5915843351511
30
0.00000000000000
11
-57.9783173424312
21
14.5900338662418
31
0.00000000000000
  0
LINE
  5
F10582
330
F10583
100
AcDbEntity
8
Geo
100
AcDbLine
10
-57.9783173424312
20
14.5900338662418
30
0.00000000000000
11
-57.9753173424312
21
14.5884771995219
31
0.00000000000000
  0
LINE
  5
F10584
330
F10585
100
AcDbEntity
8
Geo
100
AcDbLine
10
-57.9753173424312
20
14.5884771995219
30
0.00000000000000
11
-57.9723173424312
21
14.5869144517409
31
0.00000000000000
  0
LINE
  5
F10586
330
F10587
100
AcDbEntity
8
Geo
100
AcDbLine
10
-57.9723173424312
20
14.5869144517409
30
0.00000000000000
11
-57.9693173424312
21
14.5853457401041
31
0.00000000000000
  0
LINE
  5
F10588
330
F10589
100
AcDbEntity
8
Geo
100
AcDbLine
10
-57.9693173424312
20
14.5853457401041
30
0.00000000000000
11
-57.9663173424312
21
14.5837711822640
31
0.00000000000000
  0
LINE
  5
F1058A
330
F1058B
100
AcDbEntity
8
Geo
100
AcDbLine
10
-57.9663173424312
20
14.5837711822640
30
0.00000000000000
11
-57.9633173424312
21
14.5821908963118
31
0.00000000000000
  0
LINE
  5
F1058C
330
F1058D
100
AcDbEntity
8
Geo
100
AcDbLine
10
-57.9633173424312
20
14.5821908963118
30
0.00000000000000
11
-57.9603173424312
21
14.5806050007682
31
0.00000000000000
  0
LINE
  5
F1058E
330
F1058F
100
AcDbEntity
8
Geo
100
AcDbLine
10
-57.9603173424312
20
14.5806050007682
30
0.00000000000000
11
-57.9573173424312
21
14.5790136145746
31
0.00000000000000
  0
LINE
  5
F10590
330
F10591
100
AcDbEntity
8
Geo
100
AcDbLine
10
-57.9573173424312
20
14.5790136145746
30
0.00000000000000
11
-57.9543173424312
21
14.5774168570842
31
0.00000000000000
  0
LINE
  5
F10592
330
F10593
100
AcDbEntity
8
Geo
100
AcDbLine
10
-57.9543173424312
20
14.5774168570842
30
0.00000000000000
11
-57.9513173424312
21
14.5758148480532
31
0.00000000000000
  0
LINE
  5
F10594
330
F10595
100
AcDbEntity
8
Geo
100
AcDbLine
10
-57.9513173424312
20
14.5758148480532
30
0.00000000000000
11
-57.9483173424312
21
14.5742077076313
31
0.00000000000000
  0
LINE
  5
F10596
330
F10597
100
AcDbEntity
8
Geo
100
AcDbLine
10
-57.9483173424312
20
14.5742077076313
30
0.00000000000000
11
-57.9453173424312
21
14.5725955563534
31
0.00000000000000
  0
LINE
  5
F10598
330
F10599
100
AcDbEntity
8
Geo
100
AcDbLine
10
-57.9453173424312
20
14.5725955563534
30
0.00000000000000
11
-57.9423173424312
21
14.5709785151302
31
0.00000000000000
  0
LINE
  5
F1059A
330
F1059B
100
AcDbEntity
8
Geo
100
AcDbLine
10
-57.9423173424312
20
14.5709785151302
30
0.00000000000000
11
-57.9393173424312
21
14.5693567052388
31
0.00000000000000
  0
LINE
  5
F1059C
330
F1059D
100
AcDbEntity
8
Geo
100
AcDbLine
10
-57.9393173424312
20
14.5693567052388
30
0.00000000000000
11
-57.9363173424312
21
14.5677302483144
31
0.00000000000000
  0
LINE
  5
F1059E
330
F1059F
100
AcDbEntity
8
Geo
100
AcDbLine
10
-57.9363173424312
20
14.5677302483144
30
0.00000000000000
11
-57.9333173424312
21
14.5660992663403
31
0.00000000000000
  0
LINE
  5
F105A0
330
F105A1
100
AcDbEntity
8
Geo
100
AcDbLine
10
-57.9333173424312
20
14.5660992663403
30
0.00000000000000
11
-57.9303173424312
21
14.5644638816396
31
0.00000000000000
  0
LINE
  5
F105A2
330
F105A3
100
AcDbEntity
8
Geo
100
AcDbLine
10
-57.9303173424312
20
14.5644638816396
30
0.00000000000000
11
-57.9273173424312
21
14.5628242168652
31
0.00000000000000
  0
LINE
  5
F105A4
330
F105A5
100
AcDbEntity
8
Geo
100
AcDbLine
10
-57.9273173424312
20
14.5628242168652
30
0.00000000000000
11
-57.9243173424312
21
14.5611803949914
31
0.00000000000000
  0
LINE
  5
F105A6
330
F105A7
100
AcDbEntity
8
Geo
100
AcDbLine
10
-57.9243173424312
20
14.5611803949914
30
0.00000000000000
11
-57.9213173424312
21
14.5595325393038
31
0.00000000000000
  0
LINE
  5
F105A8
330
F105A9
100
AcDbEntity
8
Geo
100
AcDbLine
10
-57.9213173424312
20
14.5595325393038
30
0.00000000000000
11
-57.9183173424312
21
14.5578807733910
31
0.00000000000000
  0
LINE
  5
F105AA
330
F105AB
100
AcDbEntity
8
Geo
100
AcDbLine
10
-57.9183173424312
20
14.5578807733910
30
0.00000000000000
11
-57.9153173424312
21
14.5562252211346
31
0.00000000000000
  0
LINE
  5
F105AC
330
F105AD
100
AcDbEntity
8
Geo
100
AcDbLine
10
-57.9153173424312
20
14.5562252211346
30
0.00000000000000
11
-57.9123173424312
21
14.5545660067003
31
0.00000000000000
  0
LINE
  5
F105AE
330
F105AF
100
AcDbEntity
8
Geo
100
AcDbLine
10
-57.9123173424312
20
14.5545660067003
30
0.00000000000000
11
-57.9093173424312
21
14.5529032545283
31
0.00000000000000
  0
LINE
  5
F105B0
330
F105B1
100
AcDbEntity
8
Geo
100
AcDbLine
10
-57.9093173424312
20
14.5529032545283
30
0.00000000000000
11
-57.9063173424312
21
14.5512370893243
31
0.00000000000000
  0
LINE
  5
F105B2
330
F105B3
100
AcDbEntity
8
Geo
100
AcDbLine
10
-57.9063173424312
20
14.5512370893243
30
0.00000000000000
11
-57.9033173424312
21
14.5495676360499
31
0.00000000000000
  0
LINE
  5
F105B4
330
F105B5
100
AcDbEntity
8
Geo
100
AcDbLine
10
-57.9033173424312
20
14.5495676360499
30
0.00000000000000
11
-57.9003173424312
21
14.5478950199133
31
0.00000000000000
  0
LINE
  5
F105B6
330
F105B7
100
AcDbEntity
8
Geo
100
AcDbLine
10
-57.9003173424312
20
14.5478950199133
30
0.00000000000000
11
-57.8973173424312
21
14.5462193663600
31
0.00000000000000
  0
LINE
  5
F105B8
330
F105B9
100
AcDbEntity
8
Geo
100
AcDbLine
10
-57.8973173424312
20
14.5462193663600
30
0.00000000000000
11
-57.8943173424312
21
14.5445408010632
31
0.00000000000000
  0
LINE
  5
F105BA
330
F105BB
100
AcDbEntity
8
Geo
100
AcDbLine
10
-57.8943173424312
20
14.5445408010632
30
0.00000000000000
11
-57.8913173424312
21
14.5428594499144
31
0.00000000000000
  0
LINE
  5
F105BC
330
F105BD
100
AcDbEntity
8
Geo
100
AcDbLine
10
-57.8913173424312
20
14.5428594499144
30
0.00000000000000
11
-57.8883173424312
21
14.5411754390143
31
0.00000000000000
  0
LINE
  5
F105BE
330
F105BF
100
AcDbEntity
8
Geo
100
AcDbLine
10
-57.8883173424312
20
14.5411754390143
30
0.00000000000000
11
-57.8853173424312
21
14.5394888946628
31
0.00000000000000
  0
LINE
  5
F105C0
330
F105C1
100
AcDbEntity
8
Geo
100
AcDbLine
10
-57.8853173424312
20
14.5394888946628
30
0.00000000000000
11
-57.8823173424312
21
14.5377999433500
31
0.00000000000000
  0
LINE
  5
F105C2
330
F105C3
100
AcDbEntity
8
Geo
100
AcDbLine
10
-57.8823173424312
20
14.5377999433500
30
0.00000000000000
11
-57.8793173424312
21
14.5361087117465
31
0.00000000000000
  0
LINE
  5
F105C4
330
F105C5
100
AcDbEntity
8
Geo
100
AcDbLine
10
-57.8793173424312
20
14.5361087117465
30
0.00000000000000
11
-57.8763173424312
21
14.5344153266938
31
0.00000000000000
  0
LINE
  5
F105C6
330
F105C7
100
AcDbEntity
8
Geo
100
AcDbLine
10
-57.8763173424312
20
14.5344153266938
30
0.00000000000000
11
-57.8733173424312
21
14.5327199151950
31
0.00000000000000
  0
LINE
  5
F105C8
330
F105C9
100
AcDbEntity
8
Geo
100
AcDbLine
10
-57.8733173424312
20
14.5327199151950
30
0.00000000000000
11
-57.8703173424312
21
14.5310226044052
31
0.00000000000000
  0
LINE
  5
F105CA
330
F105CB
100
AcDbEntity
8
Geo
100
AcDbLine
10
-57.8703173424312
20
14.5310226044052
30
0.00000000000000
11
-57.8673173424311
21
14.5293235216219
31
0.00000000000000
  0
LINE
  5
F105CC
330
F105CD
100
AcDbEntity
8
Geo
100
AcDbLine
10
-57.8673173424311
20
14.5293235216219
30
0.00000000000000
11
-57.8643173424311
21
14.5276227942755
31
0.00000000000000
  0
LINE
  5
F105CE
330
F105CF
100
AcDbEntity
8
Geo
100
AcDbLine
10
-57.8643173424311
20
14.5276227942755
30
0.00000000000000
11
-57.8613173424311
21
14.5259205499198
31
0.00000000000000
  0
LINE
  5
F105D0
330
F105D1
100
AcDbEntity
8
Geo
100
AcDbLine
10
-57.8613173424311
20
14.5259205499198
30
0.00000000000000
11
-57.8583173424312
21
14.5242169162223
31
0.00000000000000
  0
LINE
  5
F105D2
330
F105D3
100
AcDbEntity
8
Geo
100
AcDbLine
10
-57.8583173424312
20
14.5242169162223
30
0.00000000000000
11
-57.8553173424312
21
14.5225120209547
31
0.00000000000000
  0
LINE
  5
F105D4
330
F105D5
100
AcDbEntity
8
Geo
100
AcDbLine
10
-57.8553173424312
20
14.5225120209547
30
0.00000000000000
11
-57.8523173424312
21
14.5208059919833
31
0.00000000000000
  0
LINE
  5
F105D6
330
F105D7
100
AcDbEntity
8
Geo
100
AcDbLine
10
-57.8523173424312
20
14.5208059919833
30
0.00000000000000
11
-57.8493173424312
21
14.5190989572596
31
0.00000000000000
  0
LINE
  5
F105D8
330
F105D9
100
AcDbEntity
8
Geo
100
AcDbLine
10
-57.8493173424312
20
14.5190989572596
30
0.00000000000000
11
-57.8463173424312
21
14.5173910448103
31
0.00000000000000
  0
LINE
  5
F105DA
330
F105DB
100
AcDbEntity
8
Geo
100
AcDbLine
10
-57.8463173424312
20
14.5173910448103
30
0.00000000000000
11
-57.8433173424312
21
14.5156823827281
31
0.00000000000000
  0
LINE
  5
F105DC
330
F105DD
100
AcDbEntity
8
Geo
100
AcDbLine
10
-57.8433173424312
20
14.5156823827281
30
0.00000000000000
11
-57.8403173424312
21
14.5139730991619
31
0.00000000000000
  0
LINE
  5
F105DE
330
F105DF
100
AcDbEntity
8
Geo
100
AcDbLine
10
-57.8403173424312
20
14.5139730991619
30
0.00000000000000
11
-57.8373173424312
21
14.5122633223070
31
0.00000000000000
  0
LINE
  5
F105E0
330
F105E1
100
AcDbEntity
8
Geo
100
AcDbLine
10
-57.8373173424312
20
14.5122633223070
30
0.00000000000000
11
-57.8343173424312
21
14.5105531803960
31
0.00000000000000
  0
LINE
  5
F105E2
330
F105E3
100
AcDbEntity
8
Geo
100
AcDbLine
10
-57.8343173424312
20
14.5105531803960
30
0.00000000000000
11
-57.8313173424312
21
14.5088428016887
31
0.00000000000000
  0
LINE
  5
F105E4
330
F105E5
100
AcDbEntity
8
Geo
100
AcDbLine
10
-57.8313173424312
20
14.5088428016887
30
0.00000000000000
11
-57.8283173424312
21
14.5071323144627
31
0.00000000000000
  0
LINE
  5
F105E6
330
F105E7
100
AcDbEntity
8
Geo
100
AcDbLine
10
-57.8283173424312
20
14.5071323144627
30
0.00000000000000
11
-57.8253173424312
21
14.5054218470038
31
0.00000000000000
  0
LINE
  5
F105E8
330
F105E9
100
AcDbEntity
8
Geo
100
AcDbLine
10
-57.8253173424312
20
14.5054218470038
30
0.00000000000000
11
-57.8223173424312
21
14.5037115275961
31
0.00000000000000
  0
LINE
  5
F105EA
330
F105EB
100
AcDbEntity
8
Geo
100
AcDbLine
10
-57.8223173424312
20
14.5037115275961
30
0.00000000000000
11
-57.8193173424312
21
14.5020014845130
31
0.00000000000000
  0
LINE
  5
F105EC
330
F105ED
100
AcDbEntity
8
Geo
100
AcDbLine
10
-57.8193173424312
20
14.5020014845130
30
0.00000000000000
11
-57.8163173424312
21
14.5002918460067
31
0.00000000000000
  0
LINE
  5
F105EE
330
F105EF
100
AcDbEntity
8
Geo
100
AcDbLine
10
-57.8163173424312
20
14.5002918460067
30
0.00000000000000
11
-57.8133173424312
21
14.4985827402993
31
0.00000000000000
  0
LINE
  5
F105F0
330
F105F1
100
AcDbEntity
8
Geo
100
AcDbLine
10
-57.8133173424312
20
14.4985827402993
30
0.00000000000000
11
-57.8103173424312
21
14.4968742955731
31
0.00000000000000
  0
LINE
  5
F105F2
330
F105F3
100
AcDbEntity
8
Geo
100
AcDbLine
10
-57.8103173424312
20
14.4968742955731
30
0.00000000000000
11
-57.8073173424312
21
14.4951666399605
31
0.00000000000000
  0
LINE
  5
F105F4
330
F105F5
100
AcDbEntity
8
Geo
100
AcDbLine
10
-57.8073173424312
20
14.4951666399605
30
0.00000000000000
11
-57.8043173424312
21
14.4934599015349
31
0.00000000000000
  0
LINE
  5
F105F6
330
F105F7
100
AcDbEntity
8
Geo
100
AcDbLine
10
-57.8043173424312
20
14.4934599015349
30
0.00000000000000
11
-57.8013173424312
21
14.4917542083010
31
0.00000000000000
  0
LINE
  5
F105F8
330
F105F9
100
AcDbEntity
8
Geo
100
AcDbLine
10
-57.8013173424312
20
14.4917542083010
30
0.00000000000000
11
-57.7983173424312
21
14.4900496881848
31
0.00000000000000
  0
LINE
  5
F105FA
330
F105FB
100
AcDbEntity
8
Geo
100
AcDbLine
10
-57.7983173424312
20
14.4900496881848
30
0.00000000000000
11
-57.7953173424312
21
14.4883464690247
31
0.00000000000000
  0
LINE
  5
F105FC
330
F105FD
100
AcDbEntity
8
Geo
100
AcDbLine
10
-57.7953173424312
20
14.4883464690247
30
0.00000000000000
11
-57.7923173424312
21
14.4866446785612
31
0.00000000000000
  0
LINE
  5
F105FE
330
F105FF
100
AcDbEntity
8
Geo
100
AcDbLine
10
-57.7923173424312
20
14.4866446785612
30
0.00000000000000
11
-57.7893173424312
21
14.4849444444278
31
0.00000000000000
  0
LINE
  5
F10600
330
F10601
100
AcDbEntity
8
Geo
100
AcDbLine
10
-57.7893173424312
20
14.4849444444278
30
0.00000000000000
11
-57.7863173424312
21
14.4832458941413
31
0.00000000000000
  0
LINE
  5
F10602
330
F10603
100
AcDbEntity
8
Geo
100
AcDbLine
10
-57.7863173424312
20
14.4832458941413
30
0.00000000000000
11
-57.7833173424312
21
14.4815491550922
31
0.00000000000000
  0
LINE
  5
F10604
330
F10605
100
AcDbEntity
8
Geo
100
AcDbLine
10
-57.7833173424312
20
14.4815491550922
30
0.00000000000000
11
-57.7803173424312
21
14.4798543545351
31
0.00000000000000
  0
LINE
  5
F10606
330
F10607
100
AcDbEntity
8
Geo
100
AcDbLine
10
-57.7803173424312
20
14.4798543545351
30
0.00000000000000
11
-57.7773173424312
21
14.4781616195793
31
0.00000000000000
  0
LINE
  5
F10608
330
F10609
100
AcDbEntity
8
Geo
100
AcDbLine
10
-57.7773173424312
20
14.4781616195793
30
0.00000000000000
11
-57.7743173424312
21
14.4764710771790
31
0.00000000000000
  0
LINE
  5
F1060A
330
F1060B
100
AcDbEntity
8
Geo
100
AcDbLine
10
-57.7743173424312
20
14.4764710771790
30
0.00000000000000
11
-57.7713173424312
21
14.4747828541242
31
0.00000000000000
  0
LINE
  5
F1060C
330
F1060D
100
AcDbEntity
8
Geo
100
AcDbLine
10
-57.7713173424312
20
14.4747828541242
30
0.00000000000000
11
-57.7683173424312
21
14.4730970770308
31
0.00000000000000
  0
LINE
  5
F1060E
330
F1060F
100
AcDbEntity
8
Geo
100
AcDbLine
10
-57.7683173424312
20
14.4730970770308
30
0.00000000000000
11
-57.7653173424312
21
14.4714138723313
31
0.00000000000000
  0
LINE
  5
F10610
330
F10611
100
AcDbEntity
8
Geo
100
AcDbLine
10
-57.7653173424312
20
14.4714138723313
30
0.00000000000000
11
-57.7623173424312
21
14.4697333662652
31
0.00000000000000
  0
LINE
  5
F10612
330
F10613
100
AcDbEntity
8
Geo
100
AcDbLine
10
-57.7623173424312
20
14.4697333662652
30
0.00000000000000
11
-57.7593173424312
21
14.4680556848698
31
0.00000000000000
  0
LINE
  5
F10614
330
F10615
100
AcDbEntity
8
Geo
100
AcDbLine
10
-57.7593173424312
20
14.4680556848698
30
0.00000000000000
11
-57.7563173424312
21
14.4663809539704
31
0.00000000000000
  0
LINE
  5
F10616
330
F10617
100
AcDbEntity
8
Geo
100
AcDbLine
10
-57.7563173424312
20
14.4663809539704
30
0.00000000000000
11
-57.7533173424312
21
14.4647092991709
31
0.00000000000000
  0
LINE
  5
F10618
330
F10619
100
AcDbEntity
8
Geo
100
AcDbLine
10
-57.7533173424312
20
14.4647092991709
30
0.00000000000000
11
-57.7503173424312
21
14.4630408458447
31
0.00000000000000
  0
LINE
  5
F1061A
330
F1061B
100
AcDbEntity
8
Geo
100
AcDbLine
10
-57.7503173424312
20
14.4630408458447
30
0.00000000000000
11
-57.7473173424312
21
14.4613757191250
31
0.00000000000000
  0
LINE
  5
F1061C
330
F1061D
100
AcDbEntity
8
Geo
100
AcDbLine
10
-57.7473173424312
20
14.4613757191250
30
0.00000000000000
11
-57.7443173424312
21
14.4597140438956
31
0.00000000000000
  0
LINE
  5
F1061E
330
F1061F
100
AcDbEntity
8
Geo
100
AcDbLine
10
-57.7443173424312
20
14.4597140438956
30
0.00000000000000
11
-57.7413173424312
21
14.4580559447813
31
0.00000000000000
  0
LINE
  5
F10620
330
F10621
100
AcDbEntity
8
Geo
100
AcDbLine
10
-57.7413173424312
20
14.4580559447813
30
0.00000000000000
11
-57.7383173424312
21
14.4564015461388
31
0.00000000000000
  0
LINE
  5
F10622
330
F10623
100
AcDbEntity
8
Geo
100
AcDbLine
10
-57.7383173424312
20
14.4564015461388
30
0.00000000000000
11
-57.7353173424312
21
14.4547509720472
31
0.00000000000000
  0
LINE
  5
F10624
330
F10625
100
AcDbEntity
8
Geo
100
AcDbLine
10
-57.7353173424312
20
14.4547509720472
30
0.00000000000000
11
-57.7323173424312
21
14.4531043462987
31
0.00000000000000
  0
LINE
  5
F10626
330
F10627
100
AcDbEntity
8
Geo
100
AcDbLine
10
-57.7323173424312
20
14.4531043462987
30
0.00000000000000
11
-57.7293173424312
21
14.4514617923895
31
0.00000000000000
  0
LINE
  5
F10628
330
F10629
100
AcDbEntity
8
Geo
100
AcDbLine
10
-57.7293173424312
20
14.4514617923895
30
0.00000000000000
11
-57.7263173424312
21
14.4498234335105
31
0.00000000000000
  0
LINE
  5
F1062A
330
F1062B
100
AcDbEntity
8
Geo
100
AcDbLine
10
-57.7263173424312
20
14.4498234335105
30
0.00000000000000
11
-57.7233173424312
21
14.4481893925377
31
0.00000000000000
  0
LINE
  5
F1062C
330
F1062D
100
AcDbEntity
8
Geo
100
AcDbLine
10
-57.7233173424312
20
14.4481893925377
30
0.00000000000000
11
-57.7203173424312
21
14.4465597920235
31
0.00000000000000
  0
LINE
  5
F1062E
330
F1062F
100
AcDbEntity
8
Geo
100
AcDbLine
10
-57.7203173424312
20
14.4465597920235
30
0.00000000000000
11
-57.7173173424312
21
14.4449347541871
31
0.00000000000000
  0
LINE
  5
F10630
330
F10631
100
AcDbEntity
8
Geo
100
AcDbLine
10
-57.7173173424312
20
14.4449347541871
30
0.00000000000000
11
-57.7143173424312
21
14.4433144009056
31
0.00000000000000
  0
LINE
  5
F10632
330
F10633
100
AcDbEntity
8
Geo
100
AcDbLine
10
-57.7143173424312
20
14.4433144009056
30
0.00000000000000
11
-57.7113173424312
21
14.4416988537047
31
0.00000000000000
  0
LINE
  5
F10634
330
F10635
100
AcDbEntity
8
Geo
100
AcDbLine
10
-57.7113173424312
20
14.4416988537047
30
0.00000000000000
11
-57.7083173424312
21
14.4400882337498
31
0.00000000000000
  0
LINE
  5
F10636
330
F10637
100
AcDbEntity
8
Geo
100
AcDbLine
10
-57.7083173424312
20
14.4400882337498
30
0.00000000000000
11
-57.7053173424312
21
14.4384826618366
31
0.00000000000000
  0
LINE
  5
F10638
330
F10639
100
AcDbEntity
8
Geo
100
AcDbLine
10
-57.7053173424312
20
14.4384826618366
30
0.00000000000000
11
-57.7023173424312
21
14.4368822583821
31
0.00000000000000
  0
LINE
  5
F1063A
330
F1063B
100
AcDbEntity
8
Geo
100
AcDbLine
10
-57.7023173424312
20
14.4368822583821
30
0.00000000000000
11
-57.6993173424312
21
14.4352871434160
31
0.00000000000000
  0
LINE
  5
F1063C
330
F1063D
100
AcDbEntity
8
Geo
100
AcDbLine
10
-57.6993173424312
20
14.4352871434160
30
0.00000000000000
11
-57.6963173424312
21
14.4336974365711
31
0.00000000000000
  0
LINE
  5
F1063E
330
F1063F
100
AcDbEntity
8
Geo
100
AcDbLine
10
-57.6963173424312
20
14.4336974365711
30
0.00000000000000
11
-57.6933173424312
21
14.4321132570747
31
0.00000000000000
  0
LINE
  5
F10640
330
F10641
100
AcDbEntity
8
Geo
100
AcDbLine
10
-57.6933173424312
20
14.4321132570747
30
0.00000000000000
11
-57.6903173424312
21
14.4305347237394
31
0.00000000000000
  0
LINE
  5
F10642
330
F10643
100
AcDbEntity
8
Geo
100
AcDbLine
10
-57.6903173424312
20
14.4305347237394
30
0.00000000000000
11
-57.6873173424312
21
14.4289619549546
31
0.00000000000000
  0
LINE
  5
F10644
330
F10645
100
AcDbEntity
8
Geo
100
AcDbLine
10
-57.6873173424312
20
14.4289619549546
30
0.00000000000000
11
-57.6843173424312
21
14.4273950686771
31
0.00000000000000
  0
LINE
  5
F10646
330
F10647
100
AcDbEntity
8
Geo
100
AcDbLine
10
-57.6843173424312
20
14.4273950686771
30
0.00000000000000
11
-57.6813173424312
21
14.4258341824227
31
0.00000000000000
  0
LINE
  5
F10648
330
F10649
100
AcDbEntity
8
Geo
100
AcDbLine
10
-57.6813173424312
20
14.4258341824227
30
0.00000000000000
11
-57.6783173424311
21
14.4242794132572
31
0.00000000000000
  0
LINE
  5
F1064A
330
F1064B
100
AcDbEntity
8
Geo
100
AcDbLine
10
-57.6783173424311
20
14.4242794132572
30
0.00000000000000
11
-57.6753173424311
21
14.4227308777875
31
0.00000000000000
  0
LINE
  5
F1064C
330
F1064D
100
AcDbEntity
8
Geo
100
AcDbLine
10
-57.6753173424311
20
14.4227308777875
30
0.00000000000000
11
-57.6723173424311
21
14.4211886921530
31
0.00000000000000
  0
LINE
  5
F1064E
330
F1064F
100
AcDbEntity
8
Geo
100
AcDbLine
10
-57.6723173424311
20
14.4211886921530
30
0.00000000000000
11
-57.6693173424312
21
14.4196529720169
31
0.00000000000000
  0
LINE
  5
F10650
330
F10651
100
AcDbEntity
8
Geo
100
AcDbLine
10
-57.6693173424312
20
14.4196529720169
30
0.00000000000000
11
-57.6663173424312
21
14.4181238325576
31
0.00000000000000
  0
LINE
  5
F10652
330
F10653
100
AcDbEntity
8
Geo
100
AcDbLine
10
-57.6663173424312
20
14.4181238325576
30
0.00000000000000
11
-57.6633173424312
21
14.4166013884597
31
0.00000000000000
  0
LINE
  5
F10654
330
F10655
100
AcDbEntity
8
Geo
100
AcDbLine
10
-57.6633173424312
20
14.4166013884597
30
0.00000000000000
11
-57.6603173424312
21
14.4150857539059
31
0.00000000000000
  0
LINE
  5
F10656
330
F10657
100
AcDbEntity
8
Geo
100
AcDbLine
10
-57.6603173424312
20
14.4150857539059
30
0.00000000000000
11
-57.6573173424312
21
14.4135770425680
31
0.00000000000000
  0
LINE
  5
F10658
330
F10659
100
AcDbEntity
8
Geo
100
AcDbLine
10
-57.6573173424312
20
14.4135770425680
30
0.00000000000000
11
-57.6543173424312
21
14.4120753675987
31
0.00000000000000
  0
LINE
  5
F1065A
330
F1065B
100
AcDbEntity
8
Geo
100
AcDbLine
10
-57.6543173424312
20
14.4120753675987
30
0.00000000000000
11
-57.6513173424312
21
14.4105808416229
31
0.00000000000000
  0
LINE
  5
F1065C
330
F1065D
100
AcDbEntity
8
Geo
100
AcDbLine
10
-57.6513173424312
20
14.4105808416229
30
0.00000000000000
11
-57.6483173424312
21
14.4090935767294
31
0.00000000000000
  0
LINE
  5
F1065E
330
F1065F
100
AcDbEntity
8
Geo
100
AcDbLine
10
-57.6483173424312
20
14.4090935767294
30
0.00000000000000
11
-57.6453173424312
21
14.4076136844622
31
0.00000000000000
  0
LINE
  5
F10660
330
F10661
100
AcDbEntity
8
Geo
100
AcDbLine
10
-57.6453173424312
20
14.4076136844622
30
0.00000000000000
11
-57.6423173424312
21
14.4061412758127
31
0.00000000000000
  0
LINE
  5
F10662
330
F10663
100
AcDbEntity
8
Geo
100
AcDbLine
10
-57.6423173424312
20
14.4061412758127
30
0.00000000000000
11
-57.6393173424312
21
14.4046764612109
31
0.00000000000000
  0
LINE
  5
F10664
330
F10665
100
AcDbEntity
8
Geo
100
AcDbLine
10
-57.6393173424312
20
14.4046764612109
30
0.00000000000000
11
-57.6363173424312
21
14.4032193505170
31
0.00000000000000
  0
LINE
  5
F10666
330
F10667
100
AcDbEntity
8
Geo
100
AcDbLine
10
-57.6363173424312
20
14.4032193505170
30
0.00000000000000
11
-57.6333173424312
21
14.4017700530138
31
0.00000000000000
  0
LINE
  5
F10668
330
F10669
100
AcDbEntity
8
Geo
100
AcDbLine
10
-57.6333173424312
20
14.4017700530138
30
0.00000000000000
11
-57.6303173424312
21
14.4003286773978
31
0.00000000000000
  0
LINE
  5
F1066A
330
F1066B
100
AcDbEntity
8
Geo
100
AcDbLine
10
-57.6303173424312
20
14.4003286773978
30
0.00000000000000
11
-57.6273173424312
21
14.3988953317716
31
0.00000000000000
  0
LINE
  5
F1066C
330
F1066D
100
AcDbEntity
8
Geo
100
AcDbLine
10
-57.6273173424312
20
14.3988953317716
30
0.00000000000000
11
-57.6243173424312
21
14.3974701236354
31
0.00000000000000
  0
LINE
  5
F1066E
330
F1066F
100
AcDbEntity
8
Geo
100
AcDbLine
10
-57.6243173424312
20
14.3974701236354
30
0.00000000000000
11
-57.6213173424312
21
14.3960531598791
31
0.00000000000000
  0
LINE
  5
F10670
330
F10671
100
AcDbEntity
8
Geo
100
AcDbLine
10
-57.6213173424312
20
14.3960531598791
30
0.00000000000000
11
-57.6183173424312
21
14.3946445467744
31
0.00000000000000
  0
LINE
  5
F10672
330
F10673
100
AcDbEntity
8
Geo
100
AcDbLine
10
-57.6183173424312
20
14.3946445467744
30
0.00000000000000
11
-57.6153173424312
21
14.3932443899666
31
0.00000000000000
  0
LINE
  5
F10674
330
F10675
100
AcDbEntity
8
Geo
100
AcDbLine
10
-57.6153173424312
20
14.3932443899666
30
0.00000000000000
11
-57.6123173424312
21
14.3918527944668
31
0.00000000000000
  0
LINE
  5
F10676
330
F10677
100
AcDbEntity
8
Geo
100
AcDbLine
10
-57.6123173424312
20
14.3918527944668
30
0.00000000000000
11
-57.6093173424312
21
14.3904698646440
31
0.00000000000000
  0
LINE
  5
F10678
330
F10679
100
AcDbEntity
8
Geo
100
AcDbLine
10
-57.6093173424312
20
14.3904698646440
30
0.00000000000000
11
-57.6063173424312
21
14.3890957042173
31
0.00000000000000
  0
LINE
  5
F1067A
330
F1067B
100
AcDbEntity
8
Geo
100
AcDbLine
10
-57.6063173424312
20
14.3890957042173
30
0.00000000000000
11
-57.6033173424312
21
14.3877304162481
31
0.00000000000000
  0
LINE
  5
F1067C
330
F1067D
100
AcDbEntity
8
Geo
100
AcDbLine
10
-57.6033173424312
20
14.3877304162481
30
0.00000000000000
11
-57.6003173424312
21
14.3863741031323
31
0.00000000000000
  0
LINE
  5
F1067E
330
F1067F
100
AcDbEntity
8
Geo
100
AcDbLine
10
-57.6003173424312
20
14.3863741031323
30
0.00000000000000
11
-57.5973173424312
21
14.3850268665929
31
0.00000000000000
  0
LINE
  5
F10680
330
F10681
100
AcDbEntity
8
Geo
100
AcDbLine
10
-57.5973173424312
20
14.3850268665929
30
0.00000000000000
11
-57.5943173424312
21
14.3836888076718
31
0.00000000000000
  0
LINE
  5
F10682
330
F10683
100
AcDbEntity
8
Geo
100
AcDbLine
10
-57.5943173424312
20
14.3836888076718
30
0.00000000000000
11
-57.5913173424312
21
14.3823600267229
31
0.00000000000000
  0
LINE
  5
F10684
330
F10685
100
AcDbEntity
8
Geo
100
AcDbLine
10
-57.5913173424312
20
14.3823600267229
30
0.00000000000000
11
-57.5883173424312
21
14.3810406234041
31
0.00000000000000
  0
LINE
  5
F10686
330
F10687
100
AcDbEntity
8
Geo
100
AcDbLine
10
-57.5883173424312
20
14.3810406234041
30
0.00000000000000
11
-57.5853173424312
21
14.3797306966701
31
0.00000000000000
  0
LINE
  5
F10688
330
F10689
100
AcDbEntity
8
Geo
100
AcDbLine
10
-57.5853173424312
20
14.3797306966701
30
0.00000000000000
11
-57.5823173424312
21
14.3784303447648
31
0.00000000000000
  0
LINE
  5
F1068A
330
F1068B
100
AcDbEntity
8
Geo
100
AcDbLine
10
-57.5823173424312
20
14.3784303447648
30
0.00000000000000
11
-57.5793173424312
21
14.3771396652139
31
0.00000000000000
  0
LINE
  5
F1068C
330
F1068D
100
AcDbEntity
8
Geo
100
AcDbLine
10
-57.5793173424312
20
14.3771396652139
30
0.00000000000000
11
-57.5763173424312
21
14.3758587548178
31
0.00000000000000
  0
LINE
  5
F1068E
330
F1068F
100
AcDbEntity
8
Geo
100
AcDbLine
10
-57.5763173424312
20
14.3758587548178
30
0.00000000000000
11
-57.5733173424312
21
14.3745877096442
31
0.00000000000000
  0
LINE
  5
F10690
330
F10691
100
AcDbEntity
8
Geo
100
AcDbLine
10
-57.5733173424312
20
14.3745877096442
30
0.00000000000000
11
-57.5703173424312
21
14.3733266250209
31
0.00000000000000
  0
LINE
  5
F10692
330
F10693
100
AcDbEntity
8
Geo
100
AcDbLine
10
-57.5703173424312
20
14.3733266250209
30
0.00000000000000
11
-57.5673173424312
21
14.3720755955286
31
0.00000000000000
  0
LINE
  5
F10694
330
F10695
100
AcDbEntity
8
Geo
100
AcDbLine
10
-57.5673173424312
20
14.3720755955286
30
0.00000000000000
11
-57.5643173424312
21
14.3708347149939
31
0.00000000000000
  0
LINE
  5
F10696
330
F10697
100
AcDbEntity
8
Geo
100
AcDbLine
10
-57.5643173424312
20
14.3708347149939
30
0.00000000000000
11
-57.5613173424312
21
14.3696040764824
31
0.00000000000000
  0
LINE
  5
F10698
330
F10699
100
AcDbEntity
8
Geo
100
AcDbLine
10
-57.5613173424312
20
14.3696040764824
30
0.00000000000000
11
-57.5583173424312
21
14.3683837722913
31
0.00000000000000
  0
LINE
  5
F1069A
330
F1069B
100
AcDbEntity
8
Geo
100
AcDbLine
10
-57.5583173424312
20
14.3683837722913
30
0.00000000000000
11
-57.5553173424312
21
14.3671738939429
31
0.00000000000000
  0
LINE
  5
F1069C
330
F1069D
100
AcDbEntity
8
Geo
100
AcDbLine
10
-57.5553173424312
20
14.3671738939429
30
0.00000000000000
11
-57.5523173424312
21
14.3659745321774
31
0.00000000000000
  0
LINE
  5
F1069E
330
F1069F
100
AcDbEntity
8
Geo
100
AcDbLine
10
-57.5523173424312
20
14.3659745321774
30
0.00000000000000
11
-57.5493173424312
21
14.3647857769465
31
0.00000000000000
  0
LINE
  5
F106A0
330
F106A1
100
AcDbEntity
8
Geo
100
AcDbLine
10
-57.5493173424312
20
14.3647857769465
30
0.00000000000000
11
-57.5463173424312
21
14.3636077174062
31
0.00000000000000
  0
LINE
  5
F106A2
330
F106A3
100
AcDbEntity
8
Geo
100
AcDbLine
10
-57.5463173424312
20
14.3636077174062
30
0.00000000000000
11
-57.5433173424312
21
14.3624404419105
31
0.00000000000000
  0
LINE
  5
F106A4
330
F106A5
100
AcDbEntity
8
Geo
100
AcDbLine
10
-57.5433173424312
20
14.3624404419105
30
0.00000000000000
11
-57.5403173424312
21
14.3612840380044
31
0.00000000000000
  0
LINE
  5
F106A6
330
F106A7
100
AcDbEntity
8
Geo
100
AcDbLine
10
-18.3383173424312
20
15.9073958766953
30
0.00000000000000
11
-18.3383173424312
21
14.5073958766953
31
0.00000000000000
  0
ARC
  5
F106A8
330
F106A9
100
AcDbEntity
8
Geo
100
AcDbCircle
10
-58.1383173424312
20
14.5073958766953
30
0.00000000000000
 40
0.199999999999999
100
AcDbArc
 50
180.000000000000
 51
270.000000000000
  0
LINE
  5
F106AA
330
F106AB
100
AcDbEntity
8
Geo
100
AcDbLine
10
-58.1383173424312
20
14.3073958766953
30
0.00000000000000
11
-57.5383173424312
21
14.3073958766953
31
0.00000000000000
  0
LINE
  5
F106AC
330
F106AD
100
AcDbEntity
8
Geo
100
AcDbLine
10
-57.5383173424312
20
14.3073958766953
30
0.00000000000000
11
-57.5380087960551
21
14.3073958766953
31
0.00000000000000
  0
LINE
  5
F106AE
330
F106AF
100
AcDbEntity
8
Geo
100
AcDbLine
10
-57.5380087960551
20
14.3073958766953
30
0.00000000000000
11
-50.8203173424312
21
12.5073958766953
31
0.00000000000000
  0
LINE
  5
F106B0
330
F106B1
100
AcDbEntity
8
Geo
100
AcDbLine
10
-50.8203173424312
20
12.5073958766953
30
0.00000000000000
11
-18.9383173424312
21
12.5073958766953
31
0.00000000000000
  0
LINE
  5
F106B2
330
F106B3
100
AcDbEntity
8
Geo
100
AcDbLine
10
-18.9383173424312
20
12.5073958766953
30
0.00000000000000
11
-18.3383173424312
21
13.1073958766953
31
0.00000000000000
  0
LINE
  5
F106B4
330
F106B5
100
AcDbEntity
8
Geo
100
AcDbLine
10
-58.1383173424312
20
14.7073958766953
30
0.00000000000000
11
-58.1383173424312
21
14.3073958766953
31
0.00000000000000
  0
LINE
  5
F106B6
330
F106B7
100
AcDbEntity
8
Geo
100
AcDbLine
10
-57.5383173424312
20
14.7073958766953
30
0.00000000000000
11
-57.5383173424312
21
14.3073958766953
31
0.00000000000000
  0
LINE
  5
F106B8
330
F106B9
100
AcDbEntity
8
Geo
100
AcDbLine
10
-57.5383173424312
20
14.7073958766953
30
0.00000000000000
11
-57.5383173424312
21
14.3073958766953
31
0.00000000000000
  0
LINE
  5
F106BA
330
F106BB
100
AcDbEntity
8
Geo
100
AcDbLine
10
-57.5380087960551
20
14.7073958766953
30
0.00000000000000
11
-57.5380087960551
21
14.3073958766953
31
0.00000000000000
  0
LINE
  5
F106BC
330
F106BD
100
AcDbEntity
8
Geo
100
AcDbLine
10
-50.8203173424312
20
16.5073958766953
30
0.00000000000000
11
-50.8203173424312
21
12.5073958766953
31
0.00000000000000
  0
LINE
  5
F106BE
330
F106BF
100
AcDbEntity
8
Geo
100
AcDbLine
10
-50.8203173424312
20
16.5073958766953
30
0.00000000000000
11
-50.8203173424312
21
12.5073958766953
31
0.00000000000000
  0
LINE
  5
F106C0
330
F106C1
100
AcDbEntity
8
Geo
100
AcDbLine
10
-18.9383173424312
20
16.5073958766953
30
0.00000000000000
11
-18.9383173424312
21
12.5073958766953
31
0.00000000000000
  0
LINE
  5
F106C2
330
F106C3
100
AcDbEntity
8
Geo
100
AcDbLine
10
-18.3383173424312
20
15.9073958766953
30
0.00000000000000
11
-18.3383173424312
21
13.1073958766953
31
0.00000000000000
  0
LINE
  5
F106C4
330
F106C5
100
AcDbEntity
8
Geo
 6
Dashdot
100
AcDbLine
10
-58.3383173424312
20
14.5073958766953
30
0.00000000000000
11
-18.3383173424312
21
14.5073958766953
31
0.00000000000000
0
VIEWPORT
5
294
102
{ACAD_XDICTIONARY
360
58A
102
}
330
25D
100
AcDbEntity
67
1
8
0
60
1
100
AcDbViewport
10
0.0
20
0.0
30
0.0
40
10.0
41
10.0
68
-1
69
1
12
0.0
22
0.0
13
0.0
23
0.0
14
1.0
24
1.0
15
0.0
25
0.0
16
0.0
26
0.0
36
1.0
17
0.0
27
0.0
37
0.0
42
0.0
43
0.0
44
0.0
45
10.0
50
0.0
51
0.0000000000007958
72
100
90
32800
1

281
0
71
0
74
0
110
0.0
120
0.0
130
0.0
111
1.0
121
0.0
131
0.0
112
0.0
122
1.0
132
0.0
79
0
146
0.0
1001
VD_INVISIBLE_NOT_FOR_READ
1000
VD_INVISIBLE_NOT_FOR_READ
0
VIEWPORT
5
295
102
{ACAD_XDICTIONARY
360
58C
102
}
330
25D
100
AcDbEntity
67
1
8
0
60
1
100
AcDbViewport
10
0.0
20
0.0
30
0.0
40
10.0
41
10.0
68
0
69
2
12
0.0
22
0.0
13
0.0
23
0.0
14
1.0
24
1.0
15
0.0
25
0.0
16
0.0
26
0.0
36
1.0
17
0.0
27
0.0
37
0.0
42
0.0
43
0.0
44
0.0
45
10.0
50
0.0
51
0.0000000000007958
72
100
90
163872
1

281
0
71
0
74
0
110
0.0
120
0.0
130
0.0
111
1.0
121
0.0
131
0.0
112
0.0
122
1.0
132
0.0
79
0
146
0.0
1001
VD_INVISIBLE_NOT_FOR_READ
1000
VD_INVISIBLE_NOT_FOR_READ
0
ENDSEC
0
SECTION
2
OBJECTS
0
DICTIONARY
5
13
330
0
100
AcDbDictionary
281
1
3
ACAD_COLOR
350
FA7
3
ACAD_GROUP
350
14
3
ACAD_LAYOUT
350
FCF
3
ACAD_MATERIAL
350
F7A
3
ACAD_MLEADERSTYLE
350
FCD
3
ACAD_MLINESTYLE
350
16
3
ACAD_PLOTSETTINGS
350
17
3
ACAD_PLOTSTYLENAME
350
18
3
ACAD_SCALELIST
350
FAB
3
ACAD_TABLESTYLE
350
FA8
3
ACAD_VISUALSTYLE
350
F93
3
ACDB_RECOMPOSE_DATA
350
107E
3
AcDbVariableDictionary
350
FF0
3
DWGPROPS
350
107F
0
DICTIONARY
5
FA7
102
{ACAD_REACTORS
330
13
102
}
330
13
100
AcDbDictionary
281
1
0
DICTIONARY
5
14
330
13
100
AcDbDictionary
281
1
0
DICTIONARY
5
FCF
102
{ACAD_REACTORS
330
13
102
}
330
13
100
AcDbDictionary
281
1
3
Layout1
350
FD1
3
Model
350
FD0
0
DICTIONARY
5
F7A
102
{ACAD_REACTORS
330
13
102
}
330
13
100
AcDbDictionary
281
1
3
ByBlock
350
F83
3
ByLayer
350
F7B
3
Global
350
F8B
0
DICTIONARY
5
FCD
102
{ACAD_REACTORS
330
13
102
}
330
13
100
AcDbDictionary
281
1
3
Standard
350
FCE
0
DICTIONARY
5
16
330
13
100
AcDbDictionary
281
1
3
Standard
350
FAA
0
DICTIONARY
5
17
102
{ACAD_REACTORS
330
13
102
}
330
13
100
AcDbDictionary
281
1
0
ACDBDICTIONARYWDFLT
5
18
102
{ACAD_REACTORS
330
13
102
}
330
13
100
AcDbDictionary
281
1
3
Normal
350
19
100
AcDbDictionaryWithDefault
340
19
0
DICTIONARY
5
FAB
102
{ACAD_REACTORS
330
13
102
}
330
13
100
AcDbDictionary
281
1
3
A0
350
FAC
3
A1
350
FAD
3
A2
350
FAE
3
A3
350
FAF
3
A4
350
FB0
3
A5
350
FB1
3
A6
350
FB2
3
A7
350
FB3
3
A8
350
FB4
3
A9
350
FB5
3
B0
350
FB6
3
B1
350
FB7
3
B2
350
FB8
3
B3
350
FB9
3
B4
350
FBA
3
B5
350
FBB
3
B6
350
FBC
3
B7
350
FBD
3
B8
350
FBE
3
B9
350
FBF
3
C0
350
FC0
3
C1
350
FC1
3
C2
350
FC2
3
C3
350
FC3
3
C4
350
FC4
3
C5
350
FC5
3
C6
350
FC6
3
C7
350
FC7
3
C8
350
FC8
3
C9
350
FC9
3
D0
350
FCA
3
D1
350
FCB
3
D2
350
FCC
0
DICTIONARY
5
FA8
102
{ACAD_REACTORS
330
13
102
}
330
13
100
AcDbDictionary
281
1
3
Standard
350
FA9
0
DICTIONARY
5
F93
102
{ACAD_REACTORS
330
13
102
}
330
13
100
AcDbDictionary
281
1
3
2dWireframe
350
F99
3
3D Hidden
350
F9B
3
3dWireframe
350
F9A
3
Basic
350
F98
3
Brighten
350
F9F
3
ColorChange
350
FA3
3
Conceptual
350
F9C
3
Dim
350
F9E
3
EdgeColorOff
350
FA6
3
Facepattern
350
FA2
3
Flat
350
F94
3
FlatWithEdges
350
F95
3
Gouraud
350
F96
3
GouraudWithEdges
350
F97
3
JitterOff
350
FA4
3
Linepattern
350
FA1
3
OverhangOff
350
FA5
3
Realistic
350
F9D
3
Thicken
350
FA0
0
XRECORD
5
107E
102
{ACAD_REACTORS
330
13
102
}
330
13
100
AcDbXrecord
280
1
90
1
330
FA9
0
DICTIONARY
5
FF0
102
{ACAD_REACTORS
330
13
102
}
330
13
100
AcDbDictionary
281
1
3
CANNOSCALE
350
FF3
3
CMLEADERSTYLE
350
FF2
3
CTABLESTYLE
350
FF1
3
DIMASSOC
350
FF6
3
INDEXCTL
350
FF5
3
SORTENTS
350
FF4
3
XCLIPFRAME
350
1078
0
XRECORD
5
107F
102
{ACAD_REACTORS
330
13
102
}
330
13
100
AcDbXrecord
280
1
1
DWGPROPS COOKIE
2

3

4

6

7

8

9

300
=
301
=
302
=
303
=
304
=
305
=
306
=
307
=
308
=
309
=
40
0.0
41
0.0
42
0.0
1

90
0
0
LAYOUT
5
FD1
102
{ACAD_XDICTIONARY
360
10A9
102
}
102
{ACAD_REACTORS
330
FCF
102
}
330
FCF
100
AcDbPlotSettings
1

2
Microsoft XPS Document Writer
4

6

40
0.0
41
0.0
42
0.0
43
0.0
44
0.0
45
0.0
46
0.0
47
0.0
48
0.0
49
0.0
140
0.0
141
0.0
142
1.0
143
1.0
70
688
72
0
73
0
74
5
7

75
16
147
1.0
148
0.0
149
0.0
100
AcDbLayout
1
Layout1
70
1
71
1
10
0.0
20
0.0
11
12.0
21
9.0
12
0.0
22
0.0
32
0.0
14
1.000000000000000E+20
24
1.000000000000000E+20
34
1.000000000000000E+20
15
-1.000000000000000E+20
25
-1.000000000000000E+20
35
-1.000000000000000E+20
146
0.0
13
0.0
23
0.0
33
0.0
16
1.0
26
0.0
36
0.0
17
0.0
27
1.0
37
0.0
76
0
330
25D
0
LAYOUT
5
FD0
102
{ACAD_XDICTIONARY
360
10A7
102
}
102
{ACAD_REACTORS
330
FCF
102
}
330
FCF
100
AcDbPlotSettings
1

2
Microsoft XPS Document Writer
4

6

40
0.0
41
0.0
42
0.0
43
0.0
44
0.0
45
0.0
46
0.0
47
0.0
48
0.0
49
0.0
140
0.0
141
0.0
142
1.0
143
1.0
70
1712
72
0
73
0
74
0
7

75
0
147
1.0
148
0.0
149
0.0
100
AcDbLayout
1
Model
70
1
71
0
10
0.0
20
0.0
11
12.0
21
9.0
12
0.0
22
0.0
32
0.0
14
0.0
24
0.0
34
0.0
15
0.0
25
0.0
35
0.0
146
0.0
13
0.0
23
0.0
33
0.0
16
1.0
26
0.0
36
0.0
17
0.0
27
1.0
37
0.0
76
0
330
261
331
26B
0
MATERIAL
5
F83
102
{ACAD_XDICTIONARY
360
F84
102
}
102
{ACAD_REACTORS
330
F7A
102
}
330
F7A
100
AcDbMaterial
1
ByBlock
72
0
43
0.0208333333333333
43
0.0
43
0.0
43
0.0
43
0.0
43
0.0208333333333333
43
0.0
43
0.0
43
0.0
43
0.0
43
1.0
43
0.0
43
0.0
43
0.0
43
0.0
43
1.0
77
0
47
0.0208333333333333
47
0.0
47
0.0
47
0.0
47
0.0
47
0.0208333333333333
47
0.0
47
0.0
47
0.0
47
0.0
47
1.0
47
0.0
47
0.0
47
0.0
47
0.0
47
1.0
171
0
49
0.0208333333333333
49
0.0
49
0.0
49
0.0
49
0.0
49
0.0208333333333333
49
0.0
49
0.0
49
0.0
49
0.0
49
1.0
49
0.0
49
0.0
49
0.0
49
0.0
49
1.0
175
0
142
0.0208333333333333
142
0.0
142
0.0
142
0.0
142
0.0
142
0.0208333333333333
142
0.0
142
0.0
142
0.0
142
0.0
142
1.0
142
0.0
142
0.0
142
0.0
142
0.0
142
1.0
179
0
144
0.0208333333333333
144
0.0
144
0.0
144
0.0
144
0.0
144
0.0208333333333333
144
0.0
144
0.0
144
0.0
144
0.0
144
1.0
144
0.0
144
0.0
144
0.0
144
0.0
144
1.0
147
0.0208333333333333
147
0.0
147
0.0
147
0.0
147
0.0
147
0.0208333333333333
147
0.0
147
0.0
147
0.0
147
0.0
147
1.0
147
0.0
147
0.0
147
0.0
147
0.0
147
1.0
0
MATERIAL
5
F7B
102
{ACAD_XDICTIONARY
360
F7C
102
}
102
{ACAD_REACTORS
330
F7A
102
}
330
F7A
100
AcDbMaterial
1
ByLayer
72
0
43
0.0208333333333333
43
0.0
43
0.0
43
0.0
43
0.0
43
0.0208333333333333
43
0.0
43
0.0
43
0.0
43
0.0
43
1.0
43
0.0
43
0.0
43
0.0
43
0.0
43
1.0
77
0
47
0.0208333333333333
47
0.0
47
0.0
47
0.0
47
0.0
47
0.0208333333333333
47
0.0
47
0.0
47
0.0
47
0.0
47
1.0
47
0.0
47
0.0
47
0.0
47
0.0
47
1.0
171
0
49
0.0208333333333333
49
0.0
49
0.0
49
0.0
49
0.0
49
0.0208333333333333
49
0.0
49
0.0
49
0.0
49
0.0
49
1.0
49
0.0
49
0.0
49
0.0
49
0.0
49
1.0
175
0
142
0.0208333333333333
142
0.0
142
0.0
142
0.0
142
0.0
142
0.0208333333333333
142
0.0
142
0.0
142
0.0
142
0.0
142
1.0
142
0.0
142
0.0
142
0.0
142
0.0
142
1.0
179
0
144
0.0208333333333333
144
0.0
144
0.0
144
0.0
144
0.0
144
0.0208333333333333
144
0.0
144
0.0
144
0.0
144
0.0
144
1.0
144
0.0
144
0.0
144
0.0
144
0.0
144
1.0
147
0.0208333333333333
147
0.0
147
0.0
147
0.0
147
0.0
147
0.0208333333333333
147
0.0
147
0.0
147
0.0
147
0.0
147
1.0
147
0.0
147
0.0
147
0.0
147
0.0
147
1.0
0
MATERIAL
5
F8B
102
{ACAD_XDICTIONARY
360
F8C
102
}
102
{ACAD_REACTORS
330
F7A
102
}
330
F7A
100
AcDbMaterial
1
Global
72
0
43
0.0208333333333333
43
0.0
43
0.0
43
0.0
43
0.0
43
0.0208333333333333
43
0.0
43
0.0
43
0.0
43
0.0
43
1.0
43
0.0
43
0.0
43
0.0
43
0.0
43
1.0
77
0
47
0.0208333333333333
47
0.0
47
0.0
47
0.0
47
0.0
47
0.0208333333333333
47
0.0
47
0.0
47
0.0
47
0.0
47
1.0
47
0.0
47
0.0
47
0.0
47
0.0
47
1.0
171
0
49
0.0208333333333333
49
0.0
49
0.0
49
0.0
49
0.0
49
0.0208333333333333
49
0.0
49
0.0
49
0.0
49
0.0
49
1.0
49
0.0
49
0.0
49
0.0
49
0.0
49
1.0
175
0
142
0.0208333333333333
142
0.0
142
0.0
142
0.0
142
0.0
142
0.0208333333333333
142
0.0
142
0.0
142
0.0
142
0.0
142
1.0
142
0.0
142
0.0
142
0.0
142
0.0
142
1.0
179
0
144
0.0208333333333333
144
0.0
144
0.0
144
0.0
144
0.0
144
0.0208333333333333
144
0.0
144
0.0
144
0.0
144
0.0
144
1.0
144
0.0
144
0.0
144
0.0
144
0.0
144
1.0
147
0.0208333333333333
147
0.0
147
0.0
147
0.0
147
0.0
147
0.0208333333333333
147
0.0
147
0.0
147
0.0
147
0.0
147
1.0
147
0.0
147
0.0
147
0.0
147
0.0
147
1.0
0
MLEADERSTYLE
5
FCE
102
{ACAD_REACTORS
330
FCD
102
}
330
FCD
100
AcDbMLeaderStyle
170
2
171
1
172
0
90
2
40
0.0
41
0.0
173
1
91
-1056964608
340
256
92
-2
290
1
42
0.09
291
1
43
0.36
3
Standard
44
0.18
300

342
253
174
1
178
6
175
1
176
0
93
-1056964608
45
0.18
292
0
297
0
46
0.18
94
-1056964608
47
1.0
49
1.0
140
1.0
293
1
141
0.0
294
1
177
0
142
1.0
295
0
296
0
143
0.125
1001
ACAD_MLEADERVER
1070
2
0
MLINESTYLE
5
FAA
102
{ACAD_REACTORS
330
16
102
}
330
16
100
AcDbMlineStyle
2
STANDARD
70
0
3

62
256
51
90.0
52
90.0
71
2
49
0.5
62
256
6
BYLAYER
49
-0.5
62
256
6
BYLAYER
0
ACDBPLACEHOLDER
5
19
102
{ACAD_REACTORS
330
18
102
}
330
18
0
SCALE
5
FAC
102
{ACAD_REACTORS
330
FAB
102
}
330
FAB
100
AcDbScale
70
0
300
1:1
140
1.0
141
1.0
290
1
0
SCALE
5
FAD
102
{ACAD_REACTORS
330
FAB
102
}
330
FAB
100
AcDbScale
70
0
300
1:2
140
1.0
141
2.0
290
0
0
SCALE
5
FAE
102
{ACAD_REACTORS
330
FAB
102
}
330
FAB
100
AcDbScale
70
0
300
1:4
140
1.0
141
4.0
290
0
0
SCALE
5
FAF
102
{ACAD_REACTORS
330
FAB
102
}
330
FAB
100
AcDbScale
70
0
300
1:5
140
1.0
141
5.0
290
0
0
SCALE
5
FB0
102
{ACAD_REACTORS
330
FAB
102
}
330
FAB
100
AcDbScale
70
0
300
1:8
140
1.0
141
8.0
290
0
0
SCALE
5
FB1
102
{ACAD_REACTORS
330
FAB
102
}
330
FAB
100
AcDbScale
70
0
300
1:10
140
1.0
141
10.0
290
0
0
SCALE
5
FB2
102
{ACAD_REACTORS
330
FAB
102
}
330
FAB
100
AcDbScale
70
0
300
1:16
140
1.0
141
16.0
290
0
0
SCALE
5
FB3
102
{ACAD_REACTORS
330
FAB
102
}
330
FAB
100
AcDbScale
70
0
300
1:20
140
1.0
141
20.0
290
0
0
SCALE
5
FB4
102
{ACAD_REACTORS
330
FAB
102
}
330
FAB
100
AcDbScale
70
0
300
1:30
140
1.0
141
30.0
290
0
0
SCALE
5
FB5
102
{ACAD_REACTORS
330
FAB
102
}
330
FAB
100
AcDbScale
70
0
300
1:40
140
1.0
141
40.0
290
0
0
SCALE
5
FB6
102
{ACAD_REACTORS
330
FAB
102
}
330
FAB
100
AcDbScale
70
0
300
1:50
140
1.0
141
50.0
290
0
0
SCALE
5
FB7
102
{ACAD_REACTORS
330
FAB
102
}
330
FAB
100
AcDbScale
70
0
300
1:100
140
1.0
141
100.0
290
0
0
SCALE
5
FB8
102
{ACAD_REACTORS
330
FAB
102
}
330
FAB
100
AcDbScale
70
0
300
2:1
140
2.0
141
1.0
290
0
0
SCALE
5
FB9
102
{ACAD_REACTORS
330
FAB
102
}
330
FAB
100
AcDbScale
70
0
300
4:1
140
4.0
141
1.0
290
0
0
SCALE
5
FBA
102
{ACAD_REACTORS
330
FAB
102
}
330
FAB
100
AcDbScale
70
0
300
8:1
140
8.0
141
1.0
290
0
0
SCALE
5
FBB
102
{ACAD_REACTORS
330
FAB
102
}
330
FAB
100
AcDbScale
70
0
300
10:1
140
10.0
141
1.0
290
0
0
SCALE
5
FBC
102
{ACAD_REACTORS
330
FAB
102
}
330
FAB
100
AcDbScale
70
0
300
100:1
140
100.0
141
1.0
290
0
0
SCALE
5
FBD
102
{ACAD_REACTORS
330
FAB
102
}
330
FAB
100
AcDbScale
70
0
300
1/128" = 1'-0"
140
0.0078125
141
12.0
290
0
0
SCALE
5
FBE
102
{ACAD_REACTORS
330
FAB
102
}
330
FAB
100
AcDbScale
70
0
300
1/64" = 1'-0"
140
0.015625
141
12.0
290
0
0
SCALE
5
FBF
102
{ACAD_REACTORS
330
FAB
102
}
330
FAB
100
AcDbScale
70
0
300
1/32" = 1'-0"
140
0.03125
141
12.0
290
0
0
SCALE
5
FC0
102
{ACAD_REACTORS
330
FAB
102
}
330
FAB
100
AcDbScale
70
0
300
1/16" = 1'-0"
140
0.0625
141
12.0
290
0
0
SCALE
5
FC1
102
{ACAD_REACTORS
330
FAB
102
}
330
FAB
100
AcDbScale
70
0
300
3/32" = 1'-0"
140
0.09375
141
12.0
290
0
0
SCALE
5
FC2
102
{ACAD_REACTORS
330
FAB
102
}
330
FAB
100
AcDbScale
70
0
300
1/8" = 1'-0"
140
0.125
141
12.0
290
0
0
SCALE
5
FC3
102
{ACAD_REACTORS
330
FAB
102
}
330
FAB
100
AcDbScale
70
0
300
3/16" = 1'-0"
140
0.1875
141
12.0
290
0
0
SCALE
5
FC4
102
{ACAD_REACTORS
330
FAB
102
}
330
FAB
100
AcDbScale
70
0
300
1/4" = 1'-0"
140
0.25
141
12.0
290
0
0
SCALE
5
FC5
102
{ACAD_REACTORS
330
FAB
102
}
330
FAB
100
AcDbScale
70
0
300
3/8" = 1'-0"
140
0.375
141
12.0
290
0
0
SCALE
5
FC6
102
{ACAD_REACTORS
330
FAB
102
}
330
FAB
100
AcDbScale
70
0
300
1/2" = 1'-0"
140
0.5
141
12.0
290
0
0
SCALE
5
FC7
102
{ACAD_REACTORS
330
FAB
102
}
330
FAB
100
AcDbScale
70
0
300
3/4" = 1'-0"
140
0.75
141
12.0
290
0
0
SCALE
5
FC8
102
{ACAD_REACTORS
330
FAB
102
}
330
FAB
100
AcDbScale
70
0
300
1" = 1'-0"
140
1.0
141
12.0
290
0
0
SCALE
5
FC9
102
{ACAD_REACTORS
330
FAB
102
}
330
FAB
100
AcDbScale
70
0
300
1-1/2" = 1'-0"
140
1.5
141
12.0
290
0
0
SCALE
5
FCA
102
{ACAD_REACTORS
330
FAB
102
}
330
FAB
100
AcDbScale
70
0
300
3" = 1'-0"
140
3.0
141
12.0
290
0
0
SCALE
5
FCB
102
{ACAD_REACTORS
330
FAB
102
}
330
FAB
100
AcDbScale
70
0
300
6" = 1'-0"
140
6.0
141
12.0
290
0
0
SCALE
5
FCC
102
{ACAD_REACTORS
330
FAB
102
}
330
FAB
100
AcDbScale
70
0
300
1'-0" = 1'-0"
140
12.0
141
12.0
290
0
0
TABLESTYLE
5
FA9
102
{ACAD_XDICTIONARY
360
FF8
102
}
102
{ACAD_REACTORS
330
FA8
102
}
330
FA8
100
AcDbTableStyle
3
Standard
70
0
71
0
40
0.06
41
0.06
280
0
281
0
7
Standard
140
0.18
170
2
62
0
63
7
283
0
274
-2
284
1
64
0
275
-2
285
1
65
0
276
-2
286
1
66
0
277
-2
287
1
67
0
278
-2
288
1
68
0
279
-2
289
1
69
0
7
Standard
140
0.25
170
5
62
0
63
7
283
0
274
-2
284
1
64
0
275
-2
285
1
65
0
276
-2
286
1
66
0
277
-2
287
1
67
0
278
-2
288
1
68
0
279
-2
289
1
69
0
7
Standard
140
0.18
170
5
62
0
63
7
283
0
274
-2
284
1
64
0
275
-2
285
1
65
0
276
-2
286
1
66
0
277
-2
287
1
67
0
278
-2
288
1
68
0
279
-2
289
1
69
0
0
VISUALSTYLE
5
F99
102
{ACAD_XDICTIONARY
360
108A
102
}
102
{ACAD_REACTORS
330
F93
102
}
330
F93
100
AcDbVisualStyle
2

70
4
71
0
72
2
73
0
90
0
40
-0.6
41
-30.0
62
5
63
7
74
1
91
4
64
7
65
257
75
1
175
1
42
1.0
92
0
66
257
43
1.0
76
1
77
6
78
2
67
7
79
5
170
0
171
0
290
0
174
0
93
1
44
0.0
173
0
291
0
45
0.0
1001
ACAD
1000
AcDbSavedByObjectVersion
1070
0
0
VISUALSTYLE
5
F9B
102
{ACAD_XDICTIONARY
360
108E
102
}
102
{ACAD_REACTORS
330
F93
102
}
330
F93
100
AcDbVisualStyle
2

70
6
71
1
72
2
73
2
90
0
40
-0.6
41
-30.0
62
5
63
7
74
2
91
2
64
7
65
257
75
2
175
1
42
179.0
92
0
66
257
43
1.0
76
1
77
6
78
2
67
7
79
3
170
0
171
0
290
0
174
0
93
1
44
0.0
173
0
291
0
45
0.0
1001
ACAD
1000
AcDbSavedByObjectVersion
1070
0
0
VISUALSTYLE
5
F9A
102
{ACAD_XDICTIONARY
360
108C
102
}
102
{ACAD_REACTORS
330
F93
102
}
330
F93
100
AcDbVisualStyle
2

70
5
71
0
72
2
73
0
90
0
40
-0.6
41
-30.0
62
5
63
7
74
1
91
4
64
7
65
257
75
1
175
1
42
1.0
92
0
66
257
43
1.0
76
1
77
6
78
2
67
7
79
5
170
0
171
0
290
0
174
0
93
1
44
0.0
173
0
291
0
45
0.0
1001
ACAD
1000
AcDbSavedByObjectVersion
1070
0
0
VISUALSTYLE
5
F98
102
{ACAD_XDICTIONARY
360
1088
102
}
102
{ACAD_REACTORS
330
F93
102
}
330
F93
100
AcDbVisualStyle
2

70
7
71
1
72
0
73
1
90
0
40
-0.6
41
-30.0
62
5
63
7
74
0
91
4
64
7
65
257
75
1
175
1
42
1.0
92
8
66
7
43
1.0
76
1
77
6
78
2
67
7
79
5
170
0
171
0
290
0
174
0
93
1
44
0.0
173
0
291
1
45
0.0
1001
ACAD
1000
AcDbSavedByObjectVersion
1070
0
0
VISUALSTYLE
5
F9F
102
{ACAD_XDICTIONARY
360
1096
102
}
102
{ACAD_REACTORS
330
F93
102
}
330
F93
100
AcDbVisualStyle
2

70
12
71
2
72
2
73
0
90
0
40
-0.6
41
-30.0
62
5
63
7
74
1
91
4
64
7
65
257
75
1
175
1
42
1.0
92
8
66
7
43
1.0
76
1
77
6
78
2
67
7
79
5
170
0
171
0
290
0
174
0
93
1
44
50.0
173
0
291
1
45
0.0
1001
ACAD
1000
AcDbSavedByObjectVersion
1070
0
0
VISUALSTYLE
5
FA3
102
{ACAD_XDICTIONARY
360
109E
102
}
102
{ACAD_REACTORS
330
F93
102
}
330
F93
100
AcDbVisualStyle
2

70
16
71
2
72
2
73
3
90
0
40
-0.6
41
-30.0
62
5
63
8
74
1
91
4
64
7
65
257
75
1
175
1
42
1.0
92
8
66
8
43
1.0
76
1
77
6
78
2
67
7
79
5
170
0
171
0
290
0
174
0
93
1
44
0.0
173
0
291
1
45
0.0
1001
ACAD
1000
AcDbSavedByObjectVersion
1070
0
0
VISUALSTYLE
5
F9C
102
{ACAD_XDICTIONARY
360
1090
102
}
102
{ACAD_REACTORS
330
F93
102
}
330
F93
100
AcDbVisualStyle
2

70
9
71
3
72
2
73
0
90
0
40
-0.6
41
-30.0
62
5
63
7
74
2
91
2
64
7
65
257
75
1
175
1
42
179.0
92
8
66
7
43
1.0
76
1
77
6
78
2
67
7
79
3
170
0
171
0
290
0
174
0
93
1
44
0.0
173
0
291
0
45
0.0
1001
ACAD
1000
AcDbSavedByObjectVersion
1070
0
0
VISUALSTYLE
5
F9E
102
{ACAD_XDICTIONARY
360
1094
102
}
102
{ACAD_REACTORS
330
F93
102
}
330
F93
100
AcDbVisualStyle
2

70
11
71
2
72
2
73
0
90
0
40
-0.6
41
-30.0
62
5
63
7
74
1
91
4
64
7
65
257
75
1
175
1
42
1.0
92
8
66
7
43
1.0
76
1
77
6
78
2
67
7
79
5
170
0
171
0
290
0
174
0
93
1
44
-50.0
173
0
291
1
45
0.0
1001
ACAD
1000
AcDbSavedByObjectVersion
1070
0
0
VISUALSTYLE
5
FA6
102
{ACAD_XDICTIONARY
360
10A4
102
}
102
{ACAD_REACTORS
330
F93
102
}
330
F93
100
AcDbVisualStyle
2

70
22
71
2
72
2
73
0
90
0
40
-0.6
41
-30.0
62
5
63
7
74
1
91
4
64
7
65
257
75
1
175
1
42
1.0
92
8
66
7
43
1.0
76
1
77
6
78
2
67
7
79
5
170
0
171
0
290
0
174
0
93
1
44
0.0
173
0
291
1
45
0.0
1001
ACAD
1000
AcDbSavedByObjectVersion
1070
0
0
VISUALSTYLE
5
FA2
102
{ACAD_XDICTIONARY
360
109C
102
}
102
{ACAD_REACTORS
330
F93
102
}
330
F93
100
AcDbVisualStyle
2

70
15
71
2
72
2
73
0
90
0
40
-0.6
41
-30.0
62
5
63
7
74
1
91
4
64
7
65
257
75
1
175
1
42
1.0
92
8
66
7
43
1.0
76
1
77
6
78
2
67
7
79
5
170
0
171
0
290
0
174
0
93
1
44
0.0
173
0
291
1
45
0.0
1001
ACAD
1000
AcDbSavedByObjectVersion
1070
0
0
VISUALSTYLE
5
F94
102
{ACAD_XDICTIONARY
360
1080
102
}
102
{ACAD_REACTORS
330
F93
102
}
330
F93
100
AcDbVisualStyle
2

70
0
71
2
72
1
73
1
90
2
40
-0.6
41
30.0
62
5
63
7
74
0
91
4
64
7
65
257
75
1
175
1
42
1.0
92
8
66
7
43
1.0
76
1
77
6
78
2
67
7
79
5
170
0
171
0
290
0
174
0
93
13
44
0.0
173
0
291
1
45
0.0
1001
ACAD
1000
AcDbSavedByObjectVersion
1070
0
0
VISUALSTYLE
5
F95
102
{ACAD_XDICTIONARY
360
1082
102
}
102
{ACAD_REACTORS
330
F93
102
}
330
F93
100
AcDbVisualStyle
2

70
1
71
2
72
1
73
1
90
2
40
-0.6
41
30.0
62
5
63
7
74
1
91
4
64
7
65
257
75
1
175
1
42
1.0
92
0
66
257
43
1.0
76
1
77
6
78
2
67
7
79
5
170
0
171
0
290
0
174
0
93
13
44
0.0
173
0
291
1
45
0.0
1001
ACAD
1000
AcDbSavedByObjectVersion
1070
0
0
VISUALSTYLE
5
F96
102
{ACAD_XDICTIONARY
360
1084
102
}
102
{ACAD_REACTORS
330
F93
102
}
330
F93
100
AcDbVisualStyle
2

70
2
71
2
72
2
73
1
90
2
40
-0.6
41
30.0
62
5
63
7
74
0
91
4
64
7
65
257
75
1
175
1
42
1.0
92
0
66
7
43
1.0
76
1
77
6
78
2
67
7
79
5
170
0
171
0
290
0
174
0
93
13
44
0.0
173
0
291
1
45
0.0
1001
ACAD
1000
AcDbSavedByObjectVersion
1070
0
0
VISUALSTYLE
5
F97
102
{ACAD_XDICTIONARY
360
1086
102
}
102
{ACAD_REACTORS
330
F93
102
}
330
F93
100
AcDbVisualStyle
2

70
3
71
2
72
2
73
1
90
2
40
-0.6
41
30.0
62
5
63
7
74
1
91
4
64
7
65
257
75
1
175
1
42
1.0
92
0
66
257
43
1.0
76
1
77
6
78
2
67
7
79
5
170
0
171
0
290
0
174
0
93
13
44
0.0
173
0
291
1
45
0.0
1001
ACAD
1000
AcDbSavedByObjectVersion
1070
0
0
VISUALSTYLE
5
FA4
102
{ACAD_XDICTIONARY
360
10A0
102
}
102
{ACAD_REACTORS
330
F93
102
}
330
F93
100
AcDbVisualStyle
2

70
20
71
2
72
2
73
0
90
0
40
-0.6
41
-30.0
62
5
63
7
74
1
91
4
64
7
65
257
75
1
175
1
42
1.0
92
10
66
7
43
1.0
76
1
77
6
78
2
67
7
79
5
170
0
171
0
290
0
174
0
93
1
44
0.0
173
0
291
1
45
0.0
1001
ACAD
1000
AcDbSavedByObjectVersion
1070
0
0
VISUALSTYLE
5
FA1
102
{ACAD_XDICTIONARY
360
109A
102
}
102
{ACAD_REACTORS
330
F93
102
}
330
F93
100
AcDbVisualStyle
2

70
14
71
2
72
2
73
0
90
0
40
-0.6
41
-30.0
62
5
63
7
74
1
91
4
64
7
65
257
75
7
175
7
42
1.0
92
8
66
7
43
1.0
76
1
77
6
78
2
67
7
79
5
170
0
171
0
290
0
174
0
93
1
44
0.0
173
0
291
1
45
0.0
1001
ACAD
1000
AcDbSavedByObjectVersion
1070
0
0
VISUALSTYLE
5
FA5
102
{ACAD_XDICTIONARY
360
10A2
102
}
102
{ACAD_REACTORS
330
F93
102
}
330
F93
100
AcDbVisualStyle
2

70
21
71
2
72
2
73
0
90
0
40
-0.6
41
-30.0
62
5
63
7
74
1
91
4
64
7
65
257
75
1
175
1
42
1.0
92
9
66
7
43
1.0
76
1
77
6
78
2
67
7
79
5
170
0
171
0
290
0
174
0
93
1
44
0.0
173
0
291
1
45
0.0
1001
ACAD
1000
AcDbSavedByObjectVersion
1070
0
0
VISUALSTYLE
5
F9D
102
{ACAD_XDICTIONARY
360
1092
102
}
102
{ACAD_REACTORS
330
F93
102
}
330
F93
100
AcDbVisualStyle
2

70
8
71
2
72
2
73
0
90
0
40
-0.6
41
-30.0
62
5
63
7
74
1
91
0
64
7
65
257
75
1
175
1
42
1.0
92
8
66
8
43
1.0
76
1
77
6
78
2
67
7
79
5
170
0
171
0
290
0
174
0
93
13
44
0.0
173
0
291
0
45
0.0
1001
ACAD
1000
AcDbSavedByObjectVersion
1070
0
0
VISUALSTYLE
5
FA0
102
{ACAD_XDICTIONARY
360
1098
102
}
102
{ACAD_REACTORS
330
F93
102
}
330
F93
100
AcDbVisualStyle
2

70
13
71
2
72
2
73
0
90
0
40
-0.6
41
-30.0
62
5
63
7
74
1
91
4
64
7
65
257
75
1
175
1
42
1.0
92
12
66
7
43
1.0
76
1
77
6
78
2
67
7
79
5
170
0
171
0
290
0
174
0
93
1
44
0.0
173
0
291
1
45
0.0
1001
ACAD
1000
AcDbSavedByObjectVersion
1070
0
0
DICTIONARYVAR
5
FF3
102
{ACAD_REACTORS
330
FF0
102
}
330
FF0
100
DictionaryVariables
280
0
1
1:1
0
DICTIONARYVAR
5
FF2
102
{ACAD_REACTORS
330
FF0
102
}
330
FF0
100
DictionaryVariables
280
0
1
STANDARD
0
DICTIONARYVAR
5
FF1
102
{ACAD_REACTORS
330
FF0
102
}
330
FF0
100
DictionaryVariables
280
0
1
STANDARD
0
DICTIONARYVAR
5
FF6
102
{ACAD_REACTORS
330
FF0
102
}
330
FF0
100
DictionaryVariables
280
0
1
1
0
DICTIONARYVAR
5
FF5
102
{ACAD_REACTORS
330
FF0
102
}
330
FF0
100
DictionaryVariables
280
0
1
0
0
DICTIONARYVAR
5
FF4
102
{ACAD_REACTORS
330
FF0
102
}
330
FF0
100
DictionaryVariables
280
0
1
127
0
DICTIONARYVAR
5
1078
102
{ACAD_REACTORS
330
FF0
102
}
330
FF0
100
DictionaryVariables
280
0
1
2
0
DICTIONARY
5
10A9
330
FD1
100
AcDbDictionary
280
1
281
1
3
ACAD_XREC_ROUNDTRIP
360
10AA
0
DICTIONARY
5
10A7
330
FD0
100
AcDbDictionary
280
1
281
1
3
ACAD_XREC_ROUNDTRIP
360
10A8
0
DICTIONARY
5
F84
330
F83
100
AcDbDictionary
280
1
281
1
3
ACAD_XREC_ROUNDTRIP
360
FFF
3
BUMPTILE
360
F86
3
DIFFUSETILE
360
F85
3
OPACITYTILE
360
F89
3
REFLECTIONTILE
360
F88
3
REFRACTIONTILE
360
F8A
3
SPECULARTILE
360
F87
0
DICTIONARY
5
F7C
330
F7B
100
AcDbDictionary
280
1
281
1
3
ACAD_XREC_ROUNDTRIP
360
FFE
3
BUMPTILE
360
F7E
3
DIFFUSETILE
360
F7D
3
OPACITYTILE
360
F81
3
REFLECTIONTILE
360
F80
3
REFRACTIONTILE
360
F82
3
SPECULARTILE
360
F7F
0
DICTIONARY
5
F8C
330
F8B
100
AcDbDictionary
280
1
281
1
3
ACAD_XREC_ROUNDTRIP
360
1000
3
BUMPTILE
360
F8E
3
DIFFUSETILE
360
F8D
3
OPACITYTILE
360
F91
3
REFLECTIONTILE
360
F90
3
REFRACTIONTILE
360
F92
3
SPECULARTILE
360
F8F
0
DICTIONARY
5
FF8
330
FA9
100
AcDbDictionary
280
1
281
1
3
ACAD_ROUNDTRIP_2008_TABLESTYLE_CELLSTYLEMAP
360
1079
3
ACAD_XREC_ROUNDTRIP
360
10A6
0
DICTIONARY
5
108A
330
F99
100
AcDbDictionary
280
1
281
1
3
ACAD_XREC_ROUNDTRIP
360
108B
0
DICTIONARY
5
108E
330
F9B
100
AcDbDictionary
280
1
281
1
3
ACAD_XREC_ROUNDTRIP
360
108F
0
DICTIONARY
5
108C
330
F9A
100
AcDbDictionary
280
1
281
1
3
ACAD_XREC_ROUNDTRIP
360
108D
0
DICTIONARY
5
1088
330
F98
100
AcDbDictionary
280
1
281
1
3
ACAD_XREC_ROUNDTRIP
360
1089
0
DICTIONARY
5
1096
330
F9F
100
AcDbDictionary
280
1
281
1
3
ACAD_XREC_ROUNDTRIP
360
1097
0
DICTIONARY
5
109E
330
FA3
100
AcDbDictionary
280
1
281
1
3
ACAD_XREC_ROUNDTRIP
360
109F
0
DICTIONARY
5
1090
330
F9C
100
AcDbDictionary
280
1
281
1
3
ACAD_XREC_ROUNDTRIP
360
1091
0
DICTIONARY
5
1094
330
F9E
100
AcDbDictionary
280
1
281
1
3
ACAD_XREC_ROUNDTRIP
360
1095
0
DICTIONARY
5
10A4
330
FA6
100
AcDbDictionary
280
1
281
1
3
ACAD_XREC_ROUNDTRIP
360
10A5
0
DICTIONARY
5
109C
330
FA2
100
AcDbDictionary
280
1
281
1
3
ACAD_XREC_ROUNDTRIP
360
109D
0
DICTIONARY
5
1080
330
F94
100
AcDbDictionary
280
1
281
1
3
ACAD_XREC_ROUNDTRIP
360
1081
0
DICTIONARY
5
1082
330
F95
100
AcDbDictionary
280
1
281
1
3
ACAD_XREC_ROUNDTRIP
360
1083
0
DICTIONARY
5
1084
330
F96
100
AcDbDictionary
280
1
281
1
3
ACAD_XREC_ROUNDTRIP
360
1085
0
DICTIONARY
5
1086
330
F97
100
AcDbDictionary
280
1
281
1
3
ACAD_XREC_ROUNDTRIP
360
1087
0
DICTIONARY
5
10A0
330
FA4
100
AcDbDictionary
280
1
281
1
3
ACAD_XREC_ROUNDTRIP
360
10A1
0
DICTIONARY
5
109A
330
FA1
100
AcDbDictionary
280
1
281
1
3
ACAD_XREC_ROUNDTRIP
360
109B
0
DICTIONARY
5
10A2
330
FA5
100
AcDbDictionary
280
1
281
1
3
ACAD_XREC_ROUNDTRIP
360
10A3
0
DICTIONARY
5
1092
330
F9D
100
AcDbDictionary
280
1
281
1
3
ACAD_XREC_ROUNDTRIP
360
1093
0
DICTIONARY
5
1098
330
FA0
100
AcDbDictionary
280
1
281
1
3
ACAD_XREC_ROUNDTRIP
360
1099
0
XRECORD
5
10AA
102
{ACAD_REACTORS
330
10A9
102
}
330
10A9
100
AcDbXrecord
280
1
102
SHADEPLOT
70
0
102
SHADEPLOTRESLEVEL
70
2
102
SHADEPLOTCUSTOMDPI
70
300
0
XRECORD
5
10A8
102
{ACAD_REACTORS
330
10A7
102
}
330
10A7
100
AcDbXrecord
280
1
102
SHADEPLOT
70
0
102
SHADEPLOTRESLEVEL
70
2
102
SHADEPLOTCUSTOMDPI
70
300
0
XRECORD
5
FFF
102
{ACAD_REACTORS
330
F84
102
}
330
F84
100
AcDbXrecord
280
1
102
MATERIAL
148
0.0
149
0.0
149
0.0
93
0
94
127
282
0
72
0
77
0
171
0
175
0
179
0
273
0
0
XRECORD
5
F86
102
{ACAD_REACTORS
330
F84
102
}
330
F84
100
AcDbXrecord
280
1
270
1
271
1
0
XRECORD
5
F85
102
{ACAD_REACTORS
330
F84
102
}
330
F84
100
AcDbXrecord
280
1
270
1
271
1
0
XRECORD
5
F89
102
{ACAD_REACTORS
330
F84
102
}
330
F84
100
AcDbXrecord
280
1
270
1
271
1
0
XRECORD
5
F88
102
{ACAD_REACTORS
330
F84
102
}
330
F84
100
AcDbXrecord
280
1
270
1
271
1
0
XRECORD
5
F8A
102
{ACAD_REACTORS
330
F84
102
}
330
F84
100
AcDbXrecord
280
1
270
1
271
1
0
XRECORD
5
F87
102
{ACAD_REACTORS
330
F84
102
}
330
F84
100
AcDbXrecord
280
1
270
1
271
1
0
XRECORD
5
FFE
102
{ACAD_REACTORS
330
F7C
102
}
330
F7C
100
AcDbXrecord
280
1
102
MATERIAL
148
0.0
149
0.0
149
0.0
93
0
94
127
282
0
72
0
77
0
171
0
175
0
179
0
273
0
0
XRECORD
5
F7E
102
{ACAD_REACTORS
330
F7C
102
}
330
F7C
100
AcDbXrecord
280
1
270
1
271
1
0
XRECORD
5
F7D
102
{ACAD_REACTORS
330
F7C
102
}
330
F7C
100
AcDbXrecord
280
1
270
1
271
1
0
XRECORD
5
F81
102
{ACAD_REACTORS
330
F7C
102
}
330
F7C
100
AcDbXrecord
280
1
270
1
271
1
0
XRECORD
5
F80
102
{ACAD_REACTORS
330
F7C
102
}
330
F7C
100
AcDbXrecord
280
1
270
1
271
1
0
XRECORD
5
F82
102
{ACAD_REACTORS
330
F7C
102
}
330
F7C
100
AcDbXrecord
280
1
270
1
271
1
0
XRECORD
5
F7F
102
{ACAD_REACTORS
330
F7C
102
}
330
F7C
100
AcDbXrecord
280
1
270
1
271
1
0
XRECORD
5
1000
102
{ACAD_REACTORS
330
F8C
102
}
330
F8C
100
AcDbXrecord
280
1
102
MATERIAL
148
0.0
149
0.0
149
0.0
93
0
94
127
282
0
72
0
77
0
171
0
175
0
179
0
273
0
0
XRECORD
5
F8E
102
{ACAD_REACTORS
330
F8C
102
}
330
F8C
100
AcDbXrecord
280
1
270
1
271
1
0
XRECORD
5
F8D
102
{ACAD_REACTORS
330
F8C
102
}
330
F8C
100
AcDbXrecord
280
1
270
1
271
1
0
XRECORD
5
F91
102
{ACAD_REACTORS
330
F8C
102
}
330
F8C
100
AcDbXrecord
280
1
270
1
271
1
0
XRECORD
5
F90
102
{ACAD_REACTORS
330
F8C
102
}
330
F8C
100
AcDbXrecord
280
1
270
1
271
1
0
XRECORD
5
F92
102
{ACAD_REACTORS
330
F8C
102
}
330
F8C
100
AcDbXrecord
280
1
270
1
271
1
0
XRECORD
5
F8F
102
{ACAD_REACTORS
330
F8C
102
}
330
F8C
100
AcDbXrecord
280
1
270
1
271
1
0
CELLSTYLEMAP
5
1079
102
{ACAD_REACTORS
330
FF8
102
}
330
FF8
100
AcDbCellStyleMap
90
3
300
CELLSTYLE
1
TABLEFORMAT_BEGIN
90
5
170
1
91
0
92
32768
62
257
93
1
300
CONTENTFORMAT
1
CONTENTFORMAT_BEGIN
90
0
91
0
92
512
93
0
300

40
0.0
140
1.0
94
5
62
0
340
253
144
0.25
309
CONTENTFORMAT_END
171
1
301
MARGIN
1
CELLMARGIN_BEGIN
40
0.06
40
0.06
40
0.06
40
0.06
40
0.18
40
0.18
309
CELLMARGIN_END
94
6
95
1
302
GRIDFORMAT
1
GRIDFORMAT_BEGIN
90
0
91
1
62
0
92
-2
340
0
93
0
40
0.045
309
GRIDFORMAT_END
95
2
302
GRIDFORMAT
1
GRIDFORMAT_BEGIN
90
0
91
1
62
0
92
-2
340
0
93
0
40
0.045
309
GRIDFORMAT_END
95
4
302
GRIDFORMAT
1
GRIDFORMAT_BEGIN
90
0
91
1
62
0
92
-2
340
0
93
0
40
0.045
309
GRIDFORMAT_END
95
8
302
GRIDFORMAT
1
GRIDFORMAT_BEGIN
90
0
91
1
62
0
92
-2
340
0
93
0
40
0.045
309
GRIDFORMAT_END
95
16
302
GRIDFORMAT
1
GRIDFORMAT_BEGIN
90
0
91
1
62
0
92
-2
340
0
93
0
40
0.045
309
GRIDFORMAT_END
95
32
302
GRIDFORMAT
1
GRIDFORMAT_BEGIN
90
0
91
1
62
0
92
-2
340
0
93
0
40
0.045
309
GRIDFORMAT_END
309
TABLEFORMAT_END
1
CELLSTYLE_BEGIN
90
1
91
1
300
_TITLE
309
CELLSTYLE_END
300
CELLSTYLE
1
TABLEFORMAT_BEGIN
90
5
170
1
91
0
92
0
62
257
93
1
300
CONTENTFORMAT
1
CONTENTFORMAT_BEGIN
90
0
91
0
92
512
93
0
300

40
0.0
140
1.0
94
5
62
0
340
253
144
0.18
309
CONTENTFORMAT_END
171
1
301
MARGIN
1
CELLMARGIN_BEGIN
40
0.06
40
0.06
40
0.06
40
0.06
40
0.18
40
0.18
309
CELLMARGIN_END
94
6
95
1
302
GRIDFORMAT
1
GRIDFORMAT_BEGIN
90
0
91
1
62
0
92
-2
340
0
93
0
40
0.045
309
GRIDFORMAT_END
95
2
302
GRIDFORMAT
1
GRIDFORMAT_BEGIN
90
0
91
1
62
0
92
-2
340
0
93
0
40
0.045
309
GRIDFORMAT_END
95
4
302
GRIDFORMAT
1
GRIDFORMAT_BEGIN
90
0
91
1
62
0
92
-2
340
0
93
0
40
0.045
309
GRIDFORMAT_END
95
8
302
GRIDFORMAT
1
GRIDFORMAT_BEGIN
90
0
91
1
62
0
92
-2
340
0
93
0
40
0.045
309
GRIDFORMAT_END
95
16
302
GRIDFORMAT
1
GRIDFORMAT_BEGIN
90
0
91
1
62
0
92
-2
340
0
93
0
40
0.045
309
GRIDFORMAT_END
95
32
302
GRIDFORMAT
1
GRIDFORMAT_BEGIN
90
0
91
1
62
0
92
-2
340
0
93
0
40
0.045
309
GRIDFORMAT_END
309
TABLEFORMAT_END
1
CELLSTYLE_BEGIN
90
2
91
1
300
_HEADER
309
CELLSTYLE_END
300
CELLSTYLE
1
TABLEFORMAT_BEGIN
90
5
170
1
91
0
92
0
62
257
93
1
300
CONTENTFORMAT
1
CONTENTFORMAT_BEGIN
90
0
91
0
92
512
93
0
300

40
0.0
140
1.0
94
2
62
0
340
253
144
0.18
309
CONTENTFORMAT_END
171
1
301
MARGIN
1
CELLMARGIN_BEGIN
40
0.06
40
0.06
40
0.06
40
0.06
40
0.18
40
0.18
309
CELLMARGIN_END
94
6
95
1
302
GRIDFORMAT
1
GRIDFORMAT_BEGIN
90
0
91
1
62
0
92
-2
340
0
93
0
40
0.045
309
GRIDFORMAT_END
95
2
302
GRIDFORMAT
1
GRIDFORMAT_BEGIN
90
0
91
1
62
0
92
-2
340
0
93
0
40
0.045
309
GRIDFORMAT_END
95
4
302
GRIDFORMAT
1
GRIDFORMAT_BEGIN
90
0
91
1
62
0
92
-2
340
0
93
0
40
0.045
309
GRIDFORMAT_END
95
8
302
GRIDFORMAT
1
GRIDFORMAT_BEGIN
90
0
91
1
62
0
92
-2
340
0
93
0
40
0.045
309
GRIDFORMAT_END
95
16
302
GRIDFORMAT
1
GRIDFORMAT_BEGIN
90
0
91
1
62
0
92
-2
340
0
93
0
40
0.045
309
GRIDFORMAT_END
95
32
302
GRIDFORMAT
1
GRIDFORMAT_BEGIN
90
0
91
1
62
0
92
-2
340
0
93
0
40
0.045
309
GRIDFORMAT_END
309
TABLEFORMAT_END
1
CELLSTYLE_BEGIN
90
3
91
2
300
_DATA
309
CELLSTYLE_END
0
XRECORD
5
10A6
102
{ACAD_REACTORS
330
FF8
102
}
330
FF8
100
AcDbXrecord
280
1
102
ACAD_ROUNDTRIP_PRE2007_TABLESTYLE
90
512
91
0
1

92
512
93
0
2

94
512
95
0
3

0
XRECORD
5
108B
102
{ACAD_REACTORS
330
108A
102
}
330
108A
100
AcDbXrecord
280
1
102
RTVSPropertyOp0
70
1
102
RTVSPropertyOp1
70
1
102
RTVSPropertyOp2
70
1
102
RTVSPropertyOp3
70
1
102
RTVSPropertyOp4
70
1
102
RTVSPropertyOp5
70
1
102
RTVSPropertyOp6
70
1
102
RTVSPropertyOp7
70
1
102
RTVSPropertyOp8
70
1
102
RTVSPropertyOp9
70
1
102
RTVSPropertyOp10
70
1
102
RTVSPropertyOp11
70
1
102
RTVSPropertyOp12
70
1
102
RTVSPropertyOp13
70
1
102
RTVSPropertyOp14
70
1
102
RTVSPropertyOp15
70
1
102
RTVSPropertyOp16
70
1
102
RTVSPropertyOp17
70
1
102
RTVSPropertyOp18
70
1
102
RTVSPropertyOp19
70
1
102
RTVSPropertyOp20
70
1
102
RTVSPropertyOp21
70
1
102
RTVSPropertyOp22
70
1
102
RTVSPropertyOp23
70
1
102
RTVSPropertyOp24
70
1
102
RTVSPropertyOp25
70
1
102
RTVSPropertyOp26
70
1
102
RTVSPropertyOp27
70
1
0
XRECORD
5
108F
102
{ACAD_REACTORS
330
108E
102
}
330
108E
100
AcDbXrecord
280
1
102
RTVSPropertyOp0
70
1
102
RTVSPropertyOp1
70
1
102
RTVSPropertyOp2
70
1
102
RTVSPropertyOp3
70
1
102
RTVSPropertyOp4
70
1
102
RTVSPropertyOp5
70
1
102
RTVSPropertyOp6
70
1
102
RTVSPropertyOp7
70
1
102
RTVSPropertyOp8
70
1
102
RTVSPropertyOp9
70
1
102
RTVSPropertyOp10
70
1
102
RTVSPropertyOp11
70
1
102
RTVSPropertyOp12
70
1
102
RTVSPropertyOp13
70
1
102
RTVSPropertyOp14
70
1
102
RTVSPropertyOp15
70
1
102
RTVSPropertyOp16
70
1
102
RTVSPropertyOp17
70
1
102
RTVSPropertyOp18
70
1
102
RTVSPropertyOp19
70
1
102
RTVSPropertyOp20
70
1
102
RTVSPropertyOp21
70
1
102
RTVSPropertyOp22
70
1
102
RTVSPropertyOp23
70
1
102
RTVSPropertyOp24
70
1
102
RTVSPropertyOp25
70
1
102
RTVSPropertyOp26
70
1
102
RTVSPropertyOp27
70
1
0
XRECORD
5
108D
102
{ACAD_REACTORS
330
108C
102
}
330
108C
100
AcDbXrecord
280
1
102
RTVSPropertyOp0
70
1
102
RTVSPropertyOp1
70
1
102
RTVSPropertyOp2
70
1
102
RTVSPropertyOp3
70
1
102
RTVSPropertyOp4
70
1
102
RTVSPropertyOp5
70
1
102
RTVSPropertyOp6
70
1
102
RTVSPropertyOp7
70
1
102
RTVSPropertyOp8
70
1
102
RTVSPropertyOp9
70
1
102
RTVSPropertyOp10
70
1
102
RTVSPropertyOp11
70
1
102
RTVSPropertyOp12
70
1
102
RTVSPropertyOp13
70
1
102
RTVSPropertyOp14
70
1
102
RTVSPropertyOp15
70
1
102
RTVSPropertyOp16
70
1
102
RTVSPropertyOp17
70
1
102
RTVSPropertyOp18
70
1
102
RTVSPropertyOp19
70
1
102
RTVSPropertyOp20
70
1
102
RTVSPropertyOp21
70
1
102
RTVSPropertyOp22
70
1
102
RTVSPropertyOp23
70
1
102
RTVSPropertyOp24
70
1
102
RTVSPropertyOp25
70
1
102
RTVSPropertyOp26
70
1
102
RTVSPropertyOp27
70
1
0
XRECORD
5
1089
102
{ACAD_REACTORS
330
1088
102
}
330
1088
100
AcDbXrecord
280
1
102
RTVSPropertyOp0
70
1
102
RTVSPropertyOp1
70
1
102
RTVSPropertyOp2
70
1
102
RTVSPropertyOp3
70
1
102
RTVSPropertyOp4
70
1
102
RTVSPropertyOp5
70
1
102
RTVSPropertyOp6
70
1
102
RTVSPropertyOp7
70
1
102
RTVSPropertyOp8
70
1
102
RTVSPropertyOp9
70
1
102
RTVSPropertyOp10
70
1
102
RTVSPropertyOp11
70
1
102
RTVSPropertyOp12
70
1
102
RTVSPropertyOp13
70
1
102
RTVSPropertyOp14
70
1
102
RTVSPropertyOp15
70
1
102
RTVSPropertyOp16
70
1
102
RTVSPropertyOp17
70
1
102
RTVSPropertyOp18
70
1
102
RTVSPropertyOp19
70
1
102
RTVSPropertyOp20
70
1
102
RTVSPropertyOp21
70
1
102
RTVSPropertyOp22
70
1
102
RTVSPropertyOp23
70
1
102
RTVSPropertyOp24
70
1
102
RTVSPropertyOp25
70
1
102
RTVSPropertyOp26
70
1
102
RTVSPropertyOp27
70
1
0
XRECORD
5
1097
102
{ACAD_REACTORS
330
1096
102
}
330
1096
100
AcDbXrecord
280
1
102
RTVSPropertyOp0
70
1
102
RTVSPropertyOp1
70
1
102
RTVSPropertyOp2
70
1
102
RTVSPropertyOp3
70
1
102
RTVSPropertyOp4
70
1
102
RTVSPropertyOp5
70
1
102
RTVSPropertyOp6
70
1
102
RTVSPropertyOp7
70
1
102
RTVSPropertyOp8
70
1
102
RTVSPropertyOp9
70
1
102
RTVSPropertyOp10
70
1
102
RTVSPropertyOp11
70
1
102
RTVSPropertyOp12
70
1
102
RTVSPropertyOp13
70
1
102
RTVSPropertyOp14
70
1
102
RTVSPropertyOp15
70
1
102
RTVSPropertyOp16
70
1
102
RTVSPropertyOp17
70
1
102
RTVSPropertyOp18
70
1
102
RTVSPropertyOp19
70
1
102
RTVSPropertyOp20
70
1
102
RTVSPropertyOp21
70
1
102
RTVSPropertyOp22
70
1
102
RTVSPropertyOp23
70
1
102
RTVSPropertyOp24
70
1
102
RTVSPropertyOp25
70
1
102
RTVSPropertyOp26
70
1
102
RTVSPropertyOp27
70
1
0
XRECORD
5
109F
102
{ACAD_REACTORS
330
109E
102
}
330
109E
100
AcDbXrecord
280
1
102
RTVSPropertyOp0
70
1
102
RTVSPropertyOp1
70
1
102
RTVSPropertyOp2
70
1
102
RTVSPropertyOp3
70
1
102
RTVSPropertyOp4
70
1
102
RTVSPropertyOp5
70
1
102
RTVSPropertyOp6
70
1
102
RTVSPropertyOp7
70
1
102
RTVSPropertyOp8
70
1
102
RTVSPropertyOp9
70
1
102
RTVSPropertyOp10
70
1
102
RTVSPropertyOp11
70
1
102
RTVSPropertyOp12
70
1
102
RTVSPropertyOp13
70
1
102
RTVSPropertyOp14
70
1
102
RTVSPropertyOp15
70
1
102
RTVSPropertyOp16
70
1
102
RTVSPropertyOp17
70
1
102
RTVSPropertyOp18
70
1
102
RTVSPropertyOp19
70
1
102
RTVSPropertyOp20
70
1
102
RTVSPropertyOp21
70
1
102
RTVSPropertyOp22
70
1
102
RTVSPropertyOp23
70
1
102
RTVSPropertyOp24
70
1
102
RTVSPropertyOp25
70
1
102
RTVSPropertyOp26
70
1
102
RTVSPropertyOp27
70
1
0
XRECORD
5
1091
102
{ACAD_REACTORS
330
1090
102
}
330
1090
100
AcDbXrecord
280
1
102
RTVSPropertyOp0
70
1
102
RTVSPropertyOp1
70
1
102
RTVSPropertyOp2
70
1
102
RTVSPropertyOp3
70
1
102
RTVSPropertyOp4
70
1
102
RTVSPropertyOp5
70
1
102
RTVSPropertyOp6
70
1
102
RTVSPropertyOp7
70
1
102
RTVSPropertyOp8
70
1
102
RTVSPropertyOp9
70
1
102
RTVSPropertyOp10
70
1
102
RTVSPropertyOp11
70
1
102
RTVSPropertyOp12
70
1
102
RTVSPropertyOp13
70
1
102
RTVSPropertyOp14
70
1
102
RTVSPropertyOp15
70
1
102
RTVSPropertyOp16
70
1
102
RTVSPropertyOp17
70
1
102
RTVSPropertyOp18
70
1
102
RTVSPropertyOp19
70
1
102
RTVSPropertyOp20
70
1
102
RTVSPropertyOp21
70
1
102
RTVSPropertyOp22
70
1
102
RTVSPropertyOp23
70
1
102
RTVSPropertyOp24
70
1
102
RTVSPropertyOp25
70
1
102
RTVSPropertyOp26
70
1
102
RTVSPropertyOp27
70
1
0
XRECORD
5
1095
102
{ACAD_REACTORS
330
1094
102
}
330
1094
100
AcDbXrecord
280
1
102
RTVSPropertyOp0
70
1
102
RTVSPropertyOp1
70
1
102
RTVSPropertyOp2
70
1
102
RTVSPropertyOp3
70
1
102
RTVSPropertyOp4
70
1
102
RTVSPropertyOp5
70
1
102
RTVSPropertyOp6
70
1
102
RTVSPropertyOp7
70
1
102
RTVSPropertyOp8
70
1
102
RTVSPropertyOp9
70
1
102
RTVSPropertyOp10
70
1
102
RTVSPropertyOp11
70
1
102
RTVSPropertyOp12
70
1
102
RTVSPropertyOp13
70
1
102
RTVSPropertyOp14
70
1
102
RTVSPropertyOp15
70
1
102
RTVSPropertyOp16
70
1
102
RTVSPropertyOp17
70
1
102
RTVSPropertyOp18
70
1
102
RTVSPropertyOp19
70
1
102
RTVSPropertyOp20
70
1
102
RTVSPropertyOp21
70
1
102
RTVSPropertyOp22
70
1
102
RTVSPropertyOp23
70
1
102
RTVSPropertyOp24
70
1
102
RTVSPropertyOp25
70
1
102
RTVSPropertyOp26
70
1
102
RTVSPropertyOp27
70
1
0
XRECORD
5
10A5
102
{ACAD_REACTORS
330
10A4
102
}
330
10A4
100
AcDbXrecord
280
1
102
RTVSPropertyOp0
70
0
102
RTVSPropertyOp1
70
0
102
RTVSPropertyOp2
70
0
102
RTVSPropertyOp3
70
0
102
RTVSPropertyOp4
70
0
102
RTVSPropertyOp5
70
0
102
RTVSPropertyOp6
70
0
102
RTVSPropertyOp7
70
0
102
RTVSPropertyOp8
70
0
102
RTVSPropertyOp9
70
0
102
RTVSPropertyOp10
70
0
102
RTVSPropertyOp11
70
0
102
RTVSPropertyOp12
70
0
102
RTVSPropertyOp13
70
0
102
RTVSPropertyOp14
70
2
102
RTVSPropertyOp15
70
0
102
RTVSPropertyOp16
70
0
102
RTVSPropertyOp17
70
0
102
RTVSPropertyOp18
70
0
102
RTVSPropertyOp19
70
0
102
RTVSPropertyOp20
70
0
102
RTVSPropertyOp21
70
0
102
RTVSPropertyOp22
70
0
102
RTVSPropertyOp23
70
0
102
RTVSPropertyOp24
70
0
102
RTVSPropertyOp25
70
0
102
RTVSPropertyOp26
70
0
102
RTVSPropertyOp27
70
0
0
XRECORD
5
109D
102
{ACAD_REACTORS
330
109C
102
}
330
109C
100
AcDbXrecord
280
1
102
RTVSPropertyOp0
70
1
102
RTVSPropertyOp1
70
1
102
RTVSPropertyOp2
70
1
102
RTVSPropertyOp3
70
1
102
RTVSPropertyOp4
70
1
102
RTVSPropertyOp5
70
1
102
RTVSPropertyOp6
70
1
102
RTVSPropertyOp7
70
1
102
RTVSPropertyOp8
70
1
102
RTVSPropertyOp9
70
1
102
RTVSPropertyOp10
70
1
102
RTVSPropertyOp11
70
1
102
RTVSPropertyOp12
70
1
102
RTVSPropertyOp13
70
1
102
RTVSPropertyOp14
70
1
102
RTVSPropertyOp15
70
1
102
RTVSPropertyOp16
70
1
102
RTVSPropertyOp17
70
1
102
RTVSPropertyOp18
70
1
102
RTVSPropertyOp19
70
1
102
RTVSPropertyOp20
70
1
102
RTVSPropertyOp21
70
1
102
RTVSPropertyOp22
70
1
102
RTVSPropertyOp23
70
1
102
RTVSPropertyOp24
70
1
102
RTVSPropertyOp25
70
1
102
RTVSPropertyOp26
70
1
102
RTVSPropertyOp27
70
1
0
XRECORD
5
1081
102
{ACAD_REACTORS
330
1080
102
}
330
1080
100
AcDbXrecord
280
1
102
RTVSPropertyOp0
70
1
102
RTVSPropertyOp1
70
1
102
RTVSPropertyOp2
70
1
102
RTVSPropertyOp3
70
1
102
RTVSPropertyOp4
70
1
102
RTVSPropertyOp5
70
1
102
RTVSPropertyOp6
70
1
102
RTVSPropertyOp7
70
1
102
RTVSPropertyOp8
70
1
102
RTVSPropertyOp9
70
1
102
RTVSPropertyOp10
70
1
102
RTVSPropertyOp11
70
1
102
RTVSPropertyOp12
70
1
102
RTVSPropertyOp13
70
1
102
RTVSPropertyOp14
70
1
102
RTVSPropertyOp15
70
1
102
RTVSPropertyOp16
70
1
102
RTVSPropertyOp17
70
1
102
RTVSPropertyOp18
70
1
102
RTVSPropertyOp19
70
1
102
RTVSPropertyOp20
70
1
102
RTVSPropertyOp21
70
1
102
RTVSPropertyOp22
70
1
102
RTVSPropertyOp23
70
1
102
RTVSPropertyOp24
70
1
102
RTVSPropertyOp25
70
1
102
RTVSPropertyOp26
70
1
102
RTVSPropertyOp27
70
1
0
XRECORD
5
1083
102
{ACAD_REACTORS
330
1082
102
}
330
1082
100
AcDbXrecord
280
1
102
RTVSPropertyOp0
70
1
102
RTVSPropertyOp1
70
1
102
RTVSPropertyOp2
70
1
102
RTVSPropertyOp3
70
1
102
RTVSPropertyOp4
70
1
102
RTVSPropertyOp5
70
1
102
RTVSPropertyOp6
70
1
102
RTVSPropertyOp7
70
1
102
RTVSPropertyOp8
70
1
102
RTVSPropertyOp9
70
1
102
RTVSPropertyOp10
70
1
102
RTVSPropertyOp11
70
1
102
RTVSPropertyOp12
70
1
102
RTVSPropertyOp13
70
1
102
RTVSPropertyOp14
70
1
102
RTVSPropertyOp15
70
1
102
RTVSPropertyOp16
70
1
102
RTVSPropertyOp17
70
1
102
RTVSPropertyOp18
70
1
102
RTVSPropertyOp19
70
1
102
RTVSPropertyOp20
70
1
102
RTVSPropertyOp21
70
1
102
RTVSPropertyOp22
70
1
102
RTVSPropertyOp23
70
1
102
RTVSPropertyOp24
70
1
102
RTVSPropertyOp25
70
1
102
RTVSPropertyOp26
70
1
102
RTVSPropertyOp27
70
1
0
XRECORD
5
1085
102
{ACAD_REACTORS
330
1084
102
}
330
1084
100
AcDbXrecord
280
1
102
RTVSPropertyOp0
70
1
102
RTVSPropertyOp1
70
1
102
RTVSPropertyOp2
70
1
102
RTVSPropertyOp3
70
1
102
RTVSPropertyOp4
70
1
102
RTVSPropertyOp5
70
1
102
RTVSPropertyOp6
70
1
102
RTVSPropertyOp7
70
1
102
RTVSPropertyOp8
70
1
102
RTVSPropertyOp9
70
1
102
RTVSPropertyOp10
70
1
102
RTVSPropertyOp11
70
1
102
RTVSPropertyOp12
70
1
102
RTVSPropertyOp13
70
1
102
RTVSPropertyOp14
70
1
102
RTVSPropertyOp15
70
1
102
RTVSPropertyOp16
70
1
102
RTVSPropertyOp17
70
1
102
RTVSPropertyOp18
70
1
102
RTVSPropertyOp19
70
1
102
RTVSPropertyOp20
70
1
102
RTVSPropertyOp21
70
1
102
RTVSPropertyOp22
70
1
102
RTVSPropertyOp23
70
1
102
RTVSPropertyOp24
70
1
102
RTVSPropertyOp25
70
1
102
RTVSPropertyOp26
70
1
102
RTVSPropertyOp27
70
1
0
XRECORD
5
1087
102
{ACAD_REACTORS
330
1086
102
}
330
1086
100
AcDbXrecord
280
1
102
RTVSPropertyOp0
70
1
102
RTVSPropertyOp1
70
1
102
RTVSPropertyOp2
70
1
102
RTVSPropertyOp3
70
1
102
RTVSPropertyOp4
70
1
102
RTVSPropertyOp5
70
1
102
RTVSPropertyOp6
70
1
102
RTVSPropertyOp7
70
1
102
RTVSPropertyOp8
70
1
102
RTVSPropertyOp9
70
1
102
RTVSPropertyOp10
70
1
102
RTVSPropertyOp11
70
1
102
RTVSPropertyOp12
70
1
102
RTVSPropertyOp13
70
1
102
RTVSPropertyOp14
70
1
102
RTVSPropertyOp15
70
1
102
RTVSPropertyOp16
70
1
102
RTVSPropertyOp17
70
1
102
RTVSPropertyOp18
70
1
102
RTVSPropertyOp19
70
1
102
RTVSPropertyOp20
70
1
102
RTVSPropertyOp21
70
1
102
RTVSPropertyOp22
70
1
102
RTVSPropertyOp23
70
1
102
RTVSPropertyOp24
70
1
102
RTVSPropertyOp25
70
1
102
RTVSPropertyOp26
70
1
102
RTVSPropertyOp27
70
1
0
XRECORD
5
10A1
102
{ACAD_REACTORS
330
10A0
102
}
330
10A0
100
AcDbXrecord
280
1
102
RTVSPropertyOp0
70
0
102
RTVSPropertyOp1
70
0
102
RTVSPropertyOp2
70
0
102
RTVSPropertyOp3
70
0
102
RTVSPropertyOp4
70
0
102
RTVSPropertyOp5
70
0
102
RTVSPropertyOp6
70
0
102
RTVSPropertyOp7
70
0
102
RTVSPropertyOp8
70
0
102
RTVSPropertyOp9
70
0
102
RTVSPropertyOp10
70
0
102
RTVSPropertyOp11
70
0
102
RTVSPropertyOp12
70
0
102
RTVSPropertyOp13
70
0
102
RTVSPropertyOp14
70
2
102
RTVSPropertyOp15
70
0
102
RTVSPropertyOp16
70
0
102
RTVSPropertyOp17
70
0
102
RTVSPropertyOp18
70
0
102
RTVSPropertyOp19
70
0
102
RTVSPropertyOp20
70
0
102
RTVSPropertyOp21
70
0
102
RTVSPropertyOp22
70
0
102
RTVSPropertyOp23
70
0
102
RTVSPropertyOp24
70
0
102
RTVSPropertyOp25
70
0
102
RTVSPropertyOp26
70
0
102
RTVSPropertyOp27
70
0
0
XRECORD
5
109B
102
{ACAD_REACTORS
330
109A
102
}
330
109A
100
AcDbXrecord
280
1
102
RTVSPropertyOp0
70
1
102
RTVSPropertyOp1
70
1
102
RTVSPropertyOp2
70
1
102
RTVSPropertyOp3
70
1
102
RTVSPropertyOp4
70
1
102
RTVSPropertyOp5
70
1
102
RTVSPropertyOp6
70
1
102
RTVSPropertyOp7
70
1
102
RTVSPropertyOp8
70
1
102
RTVSPropertyOp9
70
1
102
RTVSPropertyOp10
70
1
102
RTVSPropertyOp11
70
1
102
RTVSPropertyOp12
70
1
102
RTVSPropertyOp13
70
1
102
RTVSPropertyOp14
70
1
102
RTVSPropertyOp15
70
1
102
RTVSPropertyOp16
70
1
102
RTVSPropertyOp17
70
1
102
RTVSPropertyOp18
70
1
102
RTVSPropertyOp19
70
1
102
RTVSPropertyOp20
70
1
102
RTVSPropertyOp21
70
1
102
RTVSPropertyOp22
70
1
102
RTVSPropertyOp23
70
1
102
RTVSPropertyOp24
70
1
102
RTVSPropertyOp25
70
1
102
RTVSPropertyOp26
70
1
102
RTVSPropertyOp27
70
1
0
XRECORD
5
10A3
102
{ACAD_REACTORS
330
10A2
102
}
330
10A2
100
AcDbXrecord
280
1
102
RTVSPropertyOp0
70
0
102
RTVSPropertyOp1
70
0
102
RTVSPropertyOp2
70
0
102
RTVSPropertyOp3
70
0
102
RTVSPropertyOp4
70
0
102
RTVSPropertyOp5
70
0
102
RTVSPropertyOp6
70
0
102
RTVSPropertyOp7
70
0
102
RTVSPropertyOp8
70
0
102
RTVSPropertyOp9
70
0
102
RTVSPropertyOp10
70
0
102
RTVSPropertyOp11
70
0
102
RTVSPropertyOp12
70
0
102
RTVSPropertyOp13
70
0
102
RTVSPropertyOp14
70
2
102
RTVSPropertyOp15
70
0
102
RTVSPropertyOp16
70
0
102
RTVSPropertyOp17
70
0
102
RTVSPropertyOp18
70
0
102
RTVSPropertyOp19
70
0
102
RTVSPropertyOp20
70
0
102
RTVSPropertyOp21
70
0
102
RTVSPropertyOp22
70
0
102
RTVSPropertyOp23
70
0
102
RTVSPropertyOp24
70
0
102
RTVSPropertyOp25
70
0
102
RTVSPropertyOp26
70
0
102
RTVSPropertyOp27
70
0
0
XRECORD
5
1093
102
{ACAD_REACTORS
330
1092
102
}
330
1092
100
AcDbXrecord
280
1
102
RTVSPropertyOp0
70
1
102
RTVSPropertyOp1
70
1
102
RTVSPropertyOp2
70
1
102
RTVSPropertyOp3
70
1
102
RTVSPropertyOp4
70
1
102
RTVSPropertyOp5
70
1
102
RTVSPropertyOp6
70
1
102
RTVSPropertyOp7
70
1
102
RTVSPropertyOp8
70
1
102
RTVSPropertyOp9
70
1
102
RTVSPropertyOp10
70
1
102
RTVSPropertyOp11
70
1
102
RTVSPropertyOp12
70
1
102
RTVSPropertyOp13
70
1
102
RTVSPropertyOp14
70
1
102
RTVSPropertyOp15
70
1
102
RTVSPropertyOp16
70
1
102
RTVSPropertyOp17
70
1
102
RTVSPropertyOp18
70
1
102
RTVSPropertyOp19
70
1
102
RTVSPropertyOp20
70
1
102
RTVSPropertyOp21
70
1
102
RTVSPropertyOp22
70
1
102
RTVSPropertyOp23
70
1
102
RTVSPropertyOp24
70
1
102
RTVSPropertyOp25
70
1
102
RTVSPropertyOp26
70
1
102
RTVSPropertyOp27
70
1
0
XRECORD
5
1099
102
{ACAD_REACTORS
330
1098
102
}
330
1098
100
AcDbXrecord
280
1
102
RTVSPropertyOp0
70
1
102
RTVSPropertyOp1
70
1
102
RTVSPropertyOp2
70
1
102
RTVSPropertyOp3
70
1
102
RTVSPropertyOp4
70
1
102
RTVSPropertyOp5
70
1
102
RTVSPropertyOp6
70
1
102
RTVSPropertyOp7
70
1
102
RTVSPropertyOp8
70
1
102
RTVSPropertyOp9
70
1
102
RTVSPropertyOp10
70
1
102
RTVSPropertyOp11
70
1
102
RTVSPropertyOp12
70
1
102
RTVSPropertyOp13
70
1
102
RTVSPropertyOp14
70
1
102
RTVSPropertyOp15
70
1
102
RTVSPropertyOp16
70
1
102
RTVSPropertyOp17
70
1
102
RTVSPropertyOp18
70
1
102
RTVSPropertyOp19
70
1
102
RTVSPropertyOp20
70
1
102
RTVSPropertyOp21
70
1
102
RTVSPropertyOp22
70
1
102
RTVSPropertyOp23
70
1
102
RTVSPropertyOp24
70
1
102
RTVSPropertyOp25
70
1
102
RTVSPropertyOp26
70
1
102
RTVSPropertyOp27
70
1
0
ENDSEC
0
EOF
