0
SECTION
2
HEADER
9
$ACADVER
1
AC1015
9
$ACADMAINTVER
70
20
9
$DWGCODEPAGE
3
ANSI_1252
9
$INSBASE
10
0.0
20
0.0
30
0.0
9
$EXTMIN
10
-150.000000000000
20
-105.000000000000
30
0.0
9
$EXTMAX
10
150.000000000000
20
105.000000000000
30
0.0
9
$LIMMIN
10
0.0
20
0.0
9
$LIMMAX
10
12.0
20
9.0
9
$ORTHOMODE
70
0
9
$REGENMODE
70
1
9
$FILLMODE
70
1
9
$QTEXTMODE
70
0
9
$MIRRTEXT
70
1
9
$LTSCALE
40
1.0
9
$ATTMODE
70
1
9
$TEXTSIZE
40
0.2
9
$TRACEWID
40
0.05
9
$TEXTSTYLE
7
Standard
9
$CLAYER
8
0
9
$CELTYPE
6
ByLayer
9
$CECOLOR
62
256
9
$CELTSCALE
40
1.0
9
$DISPSILH
70
0
9
$DIMSCALE
40
1.0
9
$DIMASZ
40
2.5
9
$DIMEXO
40
0.625
9
$DIMDLI
40
0.38
9
$DIMRND
40
0.0
9
$DIMDLE
40
0.0
9
$DIMEXE
40
1.25
9
$DIMTP
40
0.0
9
$DIMTM
40
0.000000001
9
$DIMTXT
40
2.5
9
$DIMCEN
40
0.09
9
$DIMTSZ
40
0.0
9
$DIMTOL
70
1
9
$DIMLIM
70
0
9
$DIMTIH
70
0
9
$DIMTOH
70
0
9
$DIMSE1
70
0
9
$DIMSE2
70
0
9
$DIMTAD
70
1
9
$DIMZIN
70
0
9
$DIMBLK
1
VDDIM_DEFAULT
9
$DIMASO
70
1
9
$DIMSHO
70
1
9
$DIMPOST
1

9
$DIMAPOST
1

9
$DIMALT
70
0
9
$DIMALTD
70
2
9
$DIMALTF
40
25.4
9
$DIMLFAC
40
1.00000000000000
9
$DIMTOFL
70
0
9
$DIMTVP
40
0.0
9
$DIMTIX
70
0
9
$DIMSOXD
70
0
9
$DIMSAH
70
0
9
$DIMBLK1
1

9
$DIMBLK2
1

9
$DIMSTYLE
2
BEM-ISBE
9
$DIMCLRD
70
0
9
$DIMCLRE
70
0
9
$DIMCLRT
70
0
9
$DIMTFAC
40
0.5
9
$DIMGAP
40
0.625
9
$DIMJUST
70
0
9
$DIMSD1
70
0
9
$DIMSD2
70
0
9
$DIMTOLJ
70
1
9
$DIMTZIN
70
0
9
$DIMALTZ
70
0
9
$DIMALTTZ
70
0
9
$DIMUPT
70
0
9
$DIMDEC
70
3
9
$DIMTDEC
70
3
9
$DIMALTU
70
2
9
$DIMALTTD
70
2
9
$DIMTXSTY
7
Standard
9
$DIMAUNIT
70
0
9
$DIMADEC
70
3
9
$DIMALTRND
40
0.0
9
$DIMAZIN
70
0
9
$DIMDSEP
70
46
9
$DIMATFIT
70
3
9
$DIMFRAC
70
0
9
$DIMLDRBLK
1

9
$DIMLUNIT
70
2
9
$DIMLWD
70
-2
9
$DIMLWE
70
-2
9
$DIMTMOVE
70
0
9
$LUNITS
70
2
9
$LUPREC
70
4
9
$SKETCHINC
40
0.1
9
$FILLETRAD
40
0.5
9
$AUNITS
70
0
9
$AUPREC
70
0
9
$MENU
1
.
9
$ELEVATION
40
0.0
9
$PELEVATION
40
0.0
9
$THICKNESS
40
0.0
9
$LIMCHECK
70
0
9
$CHAMFERA
40
0.5
9
$CHAMFERB
40
0.5
9
$CHAMFERC
40
1.0
9
$CHAMFERD
40
0.0
9
$SKPOLY
70
0
9
$TDCREATE
40
0.0
9
$TDUCREATE
40
0.0
9
$TDUPDATE
40
0.0
9
$TDUUPDATE
40
0.0
9
$TDINDWG
40
0.0
9
$TDUSRTIMER
40
0.0
9
$USRTIMER
70
1
9
$ANGBASE
50
0.0
9
$ANGDIR
70
0
9
$PDMODE
70
0
9
$PDSIZE
40
0.0
9
$PLINEWID
40
0.0
9
$SPLFRAME
70
0
9
$SPLINETYPE
70
6
9
$SPLINESEGS
70
8
9
$HANDSEED
5
10AB
9
$SURFTAB1
70
6
9
$SURFTAB2
70
6
9
$SURFTYPE
70
6
9
$SURFU
70
6
9
$SURFV
70
6
9
$UCSBASE
2

9
$UCSNAME
2

9
$UCSORG
10
0.0
20
0.0
30
0.0
9
$UCSXDIR
10
1.0
20
0.0
30
0.0
9
$UCSYDIR
10
0.0
20
1.0
30
0.0
9
$UCSORTHOREF
2

9
$UCSORTHOVIEW
70
0
9
$UCSORGTOP
10
0.0
20
0.0
30
0.0
9
$UCSORGBOTTOM
10
0.0
20
0.0
30
0.0
9
$UCSORGLEFT
10
0.0
20
0.0
30
0.0
9
$UCSORGRIGHT
10
0.0
20
0.0
30
0.0
9
$UCSORGFRONT
10
0.0
20
0.0
30
0.0
9
$UCSORGBACK
10
0.0
20
0.0
30
0.0
9
$PUCSBASE
2

9
$PUCSNAME
2

9
$PUCSORG
10
0.0
20
0.0
30
0.0
9
$PUCSXDIR
10
1.0
20
0.0
30
0.0
9
$PUCSYDIR
10
0.0
20
1.0
30
0.0
9
$PUCSORTHOREF
2

9
$PUCSORTHOVIEW
70
0
9
$PUCSORGTOP
10
0.0
20
0.0
30
0.0
9
$PUCSORGBOTTOM
10
0.0
20
0.0
30
0.0
9
$PUCSORGLEFT
10
0.0
20
0.0
30
0.0
9
$PUCSORGRIGHT
10
0.0
20
0.0
30
0.0
9
$PUCSORGFRONT
10
0.0
20
0.0
30
0.0
9
$PUCSORGBACK
10
0.0
20
0.0
30
0.0
9
$USERI1
70
0
9
$USERI2
70
0
9
$USERI3
70
0
9
$USERI4
70
0
9
$USERI5
70
0
9
$USERR1
40
0.0
9
$USERR2
40
0.0
9
$USERR3
40
0.0
9
$USERR4
40
0.0
9
$USERR5
40
0.0
9
$WORLDVIEW
70
1
9
$SHADEDGE
70
3
9
$SHADEDIF
70
70
9
$TILEMODE
70
1
9
$MAXACTVP
70
64
9
$PINSBASE
10
0.0
20
0.0
30
0.0
9
$PLIMCHECK
70
0
9
$PEXTMIN
10
1.000000000000000E+20
20
1.000000000000000E+20
30
1.000000000000000E+20
9
$PEXTMAX
10
-1.000000000000000E+20
20
-1.000000000000000E+20
30
-1.000000000000000E+20
9
$PLIMMIN
10
0.0
20
0.0
9
$PLIMMAX
10
12.0
20
9.0
9
$UNITMODE
70
0
9
$VISRETAIN
70
1
9
$PLINEGEN
70
0
9
$PSLTSCALE
70
1
9
$TREEDEPTH
70
3020
9
$CMLSTYLE
2
Standard
9
$CMLJUST
70
0
9
$CMLSCALE
40
1.0
9
$PROXYGRAPHICS
70
1
9
$MEASUREMENT
70
0
9
$CELWEIGHT
370
-1
9
$ENDCAPS
280
0
9
$JOINSTYLE
280
0
9
$LWDISPLAY
290
0
9
$INSUNITS
70
4
9
$HYPERLINKBASE
1

9
$STYLESHEET
1

9
$XEDIT
290
1
9
$CEPSNTYPE
380
0
9
$PSTYLEMODE
290
0
9
$FINGERPRINTGUID
2
{FAEB1C30-E019-11D5-929B-00C0DF256EC4}
9
$VERSIONGUID
2
{04C5C4E4-4947-4D90-8812-D401569E61F7}
9
$EXTNAMES
290
1
9
$PSVPSCALE
40
0.0
9
$OLESTARTUP
290
0
0
ENDSEC
0
SECTION
2
CLASSES
0
CLASS
1
ACDBDICTIONARYWDFLT
2
AcDbDictionaryWithDefault
3
ObjectDBX Classes
90
0
280
0
281
0
0
CLASS
1
ACDBPLACEHOLDER
2
AcDbPlaceHolder
3
ObjectDBX Classes
90
0
280
0
281
0
0
CLASS
1
LAYOUT
2
AcDbLayout
3
ObjectDBX Classes
90
0
280
0
281
0
0
CLASS
1
MATERIAL
2
AcDbMaterial
3
ObjectDBX Classes
90
1153
280
0
281
0
0
CLASS
1
VISUALSTYLE
2
AcDbVisualStyle
3
ObjectDBX Classes
90
4095
280
0
281
0
0
CLASS
1
TABLESTYLE
2
AcDbTableStyle
3
ObjectDBX Classes
90
4095
280
0
281
0
0
CLASS
1
SCALE
2
AcDbScale
3
ObjectDBX Classes
90
1153
280
0
281
0
0
CLASS
1
MLEADERSTYLE
2
AcDbMLeaderStyle
3
ACDB_MLEADERSTYLE_CLASS
90
4095
280
0
281
0
0
CLASS
1
DICTIONARYVAR
2
AcDbDictionaryVar
3
ObjectDBX Classes
90
0
280
0
281
0
0
CLASS
1
CELLSTYLEMAP
2
AcDbCellStyleMap
3
ObjectDBX Classes
90
1152
280
0
281
0
0
ENDSEC
0
SECTION
2
TABLES
0
TABLE
2
VPORT
5
24A
330
0
100
AcDbSymbolTable
70
1
0
VPORT
5
26B
330
24A
100
AcDbSymbolTableRecord
100
AcDbViewportTableRecord
2
*Active
70
0
10
0.0
20
0.0
11
1.0
21
1.0
12
0.00000000000000
22
0.00000000000000
13
0.0
23
0.0
14
10.0
24
10.0
15
10.0
25
10.0
16
0.0
26
0.0
36
1.0
17
0.0
27
0.0
37
0.0
40
210.000000000000
41
1.42857142857143
42
1.0
43
0.0
44
0.0
50
0.0
51
0.0000000000007958
71
0
72
100
73
1
74
3
75
0
76
0
77
0
78
1
281
0
65
1
110
0.0
120
0.0
130
0.0
111
1.0
121
0.0
131
0.0
112
0.0
122
1.0
132
0.0
79
0
146
0.0
0
ENDTAB
0
TABLE
2
LTYPE
5
247
330
0
100
AcDbSymbolTable
70
25
0
LTYPE
5
256
330
247
100
AcDbSymbolTableRecord
100
AcDbLinetypeTableRecord
2
ByBlock
70
0
3

72
65
73
0
40
0.0
0
LTYPE
5
257
330
247
100
AcDbSymbolTableRecord
100
AcDbLinetypeTableRecord
2
ByLayer
70
0
3

72
65
73
0
40
0.0
0
LTYPE
5
258
330
247
100
AcDbSymbolTableRecord
100
AcDbLinetypeTableRecord
2
Continuous
70
0
3
Solid line
72
65
73
0
40
0.0
0
LTYPE
5
273
330
247
100
AcDbSymbolTableRecord
100
AcDbLinetypeTableRecord
2
CENTER
70
0
3
Center ____ _ ____ _ ____ _ ____ _ ____ _ ____
72
65
73
4
40
2.0
49
1.25
74
0
49
-0.25
74
0
49
0.25
74
0
49
-0.25
74
0
0
LTYPE
5
274
330
247
100
AcDbSymbolTableRecord
100
AcDbLinetypeTableRecord
2
DASHDOT
70
0
3
Dashdot __ . __ . __ . __ . __ . __ . __ . __
72
65
73
4
40
1.0
49
0.5
74
0
49
-0.25
74
0
49
0.0
74
0
49
-0.25
74
0
0
LTYPE
5
275
330
247
100
AcDbSymbolTableRecord
100
AcDbLinetypeTableRecord
2
DASHED
70
0
3
Dashed __ __ __ __ __ __ __ __ __ __ __ __ __ _
72
65
73
2
40
0.75
49
0.5
74
0
49
-0.25
74
0
0
LTYPE
5
276
330
247
100
AcDbSymbolTableRecord
100
AcDbLinetypeTableRecord
2
HIDDEN
70
0
3
Hidden __ __ __ __ __ __ __ __ __ __ __ __ __ __
72
65
73
2
40
0.375
49
0.25
74
0
49
-0.125
74
0
0
LTYPE
5
277
330
247
100
AcDbSymbolTableRecord
100
AcDbLinetypeTableRecord
2
HIDDEN2
70
0
3
Hidden2 _ _ _ _ _ _ _ _ _ _ _ _ _ _ _ _ _
72
65
73
2
40
0.1875
49
0.125
74
0
49
-0.0625
74
0
0
LTYPE
5
278
330
247
100
AcDbSymbolTableRecord
100
AcDbLinetypeTableRecord
2
BORDER
70
0
3
Border __ __ . __ __ . __ __ . __ __ . __ __ .
72
65
73
6
40
1.75
49
0.5
74
0
49
-0.25
74
0
49
0.5
74
0
49
-0.25
74
0
49
0.0
74
0
49
-0.25
74
0
0
LTYPE
5
279
330
247
100
AcDbSymbolTableRecord
100
AcDbLinetypeTableRecord
2
BORDER2
70
0
3
Border2 __.__.__.__.__.__.__.__.__.__.__.
72
65
73
6
40
0.875
49
0.25
74
0
49
-0.125
74
0
49
0.25
74
0
49
-0.125
74
0
49
0.0
74
0
49
-0.125
74
0
0
LTYPE
5
27A
330
247
100
AcDbSymbolTableRecord
100
AcDbLinetypeTableRecord
2
BORDERX2
70
0
3
Borderx2  ____  ____  .  ____  ____  .  ___
72
65
73
6
40
3.5
49
1.0
74
0
49
-0.5
74
0
49
1.0
74
0
49
-0.5
74
0
49
0.0
74
0
49
-0.5
74
0
0
LTYPE
5
27B
330
247
100
AcDbSymbolTableRecord
100
AcDbLinetypeTableRecord
2
CENTER2
70
0
3
Center2  ___ _ ___ _ ___ _ ___ _ ___ _ ___
72
65
73
4
40
1.125
49
0.75
74
0
49
-0.125
74
0
49
0.125
74
0
49
-0.125
74
0
0
LTYPE
5
27C
330
247
100
AcDbSymbolTableRecord
100
AcDbLinetypeTableRecord
2
CENTERX2
70
0
3
Centerx2  ________  __  ________  __  _____
72
65
73
4
40
4.0
49
2.5
74
0
49
-0.5
74
0
49
0.5
74
0
49
-0.5
74
0
0
LTYPE
5
27D
330
247
100
AcDbSymbolTableRecord
100
AcDbLinetypeTableRecord
2
DASHDOT2
70
0
3
Dashdot2  _._._._._._._._._._._._._._._.
72
65
73
4
40
0.5
49
0.25
74
0
49
-0.125
74
0
49
0.0
74
0
49
-0.125
74
0
0
LTYPE
5
27E
330
247
100
AcDbSymbolTableRecord
100
AcDbLinetypeTableRecord
2
DASHDOTX2
70
0
3
Dashdotx2 ____  .  ____  .  ____  .  ___
72
65
73
4
40
2.0
49
1.0
74
0
49
-0.5
74
0
49
0.0
74
0
49
-0.5
74
0
0
LTYPE
5
27F
330
247
100
AcDbSymbolTableRecord
100
AcDbLinetypeTableRecord
2
DASHED2
70
0
3
Dashed2 _ _ _ _ _ _ _ _ _ _ _ _ _ _ _ _ _
72
65
73
2
40
0.375
49
0.25
74
0
49
-0.125
74
0
0
LTYPE
5
280
330
247
100
AcDbSymbolTableRecord
100
AcDbLinetypeTableRecord
2
DASHEDX2
70
0
3
Dashedx2 ____  ____  ____  ____  ____  ___
72
65
73
2
40
1.5
49
1.0
74
0
49
-0.5
74
0
0
LTYPE
5
281
330
247
100
AcDbSymbolTableRecord
100
AcDbLinetypeTableRecord
2
DIVIDE
70
0
3
Divide ____ . . ____ . . ____ . . ____ . . ____
72
65
73
6
40
1.25
49
0.5
74
0
49
-0.25
74
0
49
0.0
74
0
49
-0.25
74
0
49
0.0
74
0
49
-0.25
74
0
0
LTYPE
5
282
330
247
100
AcDbSymbolTableRecord
100
AcDbLinetypeTableRecord
2
DIVIDE2
70
0
3
Divide2 __..__..__..__..__..__..__..__.._
72
65
73
6
40
0.625
49
0.25
74
0
49
-0.125
74
0
49
0.0
74
0
49
-0.125
74
0
49
0.0
74
0
49
-0.125
74
0
0
LTYPE
5
283
330
247
100
AcDbSymbolTableRecord
100
AcDbLinetypeTableRecord
2
DIVIDEX2
70
0
3
Dividex2 ________  .  .  ________  .  .  _
72
65
73
6
40
2.5
49
1.0
74
0
49
-0.5
74
0
49
0.0
74
0
49
-0.5
74
0
49
0.0
74
0
49
-0.5
74
0
0
LTYPE
5
284
330
247
100
AcDbSymbolTableRecord
100
AcDbLinetypeTableRecord
2
DOT
70
0
3
Dot . . . . . . . . . . . . . . . . . . . . . . . .
72
65
73
2
40
0.25
49
0.0
74
0
49
-0.25
74
0
0
LTYPE
5
285
330
247
100
AcDbSymbolTableRecord
100
AcDbLinetypeTableRecord
2
DOT2
70
0
3
Dot2 ........................................
72
65
73
2
40
0.125
49
0.0
74
0
49
-0.125
74
0
0
LTYPE
5
286
330
247
100
AcDbSymbolTableRecord
100
AcDbLinetypeTableRecord
2
DOTX2
70
0
3
Dotx2 .  .  .  .  .  .  .  .  .  .  .  .  .  .
72
65
73
2
40
0.5
49
0.0
74
0
49
-0.5
74
0
0
LTYPE
5
287
330
247
100
AcDbSymbolTableRecord
100
AcDbLinetypeTableRecord
2
HIDDENX2
70
0
3
Hiddenx2 ____ ____ ____ ____ ____ ____ ____
72
65
73
2
40
0.75
49
0.5
74
0
49
-0.25
74
0
0
LTYPE
5
288
330
247
100
AcDbSymbolTableRecord
100
AcDbLinetypeTableRecord
2
PHANTOM
70
0
3
Phantom ______  __  __  ______  __  __  ______
72
65
73
6
40
2.5
49
1.25
74
0
49
-0.25
74
0
49
0.25
74
0
49
-0.25
74
0
49
0.25
74
0
49
-0.25
74
0
0
LTYPE
5
289
330
247
100
AcDbSymbolTableRecord
100
AcDbLinetypeTableRecord
2
PHANTOM2
70
0
3
Phantom2 ___ _ _ ___ _ _ ___ _ _ ___ _ _
72
65
73
6
40
1.25
49
0.625
74
0
49
-0.125
74
0
49
0.125
74
0
49
-0.125
74
0
49
0.125
74
0
49
-0.125
74
0
0
LTYPE
5
28A
330
247
100
AcDbSymbolTableRecord
100
AcDbLinetypeTableRecord
2
PHANTOMX2
70
0
3
Phantomx2 ____________    ____    ____   _
72
65
73
6
40
5.0
49
2.5
74
0
49
-0.5
74
0
49
0.5
74
0
49
-0.5
74
0
49
0.5
74
0
49
-0.5
74
0
0
ENDTAB
0
TABLE
2
LAYER
5
244
330
0
100
AcDbSymbolTable
70
6
0
LAYER
5
252
330
244
100
AcDbSymbolTableRecord
100
AcDbLayerTableRecord
2
0
70
0
62
7
6
Continuous
370
0
390
251
0
LAYER
5
23F
330
244
100
AcDbSymbolTableRecord
100
AcDbLayerTableRecord
2
Bemassung
70
0
 62
   7
6
Continuous
370
0
390
251
0
LAYER
5
240
330
244
100
AcDbSymbolTableRecord
100
AcDbLayerTableRecord
2
Rahmen
70
0
 62
   7
6
Continuous
370
0
390
251
0
LAYER
5
241
330
244
100
AcDbSymbolTableRecord
100
AcDbLayerTableRecord
2
Geo
70
0
 62
   7
6
Continuous
370
0
390
251
0
LAYER
5
33A
330
244
100
AcDbSymbolTableRecord
100
AcDbLayerTableRecord
2
Defpoints
70
0
62
7
6
Continuous
290
0
370
-3
390
251
0
LAYER
5
57E
330
244
100
AcDbSymbolTableRecord
100
AcDbLayerTableRecord
2
Text
70
0
 62
   7
6
Continuous
370
0
390
251
1001
AcAecLayerStandard
1000

1000

0
ENDTAB
0
TABLE
2
STYLE
5
245
330
0
100
AcDbSymbolTable
70
2
0
STYLE
5
253
330
245
100
AcDbSymbolTableRecord
100
AcDbTextStyleTableRecord
2
Standard
70
0
40
0.0
41
1.0
50
0.0
71
0
42
0.2
3
Arial
4

1001
ACAD
1000
Arial
1071
0
0
STYLE
5
132
330
245
100
AcDbSymbolTableRecord
100
AcDbTextStyleTableRecord
2
Beschriftung
70
0
40
0.0
41
1.0
50
0.0
71
0
42
0.2
3
Arial
4

1001
ACAD
1000
Arial
1071
0
1001
AcadAnnotative
1000
AnnotativeData
1070
1
1070
1
0
ENDTAB
0
TABLE
2
VIEW
5
248
330
0
100
AcDbSymbolTable
70
0
0
ENDTAB
0
TABLE
2
UCS
5
249
330
0
100
AcDbSymbolTable
70
0
0
ENDTAB
0
TABLE
2
APPID
5
24B
330
0
100
AcDbSymbolTable
70
13
0
APPID
5
254
330
24B
100
AcDbSymbolTableRecord
100
AcDbRegAppTableRecord
2
ACAD
70
0
0
APPID
5
26C
330
24B
100
AcDbSymbolTableRecord
100
AcDbRegAppTableRecord
2
VD_INVISIBLE_NOT_FOR_READ
70
0
0
APPID
5
26D
330
24B
100
AcDbSymbolTableRecord
100
AcDbRegAppTableRecord
2
VD_TEMPHATCH
70
0
0
APPID
5
26E
330
24B
100
AcDbSymbolTableRecord
100
AcDbRegAppTableRecord
2
VDEXTRAPARAM
70
0
0
APPID
5
26F
330
24B
100
AcDbSymbolTableRecord
100
AcDbRegAppTableRecord
2
PE_URL
70
0
0
APPID
5
270
330
24B
100
AcDbSymbolTableRecord
100
AcDbRegAppTableRecord
2
VD_UNKNOWN
70
0
0
APPID
5
28F
330
24B
100
AcDbSymbolTableRecord
100
AcDbRegAppTableRecord
2
AcadAnnotative
70
0
0
APPID
5
290
330
24B
100
AcDbSymbolTableRecord
100
AcDbRegAppTableRecord
2
ACAD_DSTYLE_DIMJAG
70
0
0
APPID
5
291
330
24B
100
AcDbSymbolTableRecord
100
AcDbRegAppTableRecord
2
ACAD_DSTYLE_DIMTALN
70
0
0
APPID
5
293
330
24B
100
AcDbSymbolTableRecord
100
AcDbRegAppTableRecord
2
ACAD_PSEXT
70
0
0
APPID
5
42A
330
24B
100
AcDbSymbolTableRecord
100
AcDbRegAppTableRecord
2
ACAD_MLEADERVER
70
0
0
APPID
5
532
330
24B
100
AcDbSymbolTableRecord
100
AcDbRegAppTableRecord
2
ACAD_EXEMPT_FROM_CAD_STANDARDS
70
0
0
APPID
5
57F
330
24B
100
AcDbSymbolTableRecord
100
AcDbRegAppTableRecord
2
AcAecLayerStandard
70
0
0
ENDTAB
0
TABLE
2
DIMSTYLE
5
24C
330
0
100
AcDbSymbolTable
70
3
100
AcDbDimStyleTable
71
2
340
27
340
269
0
DIMSTYLE
105
269
330
24C
100
AcDbSymbolTableRecord
100
AcDbDimStyleTableRecord
2
Standard
70
0
172
1
174
1
288
1
340
253
342
23C
0
DIMSTYLE
105
137
330
24C
100
AcDbSymbolTableRecord
100
AcDbDimStyleTableRecord
2
Beschriftung
70
0
41
2.5
42
0.625
44
1.25
73
0
74
0
77
1
140
2.5
147
0.625
172
1
174
1
271
2
288
1
340
253
342
23C
1001
AcadAnnotative
1000
AnnotativeData
1070
1
1070
1
1001
ACAD_DSTYLE_DIMJAG
1070
388
1040
1.5
1001
ACAD_DSTYLE_DIMTALN
1070
392
1070
0
0
DIMSTYLE
105
27
102
{ACAD_REACTORS
102
}
330
24C
100
AcDbSymbolTableRecord
100
AcDbDimStyleTableRecord
2
BEM-ISBE
70
0
41
2.5
42
0.625
44
1.25
48
0.000000001
71
1
73
0
74
0
77
1
140
2.5
144
1.00000000000000
146
0.5
147
0.625
171
 3
172
 1
179
 3
271
 3
272
 3
274
 3
340
253
342
23C
1001
ACAD_DSTYLE_DIMJAG
1070
388
1040
1.5
1001
ACAD_DSTYLE_DIMTALN
1070
392
1070
1
0
ENDTAB
0
TABLE
2
BLOCK_RECORD
5
243
330
0
100
AcDbSymbolTable
70
5
0
BLOCK_RECORD
5
261
330
243
100
AcDbSymbolTableRecord
100
AcDbBlockTableRecord
2
*Model_Space
340
FD0
0
BLOCK_RECORD
5
25D
330
243
100
AcDbSymbolTableRecord
100
AcDbBlockTableRecord
2
*Paper_Space
340
FD1
0
BLOCK_RECORD
5
265
330
243
100
AcDbSymbolTableRecord
100
AcDbBlockTableRecord
2
*Paper_Space0
340
0
0
BLOCK_RECORD
5
23C
330
243
100
AcDbSymbolTableRecord
100
AcDbBlockTableRecord
2
VDDIM_DEFAULT
340
0
102
{BLKREFS
102
}
0
BLOCK_RECORD
5
23E
330
243
100
AcDbSymbolTableRecord
100
AcDbBlockTableRecord
2
VDDIM_NONE
340
0
0
ENDTAB
0
ENDSEC
0
SECTION
2
BLOCKS
0
BLOCK
5
262
330
261
100
AcDbEntity
8
0
100
AcDbBlockBegin
2
*Model_Space
70
0
10
0.0
20
0.0
30
0.0
3
*Model_Space
1

0
ENDBLK
5
263
330
261
100
AcDbEntity
8
0
100
AcDbBlockEnd
0
BLOCK
5
25E
330
25D
100
AcDbEntity
67
1
8
0
100
AcDbBlockBegin
2
*Paper_Space
70
0
10
0.0
20
0.0
30
0.0
3
*Paper_Space
1

0
ENDBLK
5
25F
330
25D
100
AcDbEntity
67
1
8
0
100
AcDbBlockEnd
0
BLOCK
5
266
330
265
100
AcDbEntity
8
0
100
AcDbBlockBegin
2
*Paper_Space0
70
0
10
0.0
20
0.0
30
0.0
3
*Paper_Space0
1

0
VIEWPORT
5
296
102
{ACAD_XDICTIONARY
360
58E
102
}
330
265
100
AcDbEntity
8
0
60
1
100
AcDbViewport
10
0.0
20
0.0
30
0.0
40
10.0
41
10.0
69
0
12
0.0
22
0.0
13
0.0
23
0.0
14
1.0
24
1.0
15
0.0
25
0.0
16
0.0
26
0.0
36
1.0
17
0.0
27
0.0
37
0.0
42
0.0
43
0.0
44
0.0
45
10.0
50
0.0
51
0.0000000000007958
72
100
90
163872
1

281
0
71
0
74
0
110
0.0
120
0.0
130
0.0
111
1.0
121
0.0
131
0.0
112
0.0
122
1.0
132
0.0
79
0
146
0.0
1001
VD_INVISIBLE_NOT_FOR_READ
1000
VD_INVISIBLE_NOT_FOR_READ
0
VIEWPORT
5
297
102
{ACAD_XDICTIONARY
360
590
102
}
330
265
100
AcDbEntity
8
0
60
1
100
AcDbViewport
10
0.0
20
0.0
30
0.0
40
10.0
41
10.0
69
0
12
0.0
22
0.0
13
0.0
23
0.0
14
1.0
24
1.0
15
0.0
25
0.0
16
0.0
26
0.0
36
1.0
17
0.0
27
0.0
37
0.0
42
0.0
43
0.0
44
0.0
45
10.0
50
0.0
51
0.0000000000007958
72
100
90
163872
1

281
0
71
0
74
0
110
0.0
120
0.0
130
0.0
111
1.0
121
0.0
131
0.0
112
0.0
122
1.0
132
0.0
79
0
146
0.0
1001
VD_INVISIBLE_NOT_FOR_READ
1000
VD_INVISIBLE_NOT_FOR_READ
0
ENDBLK
5
267
330
265
100
AcDbEntity
8
0
100
AcDbBlockEnd
0
BLOCK
5
28B
330
23C
100
AcDbEntity
8
0
100
AcDbBlockBegin
2
VDDIM_DEFAULT
70
0
10
0.0
20
0.0
30
0.0
3
VDDIM_DEFAULT
1

0
LWPOLYLINE
5
23D
330
23C
100
AcDbEntity
8
0
6
Continuous
62
0
100
AcDbPolyline
90
4
70
0
43
0.0
10
0.0
20
0.0
10
-1.0
20
-0.1665
10
-1.0
20
0.1665
10
0.0
20
0.0
1001
VDEXTRAPARAM
1071
1
1071
0
1071
0
1040
1.0
1000

1000

1040
0.0
1040
0.0
0
HATCH
5
292
330
23C
100
AcDbEntity
8
0
6
Continuous
62
0
100
AcDbHatch
10
0.0
20
0.0
30
0.0
210
0.0
220
0.0
230
1.0
2
SOLID
70
1
71
0
91
1
92
2
72
0
73
1
93
3
10
0.0
20
0.0
10
-1.0
20
-0.1665
10
-1.0
20
0.1665
97
0
75
0
76
1
98
1
10
0.0
20
0.0
1001
VDEXTRAPARAM
1071
1
1071
0
1071
0
1040
1.0
1000

1000

1040
0.0
1040
0.0
1001
VD_TEMPHATCH
1000
VD_TEMPHATCH
0
ENDBLK
5
28C
330
23C
100
AcDbEntity
8
0
100
AcDbBlockEnd
0
BLOCK
5
28D
330
23E
100
AcDbEntity
8
0
100
AcDbBlockBegin
2
VDDIM_NONE
70
0
10
0.0
20
0.0
30
0.0
3
VDDIM_NONE
1

0
ENDBLK
5
28E
330
23E
100
AcDbEntity
8
0
100
AcDbBlockEnd
0
ENDSEC
0
SECTION
2
ENTITIES
  0
ARC
  5
F10002
330
F10003
100
AcDbEntity
8
Geo
100
AcDbCircle
10
-59.8501454956938
20
14.4147702573303
30
0.00000000000000
 40
0.250000000000000
100
AcDbArc
 50
90.0000000000000
 51
180.000000000000
  0
LINE
  5
F10004
330
F10005
100
AcDbEntity
8
Geo
100
AcDbLine
10
-59.8501454956938
20
14.6647702573303
30
0.00000000000000
11
-59.1001454956938
21
14.6647702573303
31
0.00000000000000
  0
LINE
  5
F10006
330
F10007
100
AcDbEntity
8
Geo
100
AcDbLine
10
-59.1001454956938
20
14.6647702573303
30
0.00000000000000
11
-59.0992344089393
21
14.6647702573303
31
0.00000000000000
  0
LINE
  5
F10008
330
F10009
100
AcDbEntity
8
Geo
100
AcDbLine
10
-59.0992344089393
20
14.6647702573303
30
0.00000000000000
11
-52.5681454956938
21
16.4147702573303
31
0.00000000000000
  0
LINE
  5
F1000A
330
F1000B
100
AcDbEntity
8
Geo
100
AcDbLine
10
-52.5681454956938
20
16.4147702573303
30
0.00000000000000
11
-15.7001454956938
21
16.4147702573303
31
0.00000000000000
  0
LINE
  5
F1000C
330
F1000D
100
AcDbEntity
8
Geo
100
AcDbLine
10
-15.7001454956938
20
16.4147702573303
30
0.00000000000000
11
-15.1001454956938
21
15.8147702573303
31
0.00000000000000
  0
LINE
  5
F1000E
330
F1000F
100
AcDbEntity
8
Geo
100
AcDbLine
10
-60.0634788290271
20
14.5451116893037
30
0.00000000000000
11
-60.0634788290271
21
14.5451085336373
31
0.00000000000000
  0
LINE
  5
F10010
330
F10011
100
AcDbEntity
8
Geo
100
AcDbLine
10
-60.0634788290271
20
14.5451085336373
30
0.00000000000000
11
-60.0598121623604
21
14.5505899027894
31
0.00000000000000
  0
LINE
  5
F10012
330
F10013
100
AcDbEntity
8
Geo
100
AcDbLine
10
-60.0598121623604
20
14.5505899027894
30
0.00000000000000
11
-60.0561454956938
21
14.5555284637523
31
0.00000000000000
  0
LINE
  5
F10014
330
F10015
100
AcDbEntity
8
Geo
100
AcDbLine
10
-60.0561454956938
20
14.5555284637523
30
0.00000000000000
11
-60.0524788290271
21
14.5601329964376
31
0.00000000000000
  0
LINE
  5
F10016
330
F10017
100
AcDbEntity
8
Geo
100
AcDbLine
10
-60.0524788290271
20
14.5601329964376
30
0.00000000000000
11
-60.0488121623604
21
14.5644861142054
31
0.00000000000000
  0
LINE
  5
F10018
330
F10019
100
AcDbEntity
8
Geo
100
AcDbLine
10
-60.0488121623604
20
14.5644861142054
30
0.00000000000000
11
-60.0451454956938
21
14.5686349053112
31
0.00000000000000
  0
LINE
  5
F1001A
330
F1001B
100
AcDbEntity
8
Geo
100
AcDbLine
10
-60.0451454956938
20
14.5686349053112
30
0.00000000000000
11
-60.0414788290271
21
14.5726075352610
31
0.00000000000000
  0
LINE
  5
F1001C
330
F1001D
100
AcDbEntity
8
Geo
100
AcDbLine
10
-60.0414788290271
20
14.5726075352610
30
0.00000000000000
11
-60.0378121623604
21
14.5764265872088
31
0.00000000000000
  0
LINE
  5
F1001E
330
F1001F
100
AcDbEntity
8
Geo
100
AcDbLine
10
-60.0378121623604
20
14.5764265872088
30
0.00000000000000
11
-60.0341454956937
21
14.5801046427324
31
0.00000000000000
  0
LINE
  5
F10020
330
F10021
100
AcDbEntity
8
Geo
100
AcDbLine
10
-60.0341454956937
20
14.5801046427324
30
0.00000000000000
11
-60.0304788290271
21
14.5836582445761
31
0.00000000000000
  0
LINE
  5
F10022
330
F10023
100
AcDbEntity
8
Geo
100
AcDbLine
10
-60.0304788290271
20
14.5836582445761
30
0.00000000000000
11
-60.0268121623604
21
14.5870939815399
31
0.00000000000000
  0
LINE
  5
F10024
330
F10025
100
AcDbEntity
8
Geo
100
AcDbLine
10
-60.0268121623604
20
14.5870939815399
30
0.00000000000000
11
-60.0231454956938
21
14.5904011451047
31
0.00000000000000
  0
LINE
  5
F10026
330
F10027
100
AcDbEntity
8
Geo
100
AcDbLine
10
-60.0231454956938
20
14.5904011451047
30
0.00000000000000
11
-60.0194788290271
21
14.5935486368442
31
0.00000000000000
  0
LINE
  5
F10028
330
F10029
100
AcDbEntity
8
Geo
100
AcDbLine
10
-60.0194788290271
20
14.5935486368442
30
0.00000000000000
11
-60.0158121623604
21
14.5965407811583
31
0.00000000000000
  0
LINE
  5
F1002A
330
F1002B
100
AcDbEntity
8
Geo
100
AcDbLine
10
-60.0158121623604
20
14.5965407811583
30
0.00000000000000
11
-60.0121454956938
21
14.5993846042081
31
0.00000000000000
  0
LINE
  5
F1002C
330
F1002D
100
AcDbEntity
8
Geo
100
AcDbLine
10
-60.0121454956938
20
14.5993846042081
30
0.00000000000000
11
-60.0084788290271
21
14.6020863770322
31
0.00000000000000
  0
LINE
  5
F1002E
330
F1002F
100
AcDbEntity
8
Geo
100
AcDbLine
10
-60.0084788290271
20
14.6020863770322
30
0.00000000000000
11
-60.0048121623604
21
14.6046517247260
31
0.00000000000000
  0
LINE
  5
F10030
330
F10031
100
AcDbEntity
8
Geo
100
AcDbLine
10
-60.0048121623604
20
14.6046517247260
30
0.00000000000000
11
-60.0011454956938
21
14.6070857164025
31
0.00000000000000
  0
LINE
  5
F10032
330
F10033
100
AcDbEntity
8
Geo
100
AcDbLine
10
-60.0011454956938
20
14.6070857164025
30
0.00000000000000
11
-59.9974788290271
21
14.6093929399124
31
0.00000000000000
  0
LINE
  5
F10034
330
F10035
100
AcDbEntity
8
Geo
100
AcDbLine
10
-59.9974788290271
20
14.6093929399124
30
0.00000000000000
11
-59.9938121623604
21
14.6115775643605
31
0.00000000000000
  0
LINE
  5
F10036
330
F10037
100
AcDbEntity
8
Geo
100
AcDbLine
10
-59.9938121623604
20
14.6115775643605
30
0.00000000000000
11
-59.9901454956938
21
14.6136433927674
31
0.00000000000000
  0
LINE
  5
F10038
330
F10039
100
AcDbEntity
8
Geo
100
AcDbLine
10
-59.9901454956938
20
14.6136433927674
30
0.00000000000000
11
-59.9864788290271
21
14.6155939067073
31
0.00000000000000
  0
LINE
  5
F1003A
330
F1003B
100
AcDbEntity
8
Geo
100
AcDbLine
10
-59.9864788290271
20
14.6155939067073
30
0.00000000000000
11
-59.9828121623604
21
14.6174323043651
31
0.00000000000000
  0
LINE
  5
F1003C
330
F1003D
100
AcDbEntity
8
Geo
100
AcDbLine
10
-59.9828121623604
20
14.6174323043651
30
0.00000000000000
11
-59.9791454956937
21
14.6191615331574
31
0.00000000000000
  0
LINE
  5
F1003E
330
F1003F
100
AcDbEntity
8
Geo
100
AcDbLine
10
-59.9791454956937
20
14.6191615331574
30
0.00000000000000
11
-59.9754788290271
21
14.6207843178355
31
0.00000000000000
  0
LINE
  5
F10040
330
F10041
100
AcDbEntity
8
Geo
100
AcDbLine
10
-59.9754788290271
20
14.6207843178355
30
0.00000000000000
11
-59.9718121623604
21
14.6223031848096
31
0.00000000000000
  0
LINE
  5
F10042
330
F10043
100
AcDbEntity
8
Geo
100
AcDbLine
10
-59.9718121623604
20
14.6223031848096
30
0.00000000000000
11
-59.9681454956938
21
14.6237204832940
31
0.00000000000000
  0
LINE
  5
F10044
330
F10045
100
AcDbEntity
8
Geo
100
AcDbLine
10
-59.9681454956938
20
14.6237204832940
30
0.00000000000000
11
-59.9644788290271
21
14.6250384037657
31
0.00000000000000
  0
LINE
  5
F10046
330
F10047
100
AcDbEntity
8
Geo
100
AcDbLine
10
-59.9644788290271
20
14.6250384037657
30
0.00000000000000
11
-59.9608121623604
21
14.6262589941387
31
0.00000000000000
  0
LINE
  5
F10048
330
F10049
100
AcDbEntity
8
Geo
100
AcDbLine
10
-59.9608121623604
20
14.6262589941387
30
0.00000000000000
11
-59.9571454956938
21
14.6273841739887
31
0.00000000000000
  0
LINE
  5
F1004A
330
F1004B
100
AcDbEntity
8
Geo
100
AcDbLine
10
-59.9571454956938
20
14.6273841739887
30
0.00000000000000
11
-59.9534788290271
21
14.6284157471054
31
0.00000000000000
  0
LINE
  5
F1004C
330
F1004D
100
AcDbEntity
8
Geo
100
AcDbLine
10
-59.9534788290271
20
14.6284157471054
30
0.00000000000000
11
-59.9498121623604
21
14.6293554126039
31
0.00000000000000
  0
LINE
  5
F1004E
330
F1004F
100
AcDbEntity
8
Geo
100
AcDbLine
10
-59.9498121623604
20
14.6293554126039
30
0.00000000000000
11
-59.9461454956937
21
14.6302047747913
31
0.00000000000000
  0
LINE
  5
F10050
330
F10051
100
AcDbEntity
8
Geo
100
AcDbLine
10
-59.9461454956937
20
14.6302047747913
30
0.00000000000000
11
-59.9424788290271
21
14.6309653519515
31
0.00000000000000
  0
LINE
  5
F10052
330
F10053
100
AcDbEntity
8
Geo
100
AcDbLine
10
-59.9424788290271
20
14.6309653519515
30
0.00000000000000
11
-59.9388121623604
21
14.6316385841879
31
0.00000000000000
  0
LINE
  5
F10054
330
F10055
100
AcDbEntity
8
Geo
100
AcDbLine
10
-59.9388121623604
20
14.6316385841879
30
0.00000000000000
11
-59.9351454956938
21
14.6322258404429
31
0.00000000000000
  0
LINE
  5
F10056
330
F10057
100
AcDbEntity
8
Geo
100
AcDbLine
10
-59.9351454956938
20
14.6322258404429
30
0.00000000000000
11
-59.9314788290271
21
14.6327284247943
31
0.00000000000000
  0
LINE
  5
F10058
330
F10059
100
AcDbEntity
8
Geo
100
AcDbLine
10
-59.9314788290271
20
14.6327284247943
30
0.00000000000000
11
-59.9278121623604
21
14.6331475821162
31
0.00000000000000
  0
LINE
  5
F1005A
330
F1005B
100
AcDbEntity
8
Geo
100
AcDbLine
10
-59.9278121623604
20
14.6331475821162
30
0.00000000000000
11
-59.9241454956938
21
14.6334845031779
31
0.00000000000000
  0
LINE
  5
F1005C
330
F1005D
100
AcDbEntity
8
Geo
100
AcDbLine
10
-59.9241454956938
20
14.6334845031779
30
0.00000000000000
11
-59.9204788290271
21
14.6337403292466
31
0.00000000000000
  0
LINE
  5
F1005E
330
F1005F
100
AcDbEntity
8
Geo
100
AcDbLine
10
-59.9204788290271
20
14.6337403292466
30
0.00000000000000
11
-59.9168121623604
21
14.6339161562478
31
0.00000000000000
  0
LINE
  5
F10060
330
F10061
100
AcDbEntity
8
Geo
100
AcDbLine
10
-59.9168121623604
20
14.6339161562478
30
0.00000000000000
11
-59.9131454956938
21
14.6340130385325
31
0.00000000000000
  0
LINE
  5
F10062
330
F10063
100
AcDbEntity
8
Geo
100
AcDbLine
10
-59.9131454956938
20
14.6340130385325
30
0.00000000000000
11
-59.9094788290271
21
14.6340319922940
31
0.00000000000000
  0
LINE
  5
F10064
330
F10065
100
AcDbEntity
8
Geo
100
AcDbLine
10
-59.9094788290271
20
14.6340319922940
30
0.00000000000000
11
-59.9058121623604
21
14.6339739986688
31
0.00000000000000
  0
LINE
  5
F10066
330
F10067
100
AcDbEntity
8
Geo
100
AcDbLine
10
-59.9058121623604
20
14.6339739986688
30
0.00000000000000
11
-59.9021454956938
21
14.6338400065561
31
0.00000000000000
  0
LINE
  5
F10068
330
F10069
100
AcDbEntity
8
Geo
100
AcDbLine
10
-59.9021454956938
20
14.6338400065561
30
0.00000000000000
11
-59.8984788290271
21
14.6336309351826
31
0.00000000000000
  0
LINE
  5
F1006A
330
F1006B
100
AcDbEntity
8
Geo
100
AcDbLine
10
-59.8984788290271
20
14.6336309351826
30
0.00000000000000
11
-59.8948121623604
21
14.6333476764368
31
0.00000000000000
  0
LINE
  5
F1006C
330
F1006D
100
AcDbEntity
8
Geo
100
AcDbLine
10
-59.8948121623604
20
14.6333476764368
30
0.00000000000000
11
-59.8911454956937
21
14.6329910969961
31
0.00000000000000
  0
LINE
  5
F1006E
330
F1006F
100
AcDbEntity
8
Geo
100
AcDbLine
10
-59.8911454956937
20
14.6329910969961
30
0.00000000000000
11
-59.8874788290271
21
14.6325620402646
31
0.00000000000000
  0
LINE
  5
F10070
330
F10071
100
AcDbEntity
8
Geo
100
AcDbLine
10
-59.8874788290271
20
14.6325620402646
30
0.00000000000000
11
-59.8838121623604
21
14.6320613281382
31
0.00000000000000
  0
LINE
  5
F10072
330
F10073
100
AcDbEntity
8
Geo
100
AcDbLine
10
-59.8838121623604
20
14.6320613281382
30
0.00000000000000
11
-59.8801454956938
21
14.6314897626131
31
0.00000000000000
  0
LINE
  5
F10074
330
F10075
100
AcDbEntity
8
Geo
100
AcDbLine
10
-59.8801454956938
20
14.6314897626131
30
0.00000000000000
11
-59.8764788290271
21
14.6308481272495
31
0.00000000000000
  0
LINE
  5
F10076
330
F10077
100
AcDbEntity
8
Geo
100
AcDbLine
10
-59.8764788290271
20
14.6308481272495
30
0.00000000000000
11
-59.8728121623604
21
14.6301371885031
31
0.00000000000000
  0
LINE
  5
F10078
330
F10079
100
AcDbEntity
8
Geo
100
AcDbLine
10
-59.8728121623604
20
14.6301371885031
30
0.00000000000000
11
-59.8691454956938
21
14.6293576969336
31
0.00000000000000
  0
LINE
  5
F1007A
330
F1007B
100
AcDbEntity
8
Geo
100
AcDbLine
10
-59.8691454956938
20
14.6293576969336
30
0.00000000000000
11
-59.8654788290271
21
14.6285103883003
31
0.00000000000000
  0
LINE
  5
F1007C
330
F1007D
100
AcDbEntity
8
Geo
100
AcDbLine
10
-59.8654788290271
20
14.6285103883003
30
0.00000000000000
11
-59.8618121623604
21
14.6275959845513
31
0.00000000000000
  0
LINE
  5
F1007E
330
F1007F
100
AcDbEntity
8
Geo
100
AcDbLine
10
-59.8618121623604
20
14.6275959845513
30
0.00000000000000
11
-59.8581454956938
21
14.6266151947153
31
0.00000000000000
  0
LINE
  5
F10080
330
F10081
100
AcDbEntity
8
Geo
100
AcDbLine
10
-59.8581454956938
20
14.6266151947153
30
0.00000000000000
11
-59.8544788290271
21
14.6255687156989
31
0.00000000000000
  0
LINE
  5
F10082
330
F10083
100
AcDbEntity
8
Geo
100
AcDbLine
10
-59.8544788290271
20
14.6255687156989
30
0.00000000000000
11
-59.8508121623604
21
14.6244572329983
31
0.00000000000000
  0
LINE
  5
F10084
330
F10085
100
AcDbEntity
8
Geo
100
AcDbLine
10
-59.8508121623604
20
14.6244572329983
30
0.00000000000000
11
-59.8471454956938
21
14.6232978313104
31
0.00000000000000
  0
LINE
  5
F10086
330
F10087
100
AcDbEntity
8
Geo
100
AcDbLine
10
-59.8471454956938
20
14.6232978313104
30
0.00000000000000
11
-59.8434788290271
21
14.6221226639308
31
0.00000000000000
  0
LINE
  5
F10088
330
F10089
100
AcDbEntity
8
Geo
100
AcDbLine
10
-59.8434788290271
20
14.6221226639308
30
0.00000000000000
11
-59.8398121623604
21
14.6209326287045
31
0.00000000000000
  0
LINE
  5
F1008A
330
F1008B
100
AcDbEntity
8
Geo
100
AcDbLine
10
-59.8398121623604
20
14.6209326287045
30
0.00000000000000
11
-59.8361454956937
21
14.6197278109610
31
0.00000000000000
  0
LINE
  5
F1008C
330
F1008D
100
AcDbEntity
8
Geo
100
AcDbLine
10
-59.8361454956937
20
14.6197278109610
30
0.00000000000000
11
-59.8324788290271
21
14.6185082970896
31
0.00000000000000
  0
LINE
  5
F1008E
330
F1008F
100
AcDbEntity
8
Geo
100
AcDbLine
10
-59.8324788290271
20
14.6185082970896
30
0.00000000000000
11
-59.8288121623604
21
14.6172741745334
31
0.00000000000000
  0
LINE
  5
F10090
330
F10091
100
AcDbEntity
8
Geo
100
AcDbLine
10
-59.8288121623604
20
14.6172741745334
30
0.00000000000000
11
-59.8251454956938
21
14.6160255317831
31
0.00000000000000
  0
LINE
  5
F10092
330
F10093
100
AcDbEntity
8
Geo
100
AcDbLine
10
-59.8251454956938
20
14.6160255317831
30
0.00000000000000
11
-59.8214788290271
21
14.6147624583705
31
0.00000000000000
  0
LINE
  5
F10094
330
F10095
100
AcDbEntity
8
Geo
100
AcDbLine
10
-59.8214788290271
20
14.6147624583705
30
0.00000000000000
11
-59.8178121623604
21
14.6134850448620
31
0.00000000000000
  0
LINE
  5
F10096
330
F10097
100
AcDbEntity
8
Geo
100
AcDbLine
10
-59.8178121623604
20
14.6134850448620
30
0.00000000000000
11
-59.8141454956938
21
14.6121933828524
31
0.00000000000000
  0
LINE
  5
F10098
330
F10099
100
AcDbEntity
8
Geo
100
AcDbLine
10
-59.8141454956938
20
14.6121933828524
30
0.00000000000000
11
-59.8104788290271
21
14.6108875649582
31
0.00000000000000
  0
LINE
  5
F1009A
330
F1009B
100
AcDbEntity
8
Geo
100
AcDbLine
10
-59.8104788290271
20
14.6108875649582
30
0.00000000000000
11
-59.8068121623604
21
14.6095676848106
31
0.00000000000000
  0
LINE
  5
F1009C
330
F1009D
100
AcDbEntity
8
Geo
100
AcDbLine
10
-59.8068121623604
20
14.6095676848106
30
0.00000000000000
11
-59.8031454956938
21
14.6082338370494
31
0.00000000000000
  0
LINE
  5
F1009E
330
F1009F
100
AcDbEntity
8
Geo
100
AcDbLine
10
-59.8031454956938
20
14.6082338370494
30
0.00000000000000
11
-59.7994788290271
21
14.6068861173160
31
0.00000000000000
  0
LINE
  5
F100A0
330
F100A1
100
AcDbEntity
8
Geo
100
AcDbLine
10
-59.7994788290271
20
14.6068861173160
30
0.00000000000000
11
-59.7958121623604
21
14.6055246222462
31
0.00000000000000
  0
LINE
  5
F100A2
330
F100A3
100
AcDbEntity
8
Geo
100
AcDbLine
10
-59.7958121623604
20
14.6055246222462
30
0.00000000000000
11
-59.7921454956938
21
14.6041494494636
31
0.00000000000000
  0
LINE
  5
F100A4
330
F100A5
100
AcDbEntity
8
Geo
100
AcDbLine
10
-59.7921454956938
20
14.6041494494636
30
0.00000000000000
11
-59.7884788290271
21
14.6027606975727
31
0.00000000000000
  0
LINE
  5
F100A6
330
F100A7
100
AcDbEntity
8
Geo
100
AcDbLine
10
-59.7884788290271
20
14.6027606975727
30
0.00000000000000
11
-59.7848121623604
21
14.6013584661515
31
0.00000000000000
  0
LINE
  5
F100A8
330
F100A9
100
AcDbEntity
8
Geo
100
AcDbLine
10
-59.7848121623604
20
14.6013584661515
30
0.00000000000000
11
-59.7811454956937
21
14.5999428557446
31
0.00000000000000
  0
LINE
  5
F100AA
330
F100AB
100
AcDbEntity
8
Geo
100
AcDbLine
10
-59.7811454956937
20
14.5999428557446
30
0.00000000000000
11
-59.7774788290271
21
14.5985139678560
31
0.00000000000000
  0
LINE
  5
F100AC
330
F100AD
100
AcDbEntity
8
Geo
100
AcDbLine
10
-59.7774788290271
20
14.5985139678560
30
0.00000000000000
11
-59.7738121623604
21
14.5970719049414
31
0.00000000000000
  0
LINE
  5
F100AE
330
F100AF
100
AcDbEntity
8
Geo
100
AcDbLine
10
-59.7738121623604
20
14.5970719049414
30
0.00000000000000
11
-59.7701454956938
21
14.5956167704017
31
0.00000000000000
  0
LINE
  5
F100B0
330
F100B1
100
AcDbEntity
8
Geo
100
AcDbLine
10
-59.7701454956938
20
14.5956167704017
30
0.00000000000000
11
-59.7664788290271
21
14.5941486685746
31
0.00000000000000
  0
LINE
  5
F100B2
330
F100B3
100
AcDbEntity
8
Geo
100
AcDbLine
10
-59.7664788290271
20
14.5941486685746
30
0.00000000000000
11
-59.7628121623604
21
14.5926677047280
31
0.00000000000000
  0
LINE
  5
F100B4
330
F100B5
100
AcDbEntity
8
Geo
100
AcDbLine
10
-59.7628121623604
20
14.5926677047280
30
0.00000000000000
11
-59.7591454956938
21
14.5911739850517
31
0.00000000000000
  0
LINE
  5
F100B6
330
F100B7
100
AcDbEntity
8
Geo
100
AcDbLine
10
-59.7591454956938
20
14.5911739850517
30
0.00000000000000
11
-59.7554788290271
21
14.5896676166504
31
0.00000000000000
  0
LINE
  5
F100B8
330
F100B9
100
AcDbEntity
8
Geo
100
AcDbLine
10
-59.7554788290271
20
14.5896676166504
30
0.00000000000000
11
-59.7518121623604
21
14.5881487075355
31
0.00000000000000
  0
LINE
  5
F100BA
330
F100BB
100
AcDbEntity
8
Geo
100
AcDbLine
10
-59.7518121623604
20
14.5881487075355
30
0.00000000000000
11
-59.7481454956938
21
14.5866173666180
31
0.00000000000000
  0
LINE
  5
F100BC
330
F100BD
100
AcDbEntity
8
Geo
100
AcDbLine
10
-59.7481454956938
20
14.5866173666180
30
0.00000000000000
11
-59.7444788290271
21
14.5850737036998
31
0.00000000000000
  0
LINE
  5
F100BE
330
F100BF
100
AcDbEntity
8
Geo
100
AcDbLine
10
-59.7444788290271
20
14.5850737036998
30
0.00000000000000
11
-59.7408121623604
21
14.5835178294668
31
0.00000000000000
  0
LINE
  5
F100C0
330
F100C1
100
AcDbEntity
8
Geo
100
AcDbLine
10
-59.7408121623604
20
14.5835178294668
30
0.00000000000000
11
-59.7371454956938
21
14.5819498554801
31
0.00000000000000
  0
LINE
  5
F100C2
330
F100C3
100
AcDbEntity
8
Geo
100
AcDbLine
10
-59.7371454956938
20
14.5819498554801
30
0.00000000000000
11
-59.7334788290271
21
14.5803698941688
31
0.00000000000000
  0
LINE
  5
F100C4
330
F100C5
100
AcDbEntity
8
Geo
100
AcDbLine
10
-59.7334788290271
20
14.5803698941688
30
0.00000000000000
11
-59.7298121623604
21
14.5787780588210
31
0.00000000000000
  0
LINE
  5
F100C6
330
F100C7
100
AcDbEntity
8
Geo
100
AcDbLine
10
-59.7298121623604
20
14.5787780588210
30
0.00000000000000
11
-59.7261454956937
21
14.5771744635768
31
0.00000000000000
  0
LINE
  5
F100C8
330
F100C9
100
AcDbEntity
8
Geo
100
AcDbLine
10
-59.7261454956937
20
14.5771744635768
30
0.00000000000000
11
-59.7224788290271
21
14.5755592234190
31
0.00000000000000
  0
LINE
  5
F100CA
330
F100CB
100
AcDbEntity
8
Geo
100
AcDbLine
10
-59.7224788290271
20
14.5755592234190
30
0.00000000000000
11
-59.7188121623604
21
14.5739324541657
31
0.00000000000000
  0
LINE
  5
F100CC
330
F100CD
100
AcDbEntity
8
Geo
100
AcDbLine
10
-59.7188121623604
20
14.5739324541657
30
0.00000000000000
11
-59.7151454956938
21
14.5722942724617
31
0.00000000000000
  0
LINE
  5
F100CE
330
F100CF
100
AcDbEntity
8
Geo
100
AcDbLine
10
-59.7151454956938
20
14.5722942724617
30
0.00000000000000
11
-59.7114788290271
21
14.5706447957698
31
0.00000000000000
  0
LINE
  5
F100D0
330
F100D1
100
AcDbEntity
8
Geo
100
AcDbLine
10
-59.7114788290271
20
14.5706447957698
30
0.00000000000000
11
-59.7078121623604
21
14.5689841423629
31
0.00000000000000
  0
LINE
  5
F100D2
330
F100D3
100
AcDbEntity
8
Geo
100
AcDbLine
10
-59.7078121623604
20
14.5689841423629
30
0.00000000000000
11
-59.7041454956938
21
14.5673124313155
31
0.00000000000000
  0
LINE
  5
F100D4
330
F100D5
100
AcDbEntity
8
Geo
100
AcDbLine
10
-59.7041454956938
20
14.5673124313155
30
0.00000000000000
11
-59.7004788290271
21
14.5656297824945
31
0.00000000000000
  0
LINE
  5
F100D6
330
F100D7
100
AcDbEntity
8
Geo
100
AcDbLine
10
-59.7004788290271
20
14.5656297824945
30
0.00000000000000
11
-59.6968121623604
21
14.5639363165515
31
0.00000000000000
  0
LINE
  5
F100D8
330
F100D9
100
AcDbEntity
8
Geo
100
AcDbLine
10
-59.6968121623604
20
14.5639363165515
30
0.00000000000000
11
-59.6931454956938
21
14.5622321549135
31
0.00000000000000
  0
LINE
  5
F100DA
330
F100DB
100
AcDbEntity
8
Geo
100
AcDbLine
10
-59.6931454956938
20
14.5622321549135
30
0.00000000000000
11
-59.6894788290271
21
14.5605174197744
31
0.00000000000000
  0
LINE
  5
F100DC
330
F100DD
100
AcDbEntity
8
Geo
100
AcDbLine
10
-59.6894788290271
20
14.5605174197744
30
0.00000000000000
11
-59.6858121623604
21
14.5587922340865
31
0.00000000000000
  0
LINE
  5
F100DE
330
F100DF
100
AcDbEntity
8
Geo
100
AcDbLine
10
-59.6858121623604
20
14.5587922340865
30
0.00000000000000
11
-59.6821454956938
21
14.5570567215511
31
0.00000000000000
  0
LINE
  5
F100E0
330
F100E1
100
AcDbEntity
8
Geo
100
AcDbLine
10
-59.6821454956938
20
14.5570567215511
30
0.00000000000000
11
-59.6784788290271
21
14.5553110066102
31
0.00000000000000
  0
LINE
  5
F100E2
330
F100E3
100
AcDbEntity
8
Geo
100
AcDbLine
10
-59.6784788290271
20
14.5553110066102
30
0.00000000000000
11
-59.6748121623604
21
14.5535552144372
31
0.00000000000000
  0
LINE
  5
F100E4
330
F100E5
100
AcDbEntity
8
Geo
100
AcDbLine
10
-59.6748121623604
20
14.5535552144372
30
0.00000000000000
11
-59.6711454956938
21
14.5517894709283
31
0.00000000000000
  0
LINE
  5
F100E6
330
F100E7
100
AcDbEntity
8
Geo
100
AcDbLine
10
-59.6711454956938
20
14.5517894709283
30
0.00000000000000
11
-59.6674788290271
21
14.5500139026930
31
0.00000000000000
  0
LINE
  5
F100E8
330
F100E9
100
AcDbEntity
8
Geo
100
AcDbLine
10
-59.6674788290271
20
14.5500139026930
30
0.00000000000000
11
-59.6638121623604
21
14.5482286370454
31
0.00000000000000
  0
LINE
  5
F100EA
330
F100EB
100
AcDbEntity
8
Geo
100
AcDbLine
10
-59.6638121623604
20
14.5482286370454
30
0.00000000000000
11
-59.6601454956938
21
14.5464338019948
31
0.00000000000000
  0
LINE
  5
F100EC
330
F100ED
100
AcDbEntity
8
Geo
100
AcDbLine
10
-59.6601454956938
20
14.5464338019948
30
0.00000000000000
11
-59.6564788290271
21
14.5446295262369
31
0.00000000000000
  0
LINE
  5
F100EE
330
F100EF
100
AcDbEntity
8
Geo
100
AcDbLine
10
-59.6564788290271
20
14.5446295262369
30
0.00000000000000
11
-59.6528121623604
21
14.5428159391440
31
0.00000000000000
  0
LINE
  5
F100F0
330
F100F1
100
AcDbEntity
8
Geo
100
AcDbLine
10
-59.6528121623604
20
14.5428159391440
30
0.00000000000000
11
-59.6491454956938
21
14.5409931707564
31
0.00000000000000
  0
LINE
  5
F100F2
330
F100F3
100
AcDbEntity
8
Geo
100
AcDbLine
10
-59.6491454956938
20
14.5409931707564
30
0.00000000000000
11
-59.6454788290271
21
14.5391613517725
31
0.00000000000000
  0
LINE
  5
F100F4
330
F100F5
100
AcDbEntity
8
Geo
100
AcDbLine
10
-59.6454788290271
20
14.5391613517725
30
0.00000000000000
11
-59.6418121623604
21
14.5373206135397
31
0.00000000000000
  0
LINE
  5
F100F6
330
F100F7
100
AcDbEntity
8
Geo
100
AcDbLine
10
-59.6418121623604
20
14.5373206135397
30
0.00000000000000
11
-59.6381454956938
21
14.5354710880449
31
0.00000000000000
  0
LINE
  5
F100F8
330
F100F9
100
AcDbEntity
8
Geo
100
AcDbLine
10
-59.6381454956938
20
14.5354710880449
30
0.00000000000000
11
-59.6344788290271
21
14.5336129079053
31
0.00000000000000
  0
LINE
  5
F100FA
330
F100FB
100
AcDbEntity
8
Geo
100
AcDbLine
10
-59.6344788290271
20
14.5336129079053
30
0.00000000000000
11
-59.6308121623604
21
14.5317462063584
31
0.00000000000000
  0
LINE
  5
F100FC
330
F100FD
100
AcDbEntity
8
Geo
100
AcDbLine
10
-59.6308121623604
20
14.5317462063584
30
0.00000000000000
11
-59.6271454956938
21
14.5298711172528
31
0.00000000000000
  0
LINE
  5
F100FE
330
F100FF
100
AcDbEntity
8
Geo
100
AcDbLine
10
-59.6271454956938
20
14.5298711172528
30
0.00000000000000
11
-59.6234788290271
21
14.5279877750386
31
0.00000000000000
  0
LINE
  5
F10100
330
F10101
100
AcDbEntity
8
Geo
100
AcDbLine
10
-59.6234788290271
20
14.5279877750386
30
0.00000000000000
11
-59.6198121623604
21
14.5260963147575
31
0.00000000000000
  0
LINE
  5
F10102
330
F10103
100
AcDbEntity
8
Geo
100
AcDbLine
10
-59.6198121623604
20
14.5260963147575
30
0.00000000000000
11
-59.6161454956938
21
14.5241968720335
31
0.00000000000000
  0
LINE
  5
F10104
330
F10105
100
AcDbEntity
8
Geo
100
AcDbLine
10
-59.6161454956938
20
14.5241968720335
30
0.00000000000000
11
-59.6124788290271
21
14.5222895830629
31
0.00000000000000
  0
LINE
  5
F10106
330
F10107
100
AcDbEntity
8
Geo
100
AcDbLine
10
-59.6124788290271
20
14.5222895830629
30
0.00000000000000
11
-59.6088121623604
21
14.5203745846044
31
0.00000000000000
  0
LINE
  5
F10108
330
F10109
100
AcDbEntity
8
Geo
100
AcDbLine
10
-59.6088121623604
20
14.5203745846044
30
0.00000000000000
11
-59.6051454956938
21
14.5184520139698
31
0.00000000000000
  0
LINE
  5
F1010A
330
F1010B
100
AcDbEntity
8
Geo
100
AcDbLine
10
-59.6051454956938
20
14.5184520139698
30
0.00000000000000
11
-59.6014788290271
21
14.5165220090136
31
0.00000000000000
  0
LINE
  5
F1010C
330
F1010D
100
AcDbEntity
8
Geo
100
AcDbLine
10
-59.6014788290271
20
14.5165220090136
30
0.00000000000000
11
-59.5978121623604
21
14.5145847081236
31
0.00000000000000
  0
LINE
  5
F1010E
330
F1010F
100
AcDbEntity
8
Geo
100
AcDbLine
10
-59.5978121623604
20
14.5145847081236
30
0.00000000000000
11
-59.5941454956938
21
14.5126402502105
31
0.00000000000000
  0
LINE
  5
F10110
330
F10111
100
AcDbEntity
8
Geo
100
AcDbLine
10
-59.5941454956938
20
14.5126402502105
30
0.00000000000000
11
-59.5904788290271
21
14.5106887746984
31
0.00000000000000
  0
LINE
  5
F10112
330
F10113
100
AcDbEntity
8
Geo
100
AcDbLine
10
-59.5904788290271
20
14.5106887746984
30
0.00000000000000
11
-59.5868121623604
21
14.5087304215145
31
0.00000000000000
  0
LINE
  5
F10114
330
F10115
100
AcDbEntity
8
Geo
100
AcDbLine
10
-59.5868121623604
20
14.5087304215145
30
0.00000000000000
11
-59.5831454956937
21
14.5067653310790
31
0.00000000000000
  0
LINE
  5
F10116
330
F10117
100
AcDbEntity
8
Geo
100
AcDbLine
10
-59.5831454956937
20
14.5067653310790
30
0.00000000000000
11
-59.5794788290271
21
14.5047936442955
31
0.00000000000000
  0
LINE
  5
F10118
330
F10119
100
AcDbEntity
8
Geo
100
AcDbLine
10
-59.5794788290271
20
14.5047936442955
30
0.00000000000000
11
-59.5758121623604
21
14.5028155025402
31
0.00000000000000
  0
LINE
  5
F1011A
330
F1011B
100
AcDbEntity
8
Geo
100
AcDbLine
10
-59.5758121623604
20
14.5028155025402
30
0.00000000000000
11
-59.5721454956938
21
14.5008310476525
31
0.00000000000000
  0
LINE
  5
F1011C
330
F1011D
100
AcDbEntity
8
Geo
100
AcDbLine
10
-59.5721454956938
20
14.5008310476525
30
0.00000000000000
11
-59.5684788290271
21
14.4988404219243
31
0.00000000000000
  0
LINE
  5
F1011E
330
F1011F
100
AcDbEntity
8
Geo
100
AcDbLine
10
-59.5684788290271
20
14.4988404219243
30
0.00000000000000
11
-59.5648121623604
21
14.4968437680899
31
0.00000000000000
  0
LINE
  5
F10120
330
F10121
100
AcDbEntity
8
Geo
100
AcDbLine
10
-59.5648121623604
20
14.4968437680899
30
0.00000000000000
11
-59.5611454956938
21
14.4948412293159
31
0.00000000000000
  0
LINE
  5
F10122
330
F10123
100
AcDbEntity
8
Geo
100
AcDbLine
10
-59.5611454956938
20
14.4948412293159
30
0.00000000000000
11
-59.5574788290271
21
14.4928329491911
31
0.00000000000000
  0
LINE
  5
F10124
330
F10125
100
AcDbEntity
8
Geo
100
AcDbLine
10
-59.5574788290271
20
14.4928329491911
30
0.00000000000000
11
-59.5538121623604
21
14.4908190717155
31
0.00000000000000
  0
LINE
  5
F10126
330
F10127
100
AcDbEntity
8
Geo
100
AcDbLine
10
-59.5538121623604
20
14.4908190717155
30
0.00000000000000
11
-59.5501454956938
21
14.4887997412909
31
0.00000000000000
  0
LINE
  5
F10128
330
F10129
100
AcDbEntity
8
Geo
100
AcDbLine
10
-59.5501454956938
20
14.4887997412909
30
0.00000000000000
11
-59.5464788290271
21
14.4867751027098
31
0.00000000000000
  0
LINE
  5
F1012A
330
F1012B
100
AcDbEntity
8
Geo
100
AcDbLine
10
-59.5464788290271
20
14.4867751027098
30
0.00000000000000
11
-59.5428121623604
21
14.4847453011455
31
0.00000000000000
  0
LINE
  5
F1012C
330
F1012D
100
AcDbEntity
8
Geo
100
AcDbLine
10
-59.5428121623604
20
14.4847453011455
30
0.00000000000000
11
-59.5391454956938
21
14.4827104821413
31
0.00000000000000
  0
LINE
  5
F1012E
330
F1012F
100
AcDbEntity
8
Geo
100
AcDbLine
10
-59.5391454956938
20
14.4827104821413
30
0.00000000000000
11
-59.5354788290271
21
14.4806707916005
31
0.00000000000000
  0
LINE
  5
F10130
330
F10131
100
AcDbEntity
8
Geo
100
AcDbLine
10
-59.5354788290271
20
14.4806707916005
30
0.00000000000000
11
-59.5318121623604
21
14.4786263757755
31
0.00000000000000
  0
LINE
  5
F10132
330
F10133
100
AcDbEntity
8
Geo
100
AcDbLine
10
-59.5318121623604
20
14.4786263757755
30
0.00000000000000
11
-59.5281454956937
21
14.4765773812577
31
0.00000000000000
  0
LINE
  5
F10134
330
F10135
100
AcDbEntity
8
Geo
100
AcDbLine
10
-59.5281454956937
20
14.4765773812577
30
0.00000000000000
11
-59.5244788290271
21
14.4745239549667
31
0.00000000000000
  0
LINE
  5
F10136
330
F10137
100
AcDbEntity
8
Geo
100
AcDbLine
10
-59.5244788290271
20
14.4745239549667
30
0.00000000000000
11
-59.5208121623604
21
14.4724662441399
31
0.00000000000000
  0
LINE
  5
F10138
330
F10139
100
AcDbEntity
8
Geo
100
AcDbLine
10
-59.5208121623604
20
14.4724662441399
30
0.00000000000000
11
-59.5171454956938
21
14.4704043963218
31
0.00000000000000
  0
LINE
  5
F1013A
330
F1013B
100
AcDbEntity
8
Geo
100
AcDbLine
10
-59.5171454956938
20
14.4704043963218
30
0.00000000000000
11
-59.5134788290271
21
14.4683385593538
31
0.00000000000000
  0
LINE
  5
F1013C
330
F1013D
100
AcDbEntity
8
Geo
100
AcDbLine
10
-59.5134788290271
20
14.4683385593538
30
0.00000000000000
11
-59.5098121623604
21
14.4662688813630
31
0.00000000000000
  0
LINE
  5
F1013E
330
F1013F
100
AcDbEntity
8
Geo
100
AcDbLine
10
-59.5098121623604
20
14.4662688813630
30
0.00000000000000
11
-59.5061454956938
21
14.4641955107523
31
0.00000000000000
  0
LINE
  5
F10140
330
F10141
100
AcDbEntity
8
Geo
100
AcDbLine
10
-59.5061454956938
20
14.4641955107523
30
0.00000000000000
11
-59.5024788290271
21
14.4621185961890
31
0.00000000000000
  0
LINE
  5
F10142
330
F10143
100
AcDbEntity
8
Geo
100
AcDbLine
10
-59.5024788290271
20
14.4621185961890
30
0.00000000000000
11
-59.4988121623604
21
14.4600382865947
31
0.00000000000000
  0
LINE
  5
F10144
330
F10145
100
AcDbEntity
8
Geo
100
AcDbLine
10
-59.4988121623604
20
14.4600382865947
30
0.00000000000000
11
-59.4951454956937
21
14.4579547311344
31
0.00000000000000
  0
LINE
  5
F10146
330
F10147
100
AcDbEntity
8
Geo
100
AcDbLine
10
-59.4951454956937
20
14.4579547311344
30
0.00000000000000
11
-59.4914788290271
21
14.4558680792060
31
0.00000000000000
  0
LINE
  5
F10148
330
F10149
100
AcDbEntity
8
Geo
100
AcDbLine
10
-59.4914788290271
20
14.4558680792060
30
0.00000000000000
11
-59.4878121623604
21
14.4537784804291
31
0.00000000000000
  0
LINE
  5
F1014A
330
F1014B
100
AcDbEntity
8
Geo
100
AcDbLine
10
-59.4878121623604
20
14.4537784804291
30
0.00000000000000
11
-59.4841454956938
21
14.4516860846348
31
0.00000000000000
  0
LINE
  5
F1014C
330
F1014D
100
AcDbEntity
8
Geo
100
AcDbLine
10
-59.4841454956938
20
14.4516860846348
30
0.00000000000000
11
-59.4804788290271
21
14.4495910418548
31
0.00000000000000
  0
LINE
  5
F1014E
330
F1014F
100
AcDbEntity
8
Geo
100
AcDbLine
10
-59.4804788290271
20
14.4495910418548
30
0.00000000000000
11
-59.4768121623604
21
14.4474935023106
31
0.00000000000000
  0
LINE
  5
F10150
330
F10151
100
AcDbEntity
8
Geo
100
AcDbLine
10
-59.4768121623604
20
14.4474935023106
30
0.00000000000000
11
-59.4731454956937
21
14.4453936164024
31
0.00000000000000
  0
LINE
  5
F10152
330
F10153
100
AcDbEntity
8
Geo
100
AcDbLine
10
-59.4731454956937
20
14.4453936164024
30
0.00000000000000
11
-59.4694788290271
21
14.4432915346992
31
0.00000000000000
  0
LINE
  5
F10154
330
F10155
100
AcDbEntity
8
Geo
100
AcDbLine
10
-59.4694788290271
20
14.4432915346992
30
0.00000000000000
11
-59.4658121623604
21
14.4411874079269
31
0.00000000000000
  0
LINE
  5
F10156
330
F10157
100
AcDbEntity
8
Geo
100
AcDbLine
10
-59.4658121623604
20
14.4411874079269
30
0.00000000000000
11
-59.4621454956938
21
14.4390813869584
31
0.00000000000000
  0
LINE
  5
F10158
330
F10159
100
AcDbEntity
8
Geo
100
AcDbLine
10
-59.4621454956938
20
14.4390813869584
30
0.00000000000000
11
-59.4584788290271
21
14.4369736228023
31
0.00000000000000
  0
LINE
  5
F1015A
330
F1015B
100
AcDbEntity
8
Geo
100
AcDbLine
10
-59.4584788290271
20
14.4369736228023
30
0.00000000000000
11
-59.4548121623604
21
14.4348642665922
31
0.00000000000000
  0
LINE
  5
F1015C
330
F1015D
100
AcDbEntity
8
Geo
100
AcDbLine
10
-59.4548121623604
20
14.4348642665922
30
0.00000000000000
11
-59.4511454956938
21
14.4327534695758
31
0.00000000000000
  0
LINE
  5
F1015E
330
F1015F
100
AcDbEntity
8
Geo
100
AcDbLine
10
-59.4511454956938
20
14.4327534695758
30
0.00000000000000
11
-59.4474788290271
21
14.4306413831042
31
0.00000000000000
  0
LINE
  5
F10160
330
F10161
100
AcDbEntity
8
Geo
100
AcDbLine
10
-59.4474788290271
20
14.4306413831042
30
0.00000000000000
11
-59.4438121623604
21
14.4285281586208
31
0.00000000000000
  0
LINE
  5
F10162
330
F10163
100
AcDbEntity
8
Geo
100
AcDbLine
10
-59.4438121623604
20
14.4285281586208
30
0.00000000000000
11
-59.4401454956937
21
14.4264139476509
31
0.00000000000000
  0
LINE
  5
F10164
330
F10165
100
AcDbEntity
8
Geo
100
AcDbLine
10
-59.4401454956937
20
14.4264139476509
30
0.00000000000000
11
-59.4364788290271
21
14.4242989017903
31
0.00000000000000
  0
LINE
  5
F10166
330
F10167
100
AcDbEntity
8
Geo
100
AcDbLine
10
-59.4364788290271
20
14.4242989017903
30
0.00000000000000
11
-59.4328121623604
21
14.4221831726946
31
0.00000000000000
  0
LINE
  5
F10168
330
F10169
100
AcDbEntity
8
Geo
100
AcDbLine
10
-59.4328121623604
20
14.4221831726946
30
0.00000000000000
11
-59.4291454956938
21
14.4200669120687
31
0.00000000000000
  0
LINE
  5
F1016A
330
F1016B
100
AcDbEntity
8
Geo
100
AcDbLine
10
-59.4291454956938
20
14.4200669120687
30
0.00000000000000
11
-59.4254788290271
21
14.4179502716552
31
0.00000000000000
  0
LINE
  5
F1016C
330
F1016D
100
AcDbEntity
8
Geo
100
AcDbLine
10
-59.4254788290271
20
14.4179502716552
30
0.00000000000000
11
-59.4218121623604
21
14.4158334032243
31
0.00000000000000
  0
LINE
  5
F1016E
330
F1016F
100
AcDbEntity
8
Geo
100
AcDbLine
10
-59.4218121623604
20
14.4158334032243
30
0.00000000000000
11
-59.4181454956938
21
14.4137164585623
31
0.00000000000000
  0
LINE
  5
F10170
330
F10171
100
AcDbEntity
8
Geo
100
AcDbLine
10
-59.4181454956938
20
14.4137164585623
30
0.00000000000000
11
-59.4144788290271
21
14.4115995894612
31
0.00000000000000
  0
LINE
  5
F10172
330
F10173
100
AcDbEntity
8
Geo
100
AcDbLine
10
-59.4144788290271
20
14.4115995894612
30
0.00000000000000
11
-59.4108121623604
21
14.4094829477074
31
0.00000000000000
  0
LINE
  5
F10174
330
F10175
100
AcDbEntity
8
Geo
100
AcDbLine
10
-59.4108121623604
20
14.4094829477074
30
0.00000000000000
11
-59.4071454956937
21
14.4073666850709
31
0.00000000000000
  0
LINE
  5
F10176
330
F10177
100
AcDbEntity
8
Geo
100
AcDbLine
10
-59.4071454956937
20
14.4073666850709
30
0.00000000000000
11
-59.4034788290271
21
14.4052509532949
31
0.00000000000000
  0
LINE
  5
F10178
330
F10179
100
AcDbEntity
8
Geo
100
AcDbLine
10
-59.4034788290271
20
14.4052509532949
30
0.00000000000000
11
-59.3998121623604
21
14.4031359040841
31
0.00000000000000
  0
LINE
  5
F1017A
330
F1017B
100
AcDbEntity
8
Geo
100
AcDbLine
10
-59.3998121623604
20
14.4031359040841
30
0.00000000000000
11
-59.3961454956938
21
14.4010216890946
31
0.00000000000000
  0
LINE
  5
F1017C
330
F1017D
100
AcDbEntity
8
Geo
100
AcDbLine
10
-59.3961454956938
20
14.4010216890946
30
0.00000000000000
11
-59.3924788290271
21
14.3989084599224
31
0.00000000000000
  0
LINE
  5
F1017E
330
F1017F
100
AcDbEntity
8
Geo
100
AcDbLine
10
-59.3924788290271
20
14.3989084599224
30
0.00000000000000
11
-59.3888121623604
21
14.3967963680930
31
0.00000000000000
  0
LINE
  5
F10180
330
F10181
100
AcDbEntity
8
Geo
100
AcDbLine
10
-59.3888121623604
20
14.3967963680930
30
0.00000000000000
11
-59.3851454956937
21
14.3946855650504
31
0.00000000000000
  0
LINE
  5
F10182
330
F10183
100
AcDbEntity
8
Geo
100
AcDbLine
10
-59.3851454956937
20
14.3946855650504
30
0.00000000000000
11
-59.3814788290271
21
14.3925762021460
31
0.00000000000000
  0
LINE
  5
F10184
330
F10185
100
AcDbEntity
8
Geo
100
AcDbLine
10
-59.3814788290271
20
14.3925762021460
30
0.00000000000000
11
-59.3778121623604
21
14.3904684306281
31
0.00000000000000
  0
LINE
  5
F10186
330
F10187
100
AcDbEntity
8
Geo
100
AcDbLine
10
-59.3778121623604
20
14.3904684306281
30
0.00000000000000
11
-59.3741454956938
21
14.3883624016307
31
0.00000000000000
  0
LINE
  5
F10188
330
F10189
100
AcDbEntity
8
Geo
100
AcDbLine
10
-59.3741454956938
20
14.3883624016307
30
0.00000000000000
11
-59.3704788290271
21
14.3862582661630
31
0.00000000000000
  0
LINE
  5
F1018A
330
F1018B
100
AcDbEntity
8
Geo
100
AcDbLine
10
-59.3704788290271
20
14.3862582661630
30
0.00000000000000
11
-59.3668121623604
21
14.3841561750985
31
0.00000000000000
  0
LINE
  5
F1018C
330
F1018D
100
AcDbEntity
8
Geo
100
AcDbLine
10
-59.3668121623604
20
14.3841561750985
30
0.00000000000000
11
-59.3631454956938
21
14.3820562791640
31
0.00000000000000
  0
LINE
  5
F1018E
330
F1018F
100
AcDbEntity
8
Geo
100
AcDbLine
10
-59.3631454956938
20
14.3820562791640
30
0.00000000000000
11
-59.3594788290271
21
14.3799587289289
31
0.00000000000000
  0
LINE
  5
F10190
330
F10191
100
AcDbEntity
8
Geo
100
AcDbLine
10
-59.3594788290271
20
14.3799587289289
30
0.00000000000000
11
-59.3558121623604
21
14.3778636747943
31
0.00000000000000
  0
LINE
  5
F10192
330
F10193
100
AcDbEntity
8
Geo
100
AcDbLine
10
-59.3558121623604
20
14.3778636747943
30
0.00000000000000
11
-59.3521454956937
21
14.3757712669827
31
0.00000000000000
  0
LINE
  5
F10194
330
F10195
100
AcDbEntity
8
Geo
100
AcDbLine
10
-59.3521454956937
20
14.3757712669827
30
0.00000000000000
11
-59.3484788290271
21
14.3736816555263
31
0.00000000000000
  0
LINE
  5
F10196
330
F10197
100
AcDbEntity
8
Geo
100
AcDbLine
10
-59.3484788290271
20
14.3736816555263
30
0.00000000000000
11
-59.3448121623604
21
14.3715949902573
31
0.00000000000000
  0
LINE
  5
F10198
330
F10199
100
AcDbEntity
8
Geo
100
AcDbLine
10
-59.3448121623604
20
14.3715949902573
30
0.00000000000000
11
-59.3411454956938
21
14.3695114207963
31
0.00000000000000
  0
LINE
  5
F1019A
330
F1019B
100
AcDbEntity
8
Geo
100
AcDbLine
10
-59.3411454956938
20
14.3695114207963
30
0.00000000000000
11
-59.3374788290271
21
14.3674310965422
31
0.00000000000000
  0
LINE
  5
F1019C
330
F1019D
100
AcDbEntity
8
Geo
100
AcDbLine
10
-59.3374788290271
20
14.3674310965422
30
0.00000000000000
11
-59.3338121623604
21
14.3653541666609
31
0.00000000000000
  0
LINE
  5
F1019E
330
F1019F
100
AcDbEntity
8
Geo
100
AcDbLine
10
-59.3338121623604
20
14.3653541666609
30
0.00000000000000
11
-59.3301454956937
21
14.3632807800751
31
0.00000000000000
  0
LINE
  5
F101A0
330
F101A1
100
AcDbEntity
8
Geo
100
AcDbLine
10
-59.3301454956937
20
14.3632807800751
30
0.00000000000000
11
-59.3264788290271
21
14.3612110854536
31
0.00000000000000
  0
LINE
  5
F101A2
330
F101A3
100
AcDbEntity
8
Geo
100
AcDbLine
10
-59.3264788290271
20
14.3612110854536
30
0.00000000000000
11
-59.3228121623604
21
14.3591452312001
31
0.00000000000000
  0
LINE
  5
F101A4
330
F101A5
100
AcDbEntity
8
Geo
100
AcDbLine
10
-59.3228121623604
20
14.3591452312001
30
0.00000000000000
11
-59.3191454956937
21
14.3570833654431
31
0.00000000000000
  0
LINE
  5
F101A6
330
F101A7
100
AcDbEntity
8
Geo
100
AcDbLine
10
-59.3191454956937
20
14.3570833654431
30
0.00000000000000
11
-59.3154788290271
21
14.3550256360252
31
0.00000000000000
  0
LINE
  5
F101A8
330
F101A9
100
AcDbEntity
8
Geo
100
AcDbLine
10
-59.3154788290271
20
14.3550256360252
30
0.00000000000000
11
-59.3118121623604
21
14.3529721904924
31
0.00000000000000
  0
LINE
  5
F101AA
330
F101AB
100
AcDbEntity
8
Geo
100
AcDbLine
10
-59.3118121623604
20
14.3529721904924
30
0.00000000000000
11
-59.3081454956938
21
14.3509231760833
31
0.00000000000000
  0
LINE
  5
F101AC
330
F101AD
100
AcDbEntity
8
Geo
100
AcDbLine
10
-59.3081454956938
20
14.3509231760833
30
0.00000000000000
11
-59.3044788290271
21
14.3488787397191
31
0.00000000000000
  0
LINE
  5
F101AE
330
F101AF
100
AcDbEntity
8
Geo
100
AcDbLine
10
-59.3044788290271
20
14.3488787397191
30
0.00000000000000
11
-59.3008121623604
21
14.3468390279925
31
0.00000000000000
  0
LINE
  5
F101B0
330
F101B1
100
AcDbEntity
8
Geo
100
AcDbLine
10
-59.3008121623604
20
14.3468390279925
30
0.00000000000000
11
-59.2971454956937
21
14.3448041871576
31
0.00000000000000
  0
LINE
  5
F101B2
330
F101B3
100
AcDbEntity
8
Geo
100
AcDbLine
10
-59.2971454956937
20
14.3448041871576
30
0.00000000000000
11
-59.2934788290271
21
14.3427743631190
31
0.00000000000000
  0
LINE
  5
F101B4
330
F101B5
100
AcDbEntity
8
Geo
100
AcDbLine
10
-59.2934788290271
20
14.3427743631190
30
0.00000000000000
11
-59.2898121623604
21
14.3407497014218
31
0.00000000000000
  0
LINE
  5
F101B6
330
F101B7
100
AcDbEntity
8
Geo
100
AcDbLine
10
-59.2898121623604
20
14.3407497014218
30
0.00000000000000
11
-59.2861454956938
21
14.3387303472410
31
0.00000000000000
  0
LINE
  5
F101B8
330
F101B9
100
AcDbEntity
8
Geo
100
AcDbLine
10
-59.2861454956938
20
14.3387303472410
30
0.00000000000000
11
-59.2824788290271
21
14.3367164453707
31
0.00000000000000
  0
LINE
  5
F101BA
330
F101BB
100
AcDbEntity
8
Geo
100
AcDbLine
10
-59.2824788290271
20
14.3367164453707
30
0.00000000000000
11
-59.2788121623604
21
14.3347081402145
31
0.00000000000000
  0
LINE
  5
F101BC
330
F101BD
100
AcDbEntity
8
Geo
100
AcDbLine
10
-59.2788121623604
20
14.3347081402145
30
0.00000000000000
11
-59.2751454956937
21
14.3327055757742
31
0.00000000000000
  0
LINE
  5
F101BE
330
F101BF
100
AcDbEntity
8
Geo
100
AcDbLine
10
-59.2751454956937
20
14.3327055757742
30
0.00000000000000
11
-59.2714788290271
21
14.3307088956404
31
0.00000000000000
  0
LINE
  5
F101C0
330
F101C1
100
AcDbEntity
8
Geo
100
AcDbLine
10
-59.2714788290271
20
14.3307088956404
30
0.00000000000000
11
-59.2678121623604
21
14.3287182429815
31
0.00000000000000
  0
LINE
  5
F101C2
330
F101C3
100
AcDbEntity
8
Geo
100
AcDbLine
10
-59.2678121623604
20
14.3287182429815
30
0.00000000000000
11
-59.2641454956937
21
14.3267337605339
31
0.00000000000000
  0
LINE
  5
F101C4
330
F101C5
100
AcDbEntity
8
Geo
100
AcDbLine
10
-59.2641454956937
20
14.3267337605339
30
0.00000000000000
11
-59.2604788290271
21
14.3247555905915
31
0.00000000000000
  0
LINE
  5
F101C6
330
F101C7
100
AcDbEntity
8
Geo
100
AcDbLine
10
-59.2604788290271
20
14.3247555905915
30
0.00000000000000
11
-59.2568121623604
21
14.3227838749955
31
0.00000000000000
  0
LINE
  5
F101C8
330
F101C9
100
AcDbEntity
8
Geo
100
AcDbLine
10
-59.2568121623604
20
14.3227838749955
30
0.00000000000000
11
-59.2531454956938
21
14.3208187551244
31
0.00000000000000
  0
LINE
  5
F101CA
330
F101CB
100
AcDbEntity
8
Geo
100
AcDbLine
10
-59.2531454956938
20
14.3208187551244
30
0.00000000000000
11
-59.2494788290271
21
14.3188603718837
31
0.00000000000000
  0
LINE
  5
F101CC
330
F101CD
100
AcDbEntity
8
Geo
100
AcDbLine
10
-59.2494788290271
20
14.3188603718837
30
0.00000000000000
11
-59.2458121623604
21
14.3169088656960
31
0.00000000000000
  0
LINE
  5
F101CE
330
F101CF
100
AcDbEntity
8
Geo
100
AcDbLine
10
-59.2458121623604
20
14.3169088656960
30
0.00000000000000
11
-59.2421454956937
21
14.3149643764905
31
0.00000000000000
  0
LINE
  5
F101D0
330
F101D1
100
AcDbEntity
8
Geo
100
AcDbLine
10
-59.2421454956937
20
14.3149643764905
30
0.00000000000000
11
-59.2384788290271
21
14.3130270436936
31
0.00000000000000
  0
LINE
  5
F101D2
330
F101D3
100
AcDbEntity
8
Geo
100
AcDbLine
10
-59.2384788290271
20
14.3130270436936
30
0.00000000000000
11
-59.2348121623604
21
14.3110970062183
31
0.00000000000000
  0
LINE
  5
F101D4
330
F101D5
100
AcDbEntity
8
Geo
100
AcDbLine
10
-59.2348121623604
20
14.3110970062183
30
0.00000000000000
11
-59.2311454956937
21
14.3091744024547
31
0.00000000000000
  0
LINE
  5
F101D6
330
F101D7
100
AcDbEntity
8
Geo
100
AcDbLine
10
-59.2311454956937
20
14.3091744024547
30
0.00000000000000
11
-59.2274788290271
21
14.3072593702597
31
0.00000000000000
  0
LINE
  5
F101D8
330
F101D9
100
AcDbEntity
8
Geo
100
AcDbLine
10
-59.2274788290271
20
14.3072593702597
30
0.00000000000000
11
-59.2238121623604
21
14.3053520469475
31
0.00000000000000
  0
LINE
  5
F101DA
330
F101DB
100
AcDbEntity
8
Geo
100
AcDbLine
10
-59.2238121623604
20
14.3053520469475
30
0.00000000000000
11
-59.2201454956937
21
14.3034525692793
31
0.00000000000000
  0
LINE
  5
F101DC
330
F101DD
100
AcDbEntity
8
Geo
100
AcDbLine
10
-59.2201454956937
20
14.3034525692793
30
0.00000000000000
11
-59.2164788290271
21
14.3015610734540
31
0.00000000000000
  0
LINE
  5
F101DE
330
F101DF
100
AcDbEntity
8
Geo
100
AcDbLine
10
-59.2164788290271
20
14.3015610734540
30
0.00000000000000
11
-59.2128121623604
21
14.2996776950979
31
0.00000000000000
  0
LINE
  5
F101E0
330
F101E1
100
AcDbEntity
8
Geo
100
AcDbLine
10
-59.2128121623604
20
14.2996776950979
30
0.00000000000000
11
-59.2091454956937
21
14.2978025692555
31
0.00000000000000
  0
LINE
  5
F101E2
330
F101E3
100
AcDbEntity
8
Geo
100
AcDbLine
10
-59.2091454956937
20
14.2978025692555
30
0.00000000000000
11
-59.2054788290271
21
14.2959358303794
31
0.00000000000000
  0
LINE
  5
F101E4
330
F101E5
100
AcDbEntity
8
Geo
100
AcDbLine
10
-59.2054788290271
20
14.2959358303794
30
0.00000000000000
11
-59.2018121623604
21
14.2940776123210
31
0.00000000000000
  0
LINE
  5
F101E6
330
F101E7
100
AcDbEntity
8
Geo
100
AcDbLine
10
-59.2018121623604
20
14.2940776123210
30
0.00000000000000
11
-59.1981454956938
21
14.2922280483205
31
0.00000000000000
  0
LINE
  5
F101E8
330
F101E9
100
AcDbEntity
8
Geo
100
AcDbLine
10
-59.1981454956938
20
14.2922280483205
30
0.00000000000000
11
-59.1944788290271
21
14.2903872709977
31
0.00000000000000
  0
LINE
  5
F101EA
330
F101EB
100
AcDbEntity
8
Geo
100
AcDbLine
10
-59.1944788290271
20
14.2903872709977
30
0.00000000000000
11
-59.1908121623604
21
14.2885554123425
31
0.00000000000000
  0
LINE
  5
F101EC
330
F101ED
100
AcDbEntity
8
Geo
100
AcDbLine
10
-59.1908121623604
20
14.2885554123425
30
0.00000000000000
11
-59.1871454956937
21
14.2867326037050
31
0.00000000000000
  0
LINE
  5
F101EE
330
F101EF
100
AcDbEntity
8
Geo
100
AcDbLine
10
-59.1871454956937
20
14.2867326037050
30
0.00000000000000
11
-59.1834788290271
21
14.2849189757866
31
0.00000000000000
  0
LINE
  5
F101F0
330
F101F1
100
AcDbEntity
8
Geo
100
AcDbLine
10
-59.1834788290271
20
14.2849189757866
30
0.00000000000000
11
-59.1798121623604
21
14.2831146586304
31
0.00000000000000
  0
LINE
  5
F101F2
330
F101F3
100
AcDbEntity
8
Geo
100
AcDbLine
10
-59.1798121623604
20
14.2831146586304
30
0.00000000000000
11
-59.1761454956937
21
14.2813197816119
31
0.00000000000000
  0
LINE
  5
F101F4
330
F101F5
100
AcDbEntity
8
Geo
100
AcDbLine
10
-59.1761454956937
20
14.2813197816119
30
0.00000000000000
11
-59.1724788290271
21
14.2795344734295
31
0.00000000000000
  0
LINE
  5
F101F6
330
F101F7
100
AcDbEntity
8
Geo
100
AcDbLine
10
-59.1724788290271
20
14.2795344734295
30
0.00000000000000
11
-59.1688121623604
21
14.2777588620958
31
0.00000000000000
  0
LINE
  5
F101F8
330
F101F9
100
AcDbEntity
8
Geo
100
AcDbLine
10
-59.1688121623604
20
14.2777588620958
30
0.00000000000000
11
-59.1651454956937
21
14.2759930749279
31
0.00000000000000
  0
LINE
  5
F101FA
330
F101FB
100
AcDbEntity
8
Geo
100
AcDbLine
10
-59.1651454956937
20
14.2759930749279
30
0.00000000000000
11
-59.1614788290271
21
14.2742372385385
31
0.00000000000000
  0
LINE
  5
F101FC
330
F101FD
100
AcDbEntity
8
Geo
100
AcDbLine
10
-59.1614788290271
20
14.2742372385385
30
0.00000000000000
11
-59.1578121623604
21
14.2724914788268
31
0.00000000000000
  0
LINE
  5
F101FE
330
F101FF
100
AcDbEntity
8
Geo
100
AcDbLine
10
-59.1578121623604
20
14.2724914788268
30
0.00000000000000
11
-59.1541454956937
21
14.2707559209695
31
0.00000000000000
  0
LINE
  5
F10200
330
F10201
100
AcDbEntity
8
Geo
100
AcDbLine
10
-59.1541454956937
20
14.2707559209695
30
0.00000000000000
11
-59.1504788290271
21
14.2690306894118
31
0.00000000000000
  0
LINE
  5
F10202
330
F10203
100
AcDbEntity
8
Geo
100
AcDbLine
10
-59.1504788290271
20
14.2690306894118
30
0.00000000000000
11
-59.1468121623604
21
14.2673159078585
31
0.00000000000000
  0
LINE
  5
F10204
330
F10205
100
AcDbEntity
8
Geo
100
AcDbLine
10
-59.1468121623604
20
14.2673159078585
30
0.00000000000000
11
-59.1431454956937
21
14.2656116992650
31
0.00000000000000
  0
LINE
  5
F10206
330
F10207
100
AcDbEntity
8
Geo
100
AcDbLine
10
-59.1431454956937
20
14.2656116992650
30
0.00000000000000
11
-59.1394788290271
21
14.2639181858286
31
0.00000000000000
  0
LINE
  5
F10208
330
F10209
100
AcDbEntity
8
Geo
100
AcDbLine
10
-59.1394788290271
20
14.2639181858286
30
0.00000000000000
11
-59.1358121623604
21
14.2622354889799
31
0.00000000000000
  0
LINE
  5
F1020A
330
F1020B
100
AcDbEntity
8
Geo
100
AcDbLine
10
-59.1358121623604
20
14.2622354889799
30
0.00000000000000
11
-59.1321454956937
21
14.2605637293736
31
0.00000000000000
  0
LINE
  5
F1020C
330
F1020D
100
AcDbEntity
8
Geo
100
AcDbLine
10
-59.1321454956937
20
14.2605637293736
30
0.00000000000000
11
-59.1284788290271
21
14.2589030268804
31
0.00000000000000
  0
LINE
  5
F1020E
330
F1020F
100
AcDbEntity
8
Geo
100
AcDbLine
10
-59.1284788290271
20
14.2589030268804
30
0.00000000000000
11
-59.1248121623604
21
14.2572535005782
31
0.00000000000000
  0
LINE
  5
F10210
330
F10211
100
AcDbEntity
8
Geo
100
AcDbLine
10
-59.1248121623604
20
14.2572535005782
30
0.00000000000000
11
-59.1211454956937
21
14.2556152687433
31
0.00000000000000
  0
LINE
  5
F10212
330
F10213
100
AcDbEntity
8
Geo
100
AcDbLine
10
-59.1211454956937
20
14.2556152687433
30
0.00000000000000
11
-59.1174788290271
21
14.2539884488424
31
0.00000000000000
  0
LINE
  5
F10214
330
F10215
100
AcDbEntity
8
Geo
100
AcDbLine
10
-59.1174788290271
20
14.2539884488424
30
0.00000000000000
11
-59.1138121623604
21
14.2523731575238
31
0.00000000000000
  0
LINE
  5
F10216
330
F10217
100
AcDbEntity
8
Geo
100
AcDbLine
10
-59.1138121623604
20
14.2523731575238
30
0.00000000000000
11
-59.1101454956938
21
14.2507695106091
31
0.00000000000000
  0
LINE
  5
F10218
330
F10219
100
AcDbEntity
8
Geo
100
AcDbLine
10
-59.1101454956938
20
14.2507695106091
30
0.00000000000000
11
-59.1064788290271
21
14.2491776230850
31
0.00000000000000
  0
LINE
  5
F1021A
330
F1021B
100
AcDbEntity
8
Geo
100
AcDbLine
10
-59.1064788290271
20
14.2491776230850
30
0.00000000000000
11
-59.1028121623604
21
14.2475976090953
31
0.00000000000000
  0
LINE
  5
F1021C
330
F1021D
100
AcDbEntity
8
Geo
100
AcDbLine
10
-60.0634788290271
20
14.4627688885480
30
0.00000000000000
11
-60.0634788290271
21
14.2844288253568
31
0.00000000000000
  0
LINE
  5
F1021E
330
F1021F
100
AcDbEntity
8
Geo
100
AcDbLine
10
-60.0634788290271
20
14.5451085336373
30
0.00000000000000
11
-60.0634788290271
21
14.5451116893037
31
0.00000000000000
  0
LINE
  5
F10220
330
F10221
100
AcDbEntity
8
Geo
100
AcDbLine
10
-60.0634788290271
20
14.2844288253568
30
0.00000000000000
11
-60.0634788290271
21
14.4627688885480
31
0.00000000000000
  0
LINE
  5
F10222
330
F10223
100
AcDbEntity
8
Geo
100
AcDbLine
10
-60.0634788290271
20
14.4627688885480
30
0.00000000000000
11
-60.0598121623604
21
14.4787434146643
31
0.00000000000000
  0
LINE
  5
F10224
330
F10225
100
AcDbEntity
8
Geo
100
AcDbLine
10
-60.0598121623604
20
14.4787434146643
30
0.00000000000000
11
-60.0561454956938
21
14.4903258587250
31
0.00000000000000
  0
LINE
  5
F10226
330
F10227
100
AcDbEntity
8
Geo
100
AcDbLine
10
-60.0561454956938
20
14.4903258587250
30
0.00000000000000
11
-60.0524788290271
21
14.4997080275698
31
0.00000000000000
  0
LINE
  5
F10228
330
F10229
100
AcDbEntity
8
Geo
100
AcDbLine
10
-60.0524788290271
20
14.4997080275698
30
0.00000000000000
11
-60.0488121623604
21
14.5076910785228
31
0.00000000000000
  0
LINE
  5
F1022A
330
F1022B
100
AcDbEntity
8
Geo
100
AcDbLine
10
-60.0488121623604
20
14.5076910785228
30
0.00000000000000
11
-60.0451454956938
21
14.5146757657992
31
0.00000000000000
  0
LINE
  5
F1022C
330
F1022D
100
AcDbEntity
8
Geo
100
AcDbLine
10
-60.0451454956938
20
14.5146757657992
30
0.00000000000000
11
-60.0414788290271
21
14.5208968003831
31
0.00000000000000
  0
LINE
  5
F1022E
330
F1022F
100
AcDbEntity
8
Geo
100
AcDbLine
10
-60.0414788290271
20
14.5208968003831
30
0.00000000000000
11
-60.0378121623604
21
14.5265057021635
31
0.00000000000000
  0
LINE
  5
F10230
330
F10231
100
AcDbEntity
8
Geo
100
AcDbLine
10
-60.0378121623604
20
14.5265057021635
30
0.00000000000000
11
-60.0341454956937
21
14.5316070271792
31
0.00000000000000
  0
LINE
  5
F10232
330
F10233
100
AcDbEntity
8
Geo
100
AcDbLine
10
-60.0341454956937
20
14.5316070271792
30
0.00000000000000
11
-60.0304788290271
21
14.5362765223733
31
0.00000000000000
  0
LINE
  5
F10234
330
F10235
100
AcDbEntity
8
Geo
100
AcDbLine
10
-60.0304788290271
20
14.5362765223733
30
0.00000000000000
11
-60.0268121623604
21
14.5405711420423
31
0.00000000000000
  0
LINE
  5
F10236
330
F10237
100
AcDbEntity
8
Geo
100
AcDbLine
10
-60.0268121623604
20
14.5405711420423
30
0.00000000000000
11
-60.0231454956938
21
14.5445349862751
31
0.00000000000000
  0
LINE
  5
F10238
330
F10239
100
AcDbEntity
8
Geo
100
AcDbLine
10
-60.0231454956938
20
14.5445349862751
30
0.00000000000000
11
-60.0194788290271
21
14.5482030244838
31
0.00000000000000
  0
LINE
  5
F1023A
330
F1023B
100
AcDbEntity
8
Geo
100
AcDbLine
10
-60.0194788290271
20
14.5482030244838
30
0.00000000000000
11
-60.0158121623604
21
14.5516035374622
31
0.00000000000000
  0
LINE
  5
F1023C
330
F1023D
100
AcDbEntity
8
Geo
100
AcDbLine
10
-60.0158121623604
20
14.5516035374622
30
0.00000000000000
11
-60.0121454956938
21
14.5547597792147
31
0.00000000000000
  0
LINE
  5
F1023E
330
F1023F
100
AcDbEntity
8
Geo
100
AcDbLine
10
-60.0121454956938
20
14.5547597792147
30
0.00000000000000
11
-60.0084788290271
21
14.5576911433025
31
0.00000000000000
  0
LINE
  5
F10240
330
F10241
100
AcDbEntity
8
Geo
100
AcDbLine
10
-60.0084788290271
20
14.5576911433025
30
0.00000000000000
11
-60.0048121623604
21
14.5604140031929
31
0.00000000000000
  0
LINE
  5
F10242
330
F10243
100
AcDbEntity
8
Geo
100
AcDbLine
10
-60.0048121623604
20
14.5604140031929
30
0.00000000000000
11
-60.0011454956938
21
14.5629423315475
31
0.00000000000000
  0
LINE
  5
F10244
330
F10245
100
AcDbEntity
8
Geo
100
AcDbLine
10
-60.0011454956938
20
14.5629423315475
30
0.00000000000000
11
-59.9974788290271
21
14.5652881656449
31
0.00000000000000
  0
LINE
  5
F10246
330
F10247
100
AcDbEntity
8
Geo
100
AcDbLine
10
-59.9974788290271
20
14.5652881656449
30
0.00000000000000
11
-59.9938121623604
21
14.5674619632443
31
0.00000000000000
  0
LINE
  5
F10248
330
F10249
100
AcDbEntity
8
Geo
100
AcDbLine
10
-59.9938121623604
20
14.5674619632443
30
0.00000000000000
11
-59.9901454956938
21
14.5694728788589
31
0.00000000000000
  0
LINE
  5
F1024A
330
F1024B
100
AcDbEntity
8
Geo
100
AcDbLine
10
-59.9901454956938
20
14.5694728788589
30
0.00000000000000
11
-59.9864788290271
21
14.5713289811725
31
0.00000000000000
  0
LINE
  5
F1024C
330
F1024D
100
AcDbEntity
8
Geo
100
AcDbLine
10
-59.9864788290271
20
14.5713289811725
30
0.00000000000000
11
-59.9828121623604
21
14.5730374262335
31
0.00000000000000
  0
LINE
  5
F1024E
330
F1024F
100
AcDbEntity
8
Geo
100
AcDbLine
10
-59.9828121623604
20
14.5730374262335
30
0.00000000000000
11
-59.9791454956937
21
14.5746045969470
31
0.00000000000000
  0
LINE
  5
F10250
330
F10251
100
AcDbEntity
8
Geo
100
AcDbLine
10
-59.9791454956937
20
14.5746045969470
30
0.00000000000000
11
-59.9754788290271
21
14.5760362165440
31
0.00000000000000
  0
LINE
  5
F10252
330
F10253
100
AcDbEntity
8
Geo
100
AcDbLine
10
-59.9754788290271
20
14.5760362165440
30
0.00000000000000
11
-59.9718121623604
21
14.5773374417229
31
0.00000000000000
  0
LINE
  5
F10254
330
F10255
100
AcDbEntity
8
Geo
100
AcDbLine
10
-59.9718121623604
20
14.5773374417229
30
0.00000000000000
11
-59.9681454956938
21
14.5785129397412
31
0.00000000000000
  0
LINE
  5
F10256
330
F10257
100
AcDbEntity
8
Geo
100
AcDbLine
10
-59.9681454956938
20
14.5785129397412
30
0.00000000000000
11
-59.9644788290271
21
14.5795669527066
31
0.00000000000000
  0
LINE
  5
F10258
330
F10259
100
AcDbEntity
8
Geo
100
AcDbLine
10
-59.9644788290271
20
14.5795669527066
30
0.00000000000000
11
-59.9608121623604
21
14.5805033515703
31
0.00000000000000
  0
LINE
  5
F1025A
330
F1025B
100
AcDbEntity
8
Geo
100
AcDbLine
10
-59.9608121623604
20
14.5805033515703
30
0.00000000000000
11
-59.9571454956938
21
14.5813256817638
31
0.00000000000000
  0
LINE
  5
F1025C
330
F1025D
100
AcDbEntity
8
Geo
100
AcDbLine
10
-59.9571454956938
20
14.5813256817638
30
0.00000000000000
11
-59.9534788290271
21
14.5820372020020
31
0.00000000000000
  0
LINE
  5
F1025E
330
F1025F
100
AcDbEntity
8
Geo
100
AcDbLine
10
-59.9534788290271
20
14.5820372020020
30
0.00000000000000
11
-59.9498121623604
21
14.5826409174591
31
0.00000000000000
  0
LINE
  5
F10260
330
F10261
100
AcDbEntity
8
Geo
100
AcDbLine
10
-59.9498121623604
20
14.5826409174591
30
0.00000000000000
11
-59.9461454956937
21
14.5831396082780
31
0.00000000000000
  0
LINE
  5
F10262
330
F10263
100
AcDbEntity
8
Geo
100
AcDbLine
10
-59.9461454956937
20
14.5831396082780
30
0.00000000000000
11
-59.9424788290271
21
14.5835358541857
31
0.00000000000000
  0
LINE
  5
F10264
330
F10265
100
AcDbEntity
8
Geo
100
AcDbLine
10
-59.9424788290271
20
14.5835358541857
30
0.00000000000000
11
-59.9388121623604
21
14.5838320558414
31
0.00000000000000
  0
LINE
  5
F10266
330
F10267
100
AcDbEntity
8
Geo
100
AcDbLine
10
-59.9388121623604
20
14.5838320558414
30
0.00000000000000
11
-59.9351454956938
21
14.5840304534262
31
0.00000000000000
  0
LINE
  5
F10268
330
F10269
100
AcDbEntity
8
Geo
100
AcDbLine
10
-59.9351454956938
20
14.5840304534262
30
0.00000000000000
11
-59.9314788290271
21
14.5841331428926
31
0.00000000000000
  0
LINE
  5
F1026A
330
F1026B
100
AcDbEntity
8
Geo
100
AcDbLine
10
-59.9314788290271
20
14.5841331428926
30
0.00000000000000
11
-59.9278121623604
21
14.5841420902193
31
0.00000000000000
  0
LINE
  5
F1026C
330
F1026D
100
AcDbEntity
8
Geo
100
AcDbLine
10
-59.9278121623604
20
14.5841420902193
30
0.00000000000000
11
-59.9241454956938
21
14.5840591439562
31
0.00000000000000
  0
LINE
  5
F1026E
330
F1026F
100
AcDbEntity
8
Geo
100
AcDbLine
10
-59.9241454956938
20
14.5840591439562
30
0.00000000000000
11
-59.9204788290271
21
14.5838860462988
31
0.00000000000000
  0
LINE
  5
F10270
330
F10271
100
AcDbEntity
8
Geo
100
AcDbLine
10
-59.9204788290271
20
14.5838860462988
30
0.00000000000000
11
-59.9168121623604
21
14.5836244428912
31
0.00000000000000
  0
LINE
  5
F10272
330
F10273
100
AcDbEntity
8
Geo
100
AcDbLine
10
-59.9168121623604
20
14.5836244428912
30
0.00000000000000
11
-59.9131454956938
21
14.5832758915257
31
0.00000000000000
  0
LINE
  5
F10274
330
F10275
100
AcDbEntity
8
Geo
100
AcDbLine
10
-59.9131454956938
20
14.5832758915257
30
0.00000000000000
11
-59.9094788290271
21
14.5828418698814
31
0.00000000000000
  0
LINE
  5
F10276
330
F10277
100
AcDbEntity
8
Geo
100
AcDbLine
10
-59.9094788290271
20
14.5828418698814
30
0.00000000000000
11
-59.9058121623604
21
14.5823237824212
31
0.00000000000000
  0
LINE
  5
F10278
330
F10279
100
AcDbEntity
8
Geo
100
AcDbLine
10
-59.9058121623604
20
14.5823237824212
30
0.00000000000000
11
-59.9021454956938
21
14.5817229665501
31
0.00000000000000
  0
LINE
  5
F1027A
330
F1027B
100
AcDbEntity
8
Geo
100
AcDbLine
10
-59.9021454956938
20
14.5817229665501
30
0.00000000000000
11
-59.8984788290271
21
14.5810406981230
31
0.00000000000000
  0
LINE
  5
F1027C
330
F1027D
100
AcDbEntity
8
Geo
100
AcDbLine
10
-59.8984788290271
20
14.5810406981230
30
0.00000000000000
11
-59.8948121623604
21
14.5802781963756
31
0.00000000000000
  0
LINE
  5
F1027E
330
F1027F
100
AcDbEntity
8
Geo
100
AcDbLine
10
-59.8948121623604
20
14.5802781963756
30
0.00000000000000
11
-59.8911454956937
21
14.5794366283439
31
0.00000000000000
  0
LINE
  5
F10280
330
F10281
100
AcDbEntity
8
Geo
100
AcDbLine
10
-59.8911454956937
20
14.5794366283439
30
0.00000000000000
11
-59.8874788290271
21
14.5785171128264
31
0.00000000000000
  0
LINE
  5
F10282
330
F10283
100
AcDbEntity
8
Geo
100
AcDbLine
10
-59.8874788290271
20
14.5785171128264
30
0.00000000000000
11
-59.8838121623604
21
14.5775207239391
31
0.00000000000000
  0
LINE
  5
F10284
330
F10285
100
AcDbEntity
8
Geo
100
AcDbLine
10
-59.8838121623604
20
14.5775207239391
30
0.00000000000000
11
-59.8801454956938
21
14.5764484943011
31
0.00000000000000
  0
LINE
  5
F10286
330
F10287
100
AcDbEntity
8
Geo
100
AcDbLine
10
-59.8801454956938
20
14.5764484943011
30
0.00000000000000
11
-59.8764788290271
21
14.5753014178904
31
0.00000000000000
  0
LINE
  5
F10288
330
F10289
100
AcDbEntity
8
Geo
100
AcDbLine
10
-59.8764788290271
20
14.5753014178904
30
0.00000000000000
11
-59.8728121623604
21
14.5740804525974
31
0.00000000000000
  0
LINE
  5
F1028A
330
F1028B
100
AcDbEntity
8
Geo
100
AcDbLine
10
-59.8728121623604
20
14.5740804525974
30
0.00000000000000
11
-59.8691454956938
21
14.5727865225045
31
0.00000000000000
  0
LINE
  5
F1028C
330
F1028D
100
AcDbEntity
8
Geo
100
AcDbLine
10
-59.8691454956938
20
14.5727865225045
30
0.00000000000000
11
-59.8654788290271
21
14.5714205199143
31
0.00000000000000
  0
LINE
  5
F1028E
330
F1028F
100
AcDbEntity
8
Geo
100
AcDbLine
10
-59.8654788290271
20
14.5714205199143
30
0.00000000000000
11
-59.8618121623604
21
14.5699833071466
31
0.00000000000000
  0
LINE
  5
F10290
330
F10291
100
AcDbEntity
8
Geo
100
AcDbLine
10
-59.8618121623604
20
14.5699833071466
30
0.00000000000000
11
-59.8581454956938
21
14.5684757181199
31
0.00000000000000
  0
LINE
  5
F10292
330
F10293
100
AcDbEntity
8
Geo
100
AcDbLine
10
-59.8581454956938
20
14.5684757181199
30
0.00000000000000
11
-59.8544788290271
21
14.5668985597333
31
0.00000000000000
  0
LINE
  5
F10294
330
F10295
100
AcDbEntity
8
Geo
100
AcDbLine
10
-59.8544788290271
20
14.5668985597333
30
0.00000000000000
11
-59.8508121623604
21
14.5652526130589
31
0.00000000000000
  0
LINE
  5
F10296
330
F10297
100
AcDbEntity
8
Geo
100
AcDbLine
10
-59.8508121623604
20
14.5652526130589
30
0.00000000000000
11
-59.8471454956938
21
14.5635576993783
31
0.00000000000000
  0
LINE
  5
F10298
330
F10299
100
AcDbEntity
8
Geo
100
AcDbLine
10
-59.8471454956938
20
14.5635576993783
30
0.00000000000000
11
-59.8434788290271
21
14.5618511722825
31
0.00000000000000
  0
LINE
  5
F1029A
330
F1029B
100
AcDbEntity
8
Geo
100
AcDbLine
10
-59.8434788290271
20
14.5618511722825
30
0.00000000000000
11
-59.8398121623604
21
14.5601340990034
31
0.00000000000000
  0
LINE
  5
F1029C
330
F1029D
100
AcDbEntity
8
Geo
100
AcDbLine
10
-59.8398121623604
20
14.5601340990034
30
0.00000000000000
11
-59.8361454956937
21
14.5584066026607
31
0.00000000000000
  0
LINE
  5
F1029E
330
F1029F
100
AcDbEntity
8
Geo
100
AcDbLine
10
-59.8361454956937
20
14.5584066026607
30
0.00000000000000
11
-59.8324788290271
21
14.5566688071216
31
0.00000000000000
  0
LINE
  5
F102A0
330
F102A1
100
AcDbEntity
8
Geo
100
AcDbLine
10
-59.8324788290271
20
14.5566688071216
30
0.00000000000000
11
-59.8288121623604
21
14.5549208369918
31
0.00000000000000
  0
LINE
  5
F102A2
330
F102A3
100
AcDbEntity
8
Geo
100
AcDbLine
10
-59.8288121623604
20
14.5549208369918
30
0.00000000000000
11
-59.8251454956938
21
14.5531628176064
31
0.00000000000000
  0
LINE
  5
F102A4
330
F102A5
100
AcDbEntity
8
Geo
100
AcDbLine
10
-59.8251454956938
20
14.5531628176064
30
0.00000000000000
11
-59.8214788290271
21
14.5513948750211
31
0.00000000000000
  0
LINE
  5
F102A6
330
F102A7
100
AcDbEntity
8
Geo
100
AcDbLine
10
-59.8214788290271
20
14.5513948750211
30
0.00000000000000
11
-59.8178121623604
21
14.5496171360033
31
0.00000000000000
  0
LINE
  5
F102A8
330
F102A9
100
AcDbEntity
8
Geo
100
AcDbLine
10
-59.8178121623604
20
14.5496171360033
30
0.00000000000000
11
-59.8141454956938
21
14.5478297280226
31
0.00000000000000
  0
LINE
  5
F102AA
330
F102AB
100
AcDbEntity
8
Geo
100
AcDbLine
10
-59.8141454956938
20
14.5478297280226
30
0.00000000000000
11
-59.8104788290271
21
14.5460327792420
31
0.00000000000000
  0
LINE
  5
F102AC
330
F102AD
100
AcDbEntity
8
Geo
100
AcDbLine
10
-59.8104788290271
20
14.5460327792420
30
0.00000000000000
11
-59.8068121623604
21
14.5442264185087
31
0.00000000000000
  0
LINE
  5
F102AE
330
F102AF
100
AcDbEntity
8
Geo
100
AcDbLine
10
-59.8068121623604
20
14.5442264185087
30
0.00000000000000
11
-59.8031454956938
21
14.5424107753447
31
0.00000000000000
  0
LINE
  5
F102B0
330
F102B1
100
AcDbEntity
8
Geo
100
AcDbLine
10
-59.8031454956938
20
14.5424107753447
30
0.00000000000000
11
-59.7994788290271
21
14.5405859799374
31
0.00000000000000
  0
LINE
  5
F102B2
330
F102B3
100
AcDbEntity
8
Geo
100
AcDbLine
10
-59.7994788290271
20
14.5405859799374
30
0.00000000000000
11
-59.7958121623604
21
14.5387521631308
31
0.00000000000000
  0
LINE
  5
F102B4
330
F102B5
100
AcDbEntity
8
Geo
100
AcDbLine
10
-59.7958121623604
20
14.5387521631308
30
0.00000000000000
11
-59.7921454956938
21
14.5369094564154
31
0.00000000000000
  0
LINE
  5
F102B6
330
F102B7
100
AcDbEntity
8
Geo
100
AcDbLine
10
-59.7921454956938
20
14.5369094564154
30
0.00000000000000
11
-59.7884788290271
21
14.5350579919195
31
0.00000000000000
  0
LINE
  5
F102B8
330
F102B9
100
AcDbEntity
8
Geo
100
AcDbLine
10
-59.7884788290271
20
14.5350579919195
30
0.00000000000000
11
-59.7848121623604
21
14.5331979023990
31
0.00000000000000
  0
LINE
  5
F102BA
330
F102BB
100
AcDbEntity
8
Geo
100
AcDbLine
10
-59.7848121623604
20
14.5331979023990
30
0.00000000000000
11
-59.7811454956937
21
14.5313293212284
31
0.00000000000000
  0
LINE
  5
F102BC
330
F102BD
100
AcDbEntity
8
Geo
100
AcDbLine
10
-59.7811454956937
20
14.5313293212284
30
0.00000000000000
11
-59.7774788290271
21
14.5294523823912
31
0.00000000000000
  0
LINE
  5
F102BE
330
F102BF
100
AcDbEntity
8
Geo
100
AcDbLine
10
-59.7774788290271
20
14.5294523823912
30
0.00000000000000
11
-59.7738121623604
21
14.5275672204701
31
0.00000000000000
  0
LINE
  5
F102C0
330
F102C1
100
AcDbEntity
8
Geo
100
AcDbLine
10
-59.7738121623604
20
14.5275672204701
30
0.00000000000000
11
-59.7701454956938
21
14.5256739706372
31
0.00000000000000
  0
LINE
  5
F102C2
330
F102C3
100
AcDbEntity
8
Geo
100
AcDbLine
10
-59.7701454956938
20
14.5256739706372
30
0.00000000000000
11
-59.7664788290271
21
14.5237727686449
31
0.00000000000000
  0
LINE
  5
F102C4
330
F102C5
100
AcDbEntity
8
Geo
100
AcDbLine
10
-59.7664788290271
20
14.5237727686449
30
0.00000000000000
11
-59.7628121623604
21
14.5218637508155
31
0.00000000000000
  0
LINE
  5
F102C6
330
F102C7
100
AcDbEntity
8
Geo
100
AcDbLine
10
-59.7628121623604
20
14.5218637508155
30
0.00000000000000
11
-59.7591454956938
21
14.5199470540318
31
0.00000000000000
  0
LINE
  5
F102C8
330
F102C9
100
AcDbEntity
8
Geo
100
AcDbLine
10
-59.7591454956938
20
14.5199470540318
30
0.00000000000000
11
-59.7554788290271
21
14.5180228157274
31
0.00000000000000
  0
LINE
  5
F102CA
330
F102CB
100
AcDbEntity
8
Geo
100
AcDbLine
10
-59.7554788290271
20
14.5180228157274
30
0.00000000000000
11
-59.7518121623604
21
14.5160911738763
31
0.00000000000000
  0
LINE
  5
F102CC
330
F102CD
100
AcDbEntity
8
Geo
100
AcDbLine
10
-59.7518121623604
20
14.5160911738763
30
0.00000000000000
11
-59.7481454956938
21
14.5141522669836
31
0.00000000000000
  0
LINE
  5
F102CE
330
F102CF
100
AcDbEntity
8
Geo
100
AcDbLine
10
-59.7481454956938
20
14.5141522669836
30
0.00000000000000
11
-59.7444788290271
21
14.5122062340754
31
0.00000000000000
  0
LINE
  5
F102D0
330
F102D1
100
AcDbEntity
8
Geo
100
AcDbLine
10
-59.7444788290271
20
14.5122062340754
30
0.00000000000000
11
-59.7408121623604
21
14.5102532146885
31
0.00000000000000
  0
LINE
  5
F102D2
330
F102D3
100
AcDbEntity
8
Geo
100
AcDbLine
10
-59.7408121623604
20
14.5102532146885
30
0.00000000000000
11
-59.7371454956938
21
14.5082933488609
31
0.00000000000000
  0
LINE
  5
F102D4
330
F102D5
100
AcDbEntity
8
Geo
100
AcDbLine
10
-59.7371454956938
20
14.5082933488609
30
0.00000000000000
11
-59.7334788290271
21
14.5063267771212
31
0.00000000000000
  0
LINE
  5
F102D6
330
F102D7
100
AcDbEntity
8
Geo
100
AcDbLine
10
-59.7334788290271
20
14.5063267771212
30
0.00000000000000
11
-59.7298121623604
21
14.5043536404792
31
0.00000000000000
  0
LINE
  5
F102D8
330
F102D9
100
AcDbEntity
8
Geo
100
AcDbLine
10
-59.7298121623604
20
14.5043536404792
30
0.00000000000000
11
-59.7261454956937
21
14.5023740804153
31
0.00000000000000
  0
LINE
  5
F102DA
330
F102DB
100
AcDbEntity
8
Geo
100
AcDbLine
10
-59.7261454956937
20
14.5023740804153
30
0.00000000000000
11
-59.7224788290271
21
14.5003882388703
31
0.00000000000000
  0
LINE
  5
F102DC
330
F102DD
100
AcDbEntity
8
Geo
100
AcDbLine
10
-59.7224788290271
20
14.5003882388703
30
0.00000000000000
11
-59.7188121623604
21
14.4983962582356
31
0.00000000000000
  0
LINE
  5
F102DE
330
F102DF
100
AcDbEntity
8
Geo
100
AcDbLine
10
-59.7188121623604
20
14.4983962582356
30
0.00000000000000
11
-59.7151454956938
21
14.4963982813427
31
0.00000000000000
  0
LINE
  5
F102E0
330
F102E1
100
AcDbEntity
8
Geo
100
AcDbLine
10
-59.7151454956938
20
14.4963982813427
30
0.00000000000000
11
-59.7114788290271
21
14.4943944514532
31
0.00000000000000
  0
LINE
  5
F102E2
330
F102E3
100
AcDbEntity
8
Geo
100
AcDbLine
10
-59.7114788290271
20
14.4943944514532
30
0.00000000000000
11
-59.7078121623604
21
14.4923849122481
31
0.00000000000000
  0
LINE
  5
F102E4
330
F102E5
100
AcDbEntity
8
Geo
100
AcDbLine
10
-59.7078121623604
20
14.4923849122481
30
0.00000000000000
11
-59.7041454956938
21
14.4903698078181
31
0.00000000000000
  0
LINE
  5
F102E6
330
F102E7
100
AcDbEntity
8
Geo
100
AcDbLine
10
-59.7041454956938
20
14.4903698078181
30
0.00000000000000
11
-59.7004788290271
21
14.4883492826528
31
0.00000000000000
  0
LINE
  5
F102E8
330
F102E9
100
AcDbEntity
8
Geo
100
AcDbLine
10
-59.7004788290271
20
14.4883492826528
30
0.00000000000000
11
-59.6968121623604
21
14.4863234816303
31
0.00000000000000
  0
LINE
  5
F102EA
330
F102EB
100
AcDbEntity
8
Geo
100
AcDbLine
10
-59.6968121623604
20
14.4863234816303
30
0.00000000000000
11
-59.6931454956938
21
14.4842925500072
31
0.00000000000000
  0
LINE
  5
F102EC
330
F102ED
100
AcDbEntity
8
Geo
100
AcDbLine
10
-59.6931454956938
20
14.4842925500072
30
0.00000000000000
11
-59.6894788290271
21
14.4822566334081
31
0.00000000000000
  0
LINE
  5
F102EE
330
F102EF
100
AcDbEntity
8
Geo
100
AcDbLine
10
-59.6894788290271
20
14.4822566334081
30
0.00000000000000
11
-59.6858121623604
21
14.4802158778148
31
0.00000000000000
  0
LINE
  5
F102F0
330
F102F1
100
AcDbEntity
8
Geo
100
AcDbLine
10
-59.6858121623604
20
14.4802158778148
30
0.00000000000000
11
-59.6821454956938
21
14.4781704295562
31
0.00000000000000
  0
LINE
  5
F102F2
330
F102F3
100
AcDbEntity
8
Geo
100
AcDbLine
10
-59.6821454956938
20
14.4781704295562
30
0.00000000000000
11
-59.6784788290271
21
14.4761204352975
31
0.00000000000000
  0
LINE
  5
F102F4
330
F102F5
100
AcDbEntity
8
Geo
100
AcDbLine
10
-59.6784788290271
20
14.4761204352975
30
0.00000000000000
11
-59.6748121623604
21
14.4740660420302
31
0.00000000000000
  0
LINE
  5
F102F6
330
F102F7
100
AcDbEntity
8
Geo
100
AcDbLine
10
-59.6748121623604
20
14.4740660420302
30
0.00000000000000
11
-59.6711454956938
21
14.4720073970608
31
0.00000000000000
  0
LINE
  5
F102F8
330
F102F9
100
AcDbEntity
8
Geo
100
AcDbLine
10
-59.6711454956938
20
14.4720073970608
30
0.00000000000000
11
-59.6674788290271
21
14.4699446480011
31
0.00000000000000
  0
LINE
  5
F102FA
330
F102FB
100
AcDbEntity
8
Geo
100
AcDbLine
10
-59.6674788290271
20
14.4699446480011
30
0.00000000000000
11
-59.6638121623604
21
14.4678779427569
31
0.00000000000000
  0
LINE
  5
F102FC
330
F102FD
100
AcDbEntity
8
Geo
100
AcDbLine
10
-59.6638121623604
20
14.4678779427569
30
0.00000000000000
11
-59.6601454956938
21
14.4658074295177
31
0.00000000000000
  0
LINE
  5
F102FE
330
F102FF
100
AcDbEntity
8
Geo
100
AcDbLine
10
-59.6601454956938
20
14.4658074295177
30
0.00000000000000
11
-59.6564788290271
21
14.4637332567461
31
0.00000000000000
  0
LINE
  5
F10300
330
F10301
100
AcDbEntity
8
Geo
100
AcDbLine
10
-59.6564788290271
20
14.4637332567461
30
0.00000000000000
11
-59.6528121623604
21
14.4616555731670
31
0.00000000000000
  0
LINE
  5
F10302
330
F10303
100
AcDbEntity
8
Geo
100
AcDbLine
10
-59.6528121623604
20
14.4616555731670
30
0.00000000000000
11
-59.6491454956938
21
14.4595745277573
31
0.00000000000000
  0
LINE
  5
F10304
330
F10305
100
AcDbEntity
8
Geo
100
AcDbLine
10
-59.6491454956938
20
14.4595745277573
30
0.00000000000000
11
-59.6454788290271
21
14.4574902697346
31
0.00000000000000
  0
LINE
  5
F10306
330
F10307
100
AcDbEntity
8
Geo
100
AcDbLine
10
-59.6454788290271
20
14.4574902697346
30
0.00000000000000
11
-59.6418121623604
21
14.4554029485471
31
0.00000000000000
  0
LINE
  5
F10308
330
F10309
100
AcDbEntity
8
Geo
100
AcDbLine
10
-59.6418121623604
20
14.4554029485471
30
0.00000000000000
11
-59.6381454956938
21
14.4533127138625
31
0.00000000000000
  0
LINE
  5
F1030A
330
F1030B
100
AcDbEntity
8
Geo
100
AcDbLine
10
-59.6381454956938
20
14.4533127138625
30
0.00000000000000
11
-59.6344788290271
21
14.4512197155576
31
0.00000000000000
  0
LINE
  5
F1030C
330
F1030D
100
AcDbEntity
8
Geo
100
AcDbLine
10
-59.6344788290271
20
14.4512197155576
30
0.00000000000000
11
-59.6308121623604
21
14.4491241037072
31
0.00000000000000
  0
LINE
  5
F1030E
330
F1030F
100
AcDbEntity
8
Geo
100
AcDbLine
10
-59.6308121623604
20
14.4491241037072
30
0.00000000000000
11
-59.6271454956938
21
14.4470260285734
31
0.00000000000000
  0
LINE
  5
F10310
330
F10311
100
AcDbEntity
8
Geo
100
AcDbLine
10
-59.6271454956938
20
14.4470260285734
30
0.00000000000000
11
-59.6234788290271
21
14.4449256405952
31
0.00000000000000
  0
LINE
  5
F10312
330
F10313
100
AcDbEntity
8
Geo
100
AcDbLine
10
-59.6234788290271
20
14.4449256405952
30
0.00000000000000
11
-59.6198121623604
21
14.4428230903773
31
0.00000000000000
  0
LINE
  5
F10314
330
F10315
100
AcDbEntity
8
Geo
100
AcDbLine
10
-59.6198121623604
20
14.4428230903773
30
0.00000000000000
11
-59.6161454956938
21
14.4407185286794
31
0.00000000000000
  0
LINE
  5
F10316
330
F10317
100
AcDbEntity
8
Geo
100
AcDbLine
10
-59.6161454956938
20
14.4407185286794
30
0.00000000000000
11
-59.6124788290271
21
14.4386121064054
31
0.00000000000000
  0
LINE
  5
F10318
330
F10319
100
AcDbEntity
8
Geo
100
AcDbLine
10
-59.6124788290271
20
14.4386121064054
30
0.00000000000000
11
-59.6088121623604
21
14.4365039745927
31
0.00000000000000
  0
LINE
  5
F1031A
330
F1031B
100
AcDbEntity
8
Geo
100
AcDbLine
10
-59.6088121623604
20
14.4365039745927
30
0.00000000000000
11
-59.6051454956938
21
14.4343942844014
31
0.00000000000000
  0
LINE
  5
F1031C
330
F1031D
100
AcDbEntity
8
Geo
100
AcDbLine
10
-59.6051454956938
20
14.4343942844014
30
0.00000000000000
11
-59.6014788290271
21
14.4322831871030
31
0.00000000000000
  0
LINE
  5
F1031E
330
F1031F
100
AcDbEntity
8
Geo
100
AcDbLine
10
-59.6014788290271
20
14.4322831871030
30
0.00000000000000
11
-59.5978121623604
21
14.4301708340702
31
0.00000000000000
  0
LINE
  5
F10320
330
F10321
100
AcDbEntity
8
Geo
100
AcDbLine
10
-59.5978121623604
20
14.4301708340702
30
0.00000000000000
11
-59.5941454956938
21
14.4280573767656
31
0.00000000000000
  0
LINE
  5
F10322
330
F10323
100
AcDbEntity
8
Geo
100
AcDbLine
10
-59.5941454956938
20
14.4280573767656
30
0.00000000000000
11
-59.5904788290271
21
14.4259429667310
31
0.00000000000000
  0
LINE
  5
F10324
330
F10325
100
AcDbEntity
8
Geo
100
AcDbLine
10
-59.5904788290271
20
14.4259429667310
30
0.00000000000000
11
-59.5868121623604
21
14.4238277555765
31
0.00000000000000
  0
LINE
  5
F10326
330
F10327
100
AcDbEntity
8
Geo
100
AcDbLine
10
-59.5868121623604
20
14.4238277555765
30
0.00000000000000
11
-59.5831454956937
21
14.4217118949698
31
0.00000000000000
  0
LINE
  5
F10328
330
F10329
100
AcDbEntity
8
Geo
100
AcDbLine
10
-59.5831454956937
20
14.4217118949698
30
0.00000000000000
11
-59.5794788290271
21
14.4195955366249
31
0.00000000000000
  0
LINE
  5
F1032A
330
F1032B
100
AcDbEntity
8
Geo
100
AcDbLine
10
-59.5794788290271
20
14.4195955366249
30
0.00000000000000
11
-59.5758121623604
21
14.4174788322917
31
0.00000000000000
  0
LINE
  5
F1032C
330
F1032D
100
AcDbEntity
8
Geo
100
AcDbLine
10
-59.5758121623604
20
14.4174788322917
30
0.00000000000000
11
-59.5721454956938
21
14.4153619337448
31
0.00000000000000
  0
LINE
  5
F1032E
330
F1032F
100
AcDbEntity
8
Geo
100
AcDbLine
10
-59.5721454956938
20
14.4153619337448
30
0.00000000000000
11
-59.5684788290271
21
14.4132449927728
31
0.00000000000000
  0
LINE
  5
F10330
330
F10331
100
AcDbEntity
8
Geo
100
AcDbLine
10
-59.5684788290271
20
14.4132449927728
30
0.00000000000000
11
-59.5648121623604
21
14.4111281611672
31
0.00000000000000
  0
LINE
  5
F10332
330
F10333
100
AcDbEntity
8
Geo
100
AcDbLine
10
-59.5648121623604
20
14.4111281611672
30
0.00000000000000
11
-59.5611454956938
21
14.4090115907118
31
0.00000000000000
  0
LINE
  5
F10334
330
F10335
100
AcDbEntity
8
Geo
100
AcDbLine
10
-59.5611454956938
20
14.4090115907118
30
0.00000000000000
11
-59.5574788290271
21
14.4068954331717
31
0.00000000000000
  0
LINE
  5
F10336
330
F10337
100
AcDbEntity
8
Geo
100
AcDbLine
10
-59.5574788290271
20
14.4068954331717
30
0.00000000000000
11
-59.5538121623604
21
14.4047798402823
31
0.00000000000000
  0
LINE
  5
F10338
330
F10339
100
AcDbEntity
8
Geo
100
AcDbLine
10
-59.5538121623604
20
14.4047798402823
30
0.00000000000000
11
-59.5501454956938
21
14.4026649637385
31
0.00000000000000
  0
LINE
  5
F1033A
330
F1033B
100
AcDbEntity
8
Geo
100
AcDbLine
10
-59.5501454956938
20
14.4026649637385
30
0.00000000000000
11
-59.5464788290271
21
14.4005509551839
31
0.00000000000000
  0
LINE
  5
F1033C
330
F1033D
100
AcDbEntity
8
Geo
100
AcDbLine
10
-59.5464788290271
20
14.4005509551839
30
0.00000000000000
11
-59.5428121623604
21
14.3984379661999
31
0.00000000000000
  0
LINE
  5
F1033E
330
F1033F
100
AcDbEntity
8
Geo
100
AcDbLine
10
-59.5428121623604
20
14.3984379661999
30
0.00000000000000
11
-59.5391454956938
21
14.3963261482946
31
0.00000000000000
  0
LINE
  5
F10340
330
F10341
100
AcDbEntity
8
Geo
100
AcDbLine
10
-59.5391454956938
20
14.3963261482946
30
0.00000000000000
11
-59.5354788290271
21
14.3942156528923
31
0.00000000000000
  0
LINE
  5
F10342
330
F10343
100
AcDbEntity
8
Geo
100
AcDbLine
10
-59.5354788290271
20
14.3942156528923
30
0.00000000000000
11
-59.5318121623604
21
14.3921066313225
31
0.00000000000000
  0
LINE
  5
F10344
330
F10345
100
AcDbEntity
8
Geo
100
AcDbLine
10
-59.5318121623604
20
14.3921066313225
30
0.00000000000000
11
-59.5281454956937
21
14.3899992348089
31
0.00000000000000
  0
LINE
  5
F10346
330
F10347
100
AcDbEntity
8
Geo
100
AcDbLine
10
-59.5281454956937
20
14.3899992348089
30
0.00000000000000
11
-59.5244788290271
21
14.3878936144588
31
0.00000000000000
  0
LINE
  5
F10348
330
F10349
100
AcDbEntity
8
Geo
100
AcDbLine
10
-59.5244788290271
20
14.3878936144588
30
0.00000000000000
11
-59.5208121623604
21
14.3857899212520
31
0.00000000000000
  0
LINE
  5
F1034A
330
F1034B
100
AcDbEntity
8
Geo
100
AcDbLine
10
-59.5208121623604
20
14.3857899212520
30
0.00000000000000
11
-59.5171454956938
21
14.3836883060302
31
0.00000000000000
  0
LINE
  5
F1034C
330
F1034D
100
AcDbEntity
8
Geo
100
AcDbLine
10
-59.5171454956938
20
14.3836883060302
30
0.00000000000000
11
-59.5134788290271
21
14.3815889194861
31
0.00000000000000
  0
LINE
  5
F1034E
330
F1034F
100
AcDbEntity
8
Geo
100
AcDbLine
10
-59.5134788290271
20
14.3815889194861
30
0.00000000000000
11
-59.5098121623604
21
14.3794919121526
31
0.00000000000000
  0
LINE
  5
F10350
330
F10351
100
AcDbEntity
8
Geo
100
AcDbLine
10
-59.5098121623604
20
14.3794919121526
30
0.00000000000000
11
-59.5061454956938
21
14.3773974343920
31
0.00000000000000
  0
LINE
  5
F10352
330
F10353
100
AcDbEntity
8
Geo
100
AcDbLine
10
-59.5061454956938
20
14.3773974343920
30
0.00000000000000
11
-59.5024788290271
21
14.3753056363852
31
0.00000000000000
  0
LINE
  5
F10354
330
F10355
100
AcDbEntity
8
Geo
100
AcDbLine
10
-59.5024788290271
20
14.3753056363852
30
0.00000000000000
11
-59.4988121623604
21
14.3732166681209
31
0.00000000000000
  0
LINE
  5
F10356
330
F10357
100
AcDbEntity
8
Geo
100
AcDbLine
10
-59.4988121623604
20
14.3732166681209
30
0.00000000000000
11
-59.4951454956937
21
14.3711306793852
31
0.00000000000000
  0
LINE
  5
F10358
330
F10359
100
AcDbEntity
8
Geo
100
AcDbLine
10
-59.4951454956937
20
14.3711306793852
30
0.00000000000000
11
-59.4914788290271
21
14.3690478197501
31
0.00000000000000
  0
LINE
  5
F1035A
330
F1035B
100
AcDbEntity
8
Geo
100
AcDbLine
10
-59.4914788290271
20
14.3690478197501
30
0.00000000000000
11
-59.4878121623604
21
14.3669682385635
31
0.00000000000000
  0
LINE
  5
F1035C
330
F1035D
100
AcDbEntity
8
Geo
100
AcDbLine
10
-59.4878121623604
20
14.3669682385635
30
0.00000000000000
11
-59.4841454956938
21
14.3648920849382
31
0.00000000000000
  0
LINE
  5
F1035E
330
F1035F
100
AcDbEntity
8
Geo
100
AcDbLine
10
-59.4841454956938
20
14.3648920849382
30
0.00000000000000
11
-59.4804788290271
21
14.3628195077413
31
0.00000000000000
  0
LINE
  5
F10360
330
F10361
100
AcDbEntity
8
Geo
100
AcDbLine
10
-59.4804788290271
20
14.3628195077413
30
0.00000000000000
11
-59.4768121623604
21
14.3607506555833
31
0.00000000000000
  0
LINE
  5
F10362
330
F10363
100
AcDbEntity
8
Geo
100
AcDbLine
10
-59.4768121623604
20
14.3607506555833
30
0.00000000000000
11
-59.4731454956937
21
14.3586856768076
31
0.00000000000000
  0
LINE
  5
F10364
330
F10365
100
AcDbEntity
8
Geo
100
AcDbLine
10
-59.4731454956937
20
14.3586856768076
30
0.00000000000000
11
-59.4694788290271
21
14.3566247194800
31
0.00000000000000
  0
LINE
  5
F10366
330
F10367
100
AcDbEntity
8
Geo
100
AcDbLine
10
-59.4694788290271
20
14.3566247194800
30
0.00000000000000
11
-59.4658121623604
21
14.3545679313780
31
0.00000000000000
  0
LINE
  5
F10368
330
F10369
100
AcDbEntity
8
Geo
100
AcDbLine
10
-59.4658121623604
20
14.3545679313780
30
0.00000000000000
11
-59.4621454956938
21
14.3525154599799
31
0.00000000000000
  0
LINE
  5
F1036A
330
F1036B
100
AcDbEntity
8
Geo
100
AcDbLine
10
-59.4621454956938
20
14.3525154599799
30
0.00000000000000
11
-59.4584788290271
21
14.3504674524547
31
0.00000000000000
  0
LINE
  5
F1036C
330
F1036D
100
AcDbEntity
8
Geo
100
AcDbLine
10
-59.4584788290271
20
14.3504674524547
30
0.00000000000000
11
-59.4548121623604
21
14.3484240556511
31
0.00000000000000
  0
LINE
  5
F1036E
330
F1036F
100
AcDbEntity
8
Geo
100
AcDbLine
10
-59.4548121623604
20
14.3484240556511
30
0.00000000000000
11
-59.4511454956938
21
14.3463854160876
31
0.00000000000000
  0
LINE
  5
F10370
330
F10371
100
AcDbEntity
8
Geo
100
AcDbLine
10
-59.4511454956938
20
14.3463854160876
30
0.00000000000000
11
-59.4474788290271
21
14.3443516799411
31
0.00000000000000
  0
LINE
  5
F10372
330
F10373
100
AcDbEntity
8
Geo
100
AcDbLine
10
-59.4474788290271
20
14.3443516799411
30
0.00000000000000
11
-59.4438121623604
21
14.3423229930373
31
0.00000000000000
  0
LINE
  5
F10374
330
F10375
100
AcDbEntity
8
Geo
100
AcDbLine
10
-59.4438121623604
20
14.3423229930373
30
0.00000000000000
11
-59.4401454956937
21
14.3402995008396
31
0.00000000000000
  0
LINE
  5
F10376
330
F10377
100
AcDbEntity
8
Geo
100
AcDbLine
10
-59.4401454956937
20
14.3402995008396
30
0.00000000000000
11
-59.4364788290271
21
14.3382813484391
31
0.00000000000000
  0
LINE
  5
F10378
330
F10379
100
AcDbEntity
8
Geo
100
AcDbLine
10
-59.4364788290271
20
14.3382813484391
30
0.00000000000000
11
-59.4328121623604
21
14.3362686805438
31
0.00000000000000
  0
LINE
  5
F1037A
330
F1037B
100
AcDbEntity
8
Geo
100
AcDbLine
10
-59.4328121623604
20
14.3362686805438
30
0.00000000000000
11
-59.4291454956938
21
14.3342616414688
31
0.00000000000000
  0
LINE
  5
F1037C
330
F1037D
100
AcDbEntity
8
Geo
100
AcDbLine
10
-59.4291454956938
20
14.3342616414688
30
0.00000000000000
11
-59.4254788290271
21
14.3322603751251
31
0.00000000000000
  0
LINE
  5
F1037E
330
F1037F
100
AcDbEntity
8
Geo
100
AcDbLine
10
-59.4254788290271
20
14.3322603751251
30
0.00000000000000
11
-59.4218121623604
21
14.3302650250103
31
0.00000000000000
  0
LINE
  5
F10380
330
F10381
100
AcDbEntity
8
Geo
100
AcDbLine
10
-59.4218121623604
20
14.3302650250103
30
0.00000000000000
11
-59.4181454956938
21
14.3282757341974
31
0.00000000000000
  0
LINE
  5
F10382
330
F10383
100
AcDbEntity
8
Geo
100
AcDbLine
10
-59.4181454956938
20
14.3282757341974
30
0.00000000000000
11
-59.4144788290271
21
14.3262926453251
31
0.00000000000000
  0
LINE
  5
F10384
330
F10385
100
AcDbEntity
8
Geo
100
AcDbLine
10
-59.4144788290271
20
14.3262926453251
30
0.00000000000000
11
-59.4108121623604
21
14.3243159005873
31
0.00000000000000
  0
LINE
  5
F10386
330
F10387
100
AcDbEntity
8
Geo
100
AcDbLine
10
-59.4108121623604
20
14.3243159005873
30
0.00000000000000
11
-59.4071454956937
21
14.3223456417232
31
0.00000000000000
  0
LINE
  5
F10388
330
F10389
100
AcDbEntity
8
Geo
100
AcDbLine
10
-59.4071454956937
20
14.3223456417232
30
0.00000000000000
11
-59.4034788290271
21
14.3203820100068
31
0.00000000000000
  0
LINE
  5
F1038A
330
F1038B
100
AcDbEntity
8
Geo
100
AcDbLine
10
-59.4034788290271
20
14.3203820100068
30
0.00000000000000
11
-59.3998121623604
21
14.3184251462368
31
0.00000000000000
  0
LINE
  5
F1038C
330
F1038D
100
AcDbEntity
8
Geo
100
AcDbLine
10
-59.3998121623604
20
14.3184251462368
30
0.00000000000000
11
-59.3961454956938
21
14.3164751907269
31
0.00000000000000
  0
LINE
  5
F1038E
330
F1038F
100
AcDbEntity
8
Geo
100
AcDbLine
10
-59.3961454956938
20
14.3164751907269
30
0.00000000000000
11
-59.3924788290271
21
14.3145322832951
31
0.00000000000000
  0
LINE
  5
F10390
330
F10391
100
AcDbEntity
8
Geo
100
AcDbLine
10
-59.3924788290271
20
14.3145322832951
30
0.00000000000000
11
-59.3888121623604
21
14.3125965632544
31
0.00000000000000
  0
LINE
  5
F10392
330
F10393
100
AcDbEntity
8
Geo
100
AcDbLine
10
-59.3888121623604
20
14.3125965632544
30
0.00000000000000
11
-59.3851454956937
21
14.3106681694022
31
0.00000000000000
  0
LINE
  5
F10394
330
F10395
100
AcDbEntity
8
Geo
100
AcDbLine
10
-59.3851454956937
20
14.3106681694022
30
0.00000000000000
11
-59.3814788290271
21
14.3087472400107
31
0.00000000000000
  0
LINE
  5
F10396
330
F10397
100
AcDbEntity
8
Geo
100
AcDbLine
10
-59.3814788290271
20
14.3087472400107
30
0.00000000000000
11
-59.3778121623604
21
14.3068339128168
31
0.00000000000000
  0
LINE
  5
F10398
330
F10399
100
AcDbEntity
8
Geo
100
AcDbLine
10
-59.3778121623604
20
14.3068339128168
30
0.00000000000000
11
-59.3741454956938
21
14.3049283250123
31
0.00000000000000
  0
LINE
  5
F1039A
330
F1039B
100
AcDbEntity
8
Geo
100
AcDbLine
10
-59.3741454956938
20
14.3049283250123
30
0.00000000000000
11
-59.3704788290271
21
14.3030306132341
31
0.00000000000000
  0
LINE
  5
F1039C
330
F1039D
100
AcDbEntity
8
Geo
100
AcDbLine
10
-59.3704788290271
20
14.3030306132341
30
0.00000000000000
11
-59.3668121623604
21
14.3011409135544
31
0.00000000000000
  0
LINE
  5
F1039E
330
F1039F
100
AcDbEntity
8
Geo
100
AcDbLine
10
-59.3668121623604
20
14.3011409135544
30
0.00000000000000
11
-59.3631454956938
21
14.2992593614708
31
0.00000000000000
  0
LINE
  5
F103A0
330
F103A1
100
AcDbEntity
8
Geo
100
AcDbLine
10
-59.3631454956938
20
14.2992593614708
30
0.00000000000000
11
-59.3594788290271
21
14.2973860918967
31
0.00000000000000
  0
LINE
  5
F103A2
330
F103A3
100
AcDbEntity
8
Geo
100
AcDbLine
10
-59.3594788290271
20
14.2973860918967
30
0.00000000000000
11
-59.3558121623604
21
14.2955212391518
31
0.00000000000000
  0
LINE
  5
F103A4
330
F103A5
100
AcDbEntity
8
Geo
100
AcDbLine
10
-59.3558121623604
20
14.2955212391518
30
0.00000000000000
11
-59.3521454956937
21
14.2936649369520
31
0.00000000000000
  0
LINE
  5
F103A6
330
F103A7
100
AcDbEntity
8
Geo
100
AcDbLine
10
-59.3521454956937
20
14.2936649369520
30
0.00000000000000
11
-59.3484788290271
21
14.2918173184004
31
0.00000000000000
  0
LINE
  5
F103A8
330
F103A9
100
AcDbEntity
8
Geo
100
AcDbLine
10
-59.3484788290271
20
14.2918173184004
30
0.00000000000000
11
-59.3448121623604
21
14.2899785159771
31
0.00000000000000
  0
LINE
  5
F103AA
330
F103AB
100
AcDbEntity
8
Geo
100
AcDbLine
10
-59.3448121623604
20
14.2899785159771
30
0.00000000000000
11
-59.3411454956938
21
14.2881486615305
31
0.00000000000000
  0
LINE
  5
F103AC
330
F103AD
100
AcDbEntity
8
Geo
100
AcDbLine
10
-59.3411454956938
20
14.2881486615305
30
0.00000000000000
11
-59.3374788290271
21
14.2863278862670
31
0.00000000000000
  0
LINE
  5
F103AE
330
F103AF
100
AcDbEntity
8
Geo
100
AcDbLine
10
-59.3374788290271
20
14.2863278862670
30
0.00000000000000
11
-59.3338121623604
21
14.2845163207422
31
0.00000000000000
  0
LINE
  5
F103B0
330
F103B1
100
AcDbEntity
8
Geo
100
AcDbLine
10
-59.3338121623604
20
14.2845163207422
30
0.00000000000000
11
-59.3301454956937
21
14.2827140948512
31
0.00000000000000
  0
LINE
  5
F103B2
330
F103B3
100
AcDbEntity
8
Geo
100
AcDbLine
10
-59.3301454956937
20
14.2827140948512
30
0.00000000000000
11
-59.3264788290271
21
14.2809213378196
31
0.00000000000000
  0
LINE
  5
F103B4
330
F103B5
100
AcDbEntity
8
Geo
100
AcDbLine
10
-59.3264788290271
20
14.2809213378196
30
0.00000000000000
11
-59.3228121623604
21
14.2791381781940
31
0.00000000000000
  0
LINE
  5
F103B6
330
F103B7
100
AcDbEntity
8
Geo
100
AcDbLine
10
-59.3228121623604
20
14.2791381781940
30
0.00000000000000
11
-59.3191454956937
21
14.2773647438326
31
0.00000000000000
  0
LINE
  5
F103B8
330
F103B9
100
AcDbEntity
8
Geo
100
AcDbLine
10
-59.3191454956937
20
14.2773647438326
30
0.00000000000000
11
-59.3154788290271
21
14.2756011618966
31
0.00000000000000
  0
LINE
  5
F103BA
330
F103BB
100
AcDbEntity
8
Geo
100
AcDbLine
10
-59.3154788290271
20
14.2756011618966
30
0.00000000000000
11
-59.3118121623604
21
14.2738475588406
31
0.00000000000000
  0
LINE
  5
F103BC
330
F103BD
100
AcDbEntity
8
Geo
100
AcDbLine
10
-59.3118121623604
20
14.2738475588406
30
0.00000000000000
11
-59.3081454956938
21
14.2721040604036
31
0.00000000000000
  0
LINE
  5
F103BE
330
F103BF
100
AcDbEntity
8
Geo
100
AcDbLine
10
-59.3081454956938
20
14.2721040604036
30
0.00000000000000
11
-59.3044788290271
21
14.2703707916001
31
0.00000000000000
  0
LINE
  5
F103C0
330
F103C1
100
AcDbEntity
8
Geo
100
AcDbLine
10
-59.3044788290271
20
14.2703707916001
30
0.00000000000000
11
-59.3008121623604
21
14.2686478767114
31
0.00000000000000
  0
LINE
  5
F103C2
330
F103C3
100
AcDbEntity
8
Geo
100
AcDbLine
10
-59.3008121623604
20
14.2686478767114
30
0.00000000000000
11
-59.2971454956937
21
14.2669354392759
31
0.00000000000000
  0
LINE
  5
F103C4
330
F103C5
100
AcDbEntity
8
Geo
100
AcDbLine
10
-59.2971454956937
20
14.2669354392759
30
0.00000000000000
11
-59.2934788290271
21
14.2652336020810
31
0.00000000000000
  0
LINE
  5
F103C6
330
F103C7
100
AcDbEntity
8
Geo
100
AcDbLine
10
-59.2934788290271
20
14.2652336020810
30
0.00000000000000
11
-59.2898121623604
21
14.2635424871541
31
0.00000000000000
  0
LINE
  5
F103C8
330
F103C9
100
AcDbEntity
8
Geo
100
AcDbLine
10
-59.2898121623604
20
14.2635424871541
30
0.00000000000000
11
-59.2861454956938
21
14.2618622157536
31
0.00000000000000
  0
LINE
  5
F103CA
330
F103CB
100
AcDbEntity
8
Geo
100
AcDbLine
10
-59.2861454956938
20
14.2618622157536
30
0.00000000000000
11
-59.2824788290271
21
14.2601929083606
31
0.00000000000000
  0
LINE
  5
F103CC
330
F103CD
100
AcDbEntity
8
Geo
100
AcDbLine
10
-59.2824788290271
20
14.2601929083606
30
0.00000000000000
11
-59.2788121623604
21
14.2585346846697
31
0.00000000000000
  0
LINE
  5
F103CE
330
F103CF
100
AcDbEntity
8
Geo
100
AcDbLine
10
-59.2788121623604
20
14.2585346846697
30
0.00000000000000
11
-59.2751454956937
21
14.2568876635811
31
0.00000000000000
  0
LINE
  5
F103D0
330
F103D1
100
AcDbEntity
8
Geo
100
AcDbLine
10
-59.2751454956937
20
14.2568876635811
30
0.00000000000000
11
-59.2714788290271
21
14.2552519631915
31
0.00000000000000
  0
LINE
  5
F103D2
330
F103D3
100
AcDbEntity
8
Geo
100
AcDbLine
10
-59.2714788290271
20
14.2552519631915
30
0.00000000000000
11
-59.2678121623604
21
14.2536277007862
31
0.00000000000000
  0
LINE
  5
F103D4
330
F103D5
100
AcDbEntity
8
Geo
100
AcDbLine
10
-59.2678121623604
20
14.2536277007862
30
0.00000000000000
11
-59.2641454956937
21
14.2520149928299
31
0.00000000000000
  0
LINE
  5
F103D6
330
F103D7
100
AcDbEntity
8
Geo
100
AcDbLine
10
-59.2641454956937
20
14.2520149928299
30
0.00000000000000
11
-59.2604788290271
21
14.2504139549591
31
0.00000000000000
  0
LINE
  5
F103D8
330
F103D9
100
AcDbEntity
8
Geo
100
AcDbLine
10
-59.2604788290271
20
14.2504139549591
30
0.00000000000000
11
-59.2568121623604
21
14.2488247019735
31
0.00000000000000
  0
LINE
  5
F103DA
330
F103DB
100
AcDbEntity
8
Geo
100
AcDbLine
10
-59.2568121623604
20
14.2488247019735
30
0.00000000000000
11
-59.2531454956938
21
14.2472473478278
31
0.00000000000000
  0
LINE
  5
F103DC
330
F103DD
100
AcDbEntity
8
Geo
100
AcDbLine
10
-59.2531454956938
20
14.2472473478278
30
0.00000000000000
11
-59.2494788290271
21
14.2456820056234
31
0.00000000000000
  0
LINE
  5
F103DE
330
F103DF
100
AcDbEntity
8
Geo
100
AcDbLine
10
-59.2494788290271
20
14.2456820056234
30
0.00000000000000
11
-59.2458121623604
21
14.2441287876004
31
0.00000000000000
  0
LINE
  5
F103E0
330
F103E1
100
AcDbEntity
8
Geo
100
AcDbLine
10
-59.2458121623604
20
14.2441287876004
30
0.00000000000000
11
-59.2421454956937
21
14.2425878051296
31
0.00000000000000
  0
LINE
  5
F103E2
330
F103E3
100
AcDbEntity
8
Geo
100
AcDbLine
10
-59.2421454956937
20
14.2425878051296
30
0.00000000000000
11
-59.2384788290271
21
14.2410591687047
31
0.00000000000000
  0
LINE
  5
F103E4
330
F103E5
100
AcDbEntity
8
Geo
100
AcDbLine
10
-59.2384788290271
20
14.2410591687047
30
0.00000000000000
11
-59.2348121623604
21
14.2395429879337
31
0.00000000000000
  0
LINE
  5
F103E6
330
F103E7
100
AcDbEntity
8
Geo
100
AcDbLine
10
-59.2348121623604
20
14.2395429879337
30
0.00000000000000
11
-59.2311454956937
21
14.2380393715319
31
0.00000000000000
  0
LINE
  5
F103E8
330
F103E9
100
AcDbEntity
8
Geo
100
AcDbLine
10
-59.2311454956937
20
14.2380393715319
30
0.00000000000000
11
-59.2274788290271
21
14.2365484273134
31
0.00000000000000
  0
LINE
  5
F103EA
330
F103EB
100
AcDbEntity
8
Geo
100
AcDbLine
10
-59.2274788290271
20
14.2365484273134
30
0.00000000000000
11
-59.2238121623604
21
14.2350702621839
31
0.00000000000000
  0
LINE
  5
F103EC
330
F103ED
100
AcDbEntity
8
Geo
100
AcDbLine
10
-59.2238121623604
20
14.2350702621839
30
0.00000000000000
11
-59.2201454956937
21
14.2336049821326
31
0.00000000000000
  0
LINE
  5
F103EE
330
F103EF
100
AcDbEntity
8
Geo
100
AcDbLine
10
-59.2201454956937
20
14.2336049821326
30
0.00000000000000
11
-59.2164788290271
21
14.2321526922248
31
0.00000000000000
  0
LINE
  5
F103F0
330
F103F1
100
AcDbEntity
8
Geo
100
AcDbLine
10
-59.2164788290271
20
14.2321526922248
30
0.00000000000000
11
-59.2128121623604
21
14.2307134965946
31
0.00000000000000
  0
LINE
  5
F103F2
330
F103F3
100
AcDbEntity
8
Geo
100
AcDbLine
10
-59.2128121623604
20
14.2307134965946
30
0.00000000000000
11
-59.2091454956937
21
14.2292874984370
31
0.00000000000000
  0
LINE
  5
F103F4
330
F103F5
100
AcDbEntity
8
Geo
100
AcDbLine
10
-59.2091454956937
20
14.2292874984370
30
0.00000000000000
11
-59.2054788290271
21
14.2278748000007
31
0.00000000000000
  0
LINE
  5
F103F6
330
F103F7
100
AcDbEntity
8
Geo
100
AcDbLine
10
-59.2054788290271
20
14.2278748000007
30
0.00000000000000
11
-59.2018121623604
21
14.2264755025808
31
0.00000000000000
  0
LINE
  5
F103F8
330
F103F9
100
AcDbEntity
8
Geo
100
AcDbLine
10
-59.2018121623604
20
14.2264755025808
30
0.00000000000000
11
-59.1981454956938
21
14.2250897065116
31
0.00000000000000
  0
LINE
  5
F103FA
330
F103FB
100
AcDbEntity
8
Geo
100
AcDbLine
10
-59.1981454956938
20
14.2250897065116
30
0.00000000000000
11
-59.1944788290271
21
14.2237175111591
31
0.00000000000000
  0
LINE
  5
F103FC
330
F103FD
100
AcDbEntity
8
Geo
100
AcDbLine
10
-59.1944788290271
20
14.2237175111591
30
0.00000000000000
11
-59.1908121623604
21
14.2223590149142
31
0.00000000000000
  0
LINE
  5
F103FE
330
F103FF
100
AcDbEntity
8
Geo
100
AcDbLine
10
-59.1908121623604
20
14.2223590149142
30
0.00000000000000
11
-59.1871454956937
21
14.2210143151856
31
0.00000000000000
  0
LINE
  5
F10400
330
F10401
100
AcDbEntity
8
Geo
100
AcDbLine
10
-59.1871454956937
20
14.2210143151856
30
0.00000000000000
11
-59.1834788290271
21
14.2196835083927
31
0.00000000000000
  0
LINE
  5
F10402
330
F10403
100
AcDbEntity
8
Geo
100
AcDbLine
10
-59.1834788290271
20
14.2196835083927
30
0.00000000000000
11
-59.1798121623604
21
14.2183666899586
31
0.00000000000000
  0
LINE
  5
F10404
330
F10405
100
AcDbEntity
8
Geo
100
AcDbLine
10
-59.1798121623604
20
14.2183666899586
30
0.00000000000000
11
-59.1761454956937
21
14.2170639543036
31
0.00000000000000
  0
LINE
  5
F10406
330
F10407
100
AcDbEntity
8
Geo
100
AcDbLine
10
-59.1761454956937
20
14.2170639543036
30
0.00000000000000
11
-59.1724788290271
21
14.2157753948381
31
0.00000000000000
  0
LINE
  5
F10408
330
F10409
100
AcDbEntity
8
Geo
100
AcDbLine
10
-59.1724788290271
20
14.2157753948381
30
0.00000000000000
11
-59.1688121623604
21
14.2145011039559
31
0.00000000000000
  0
LINE
  5
F1040A
330
F1040B
100
AcDbEntity
8
Geo
100
AcDbLine
10
-59.1688121623604
20
14.2145011039559
30
0.00000000000000
11
-59.1651454956937
21
14.2132411730280
31
0.00000000000000
  0
LINE
  5
F1040C
330
F1040D
100
AcDbEntity
8
Geo
100
AcDbLine
10
-59.1651454956937
20
14.2132411730280
30
0.00000000000000
11
-59.1614788290271
21
14.2119956923954
31
0.00000000000000
  0
LINE
  5
F1040E
330
F1040F
100
AcDbEntity
8
Geo
100
AcDbLine
10
-59.1614788290271
20
14.2119956923954
30
0.00000000000000
11
-59.1578121623604
21
14.2107647513634
31
0.00000000000000
  0
LINE
  5
F10410
330
F10411
100
AcDbEntity
8
Geo
100
AcDbLine
10
-59.1578121623604
20
14.2107647513634
30
0.00000000000000
11
-59.1541454956937
21
14.2095484381942
31
0.00000000000000
  0
LINE
  5
F10412
330
F10413
100
AcDbEntity
8
Geo
100
AcDbLine
10
-59.1541454956937
20
14.2095484381942
30
0.00000000000000
11
-59.1504788290271
21
14.2083468401017
31
0.00000000000000
  0
LINE
  5
F10414
330
F10415
100
AcDbEntity
8
Geo
100
AcDbLine
10
-59.1504788290271
20
14.2083468401017
30
0.00000000000000
11
-59.1468121623604
21
14.2071600432442
31
0.00000000000000
  0
LINE
  5
F10416
330
F10417
100
AcDbEntity
8
Geo
100
AcDbLine
10
-59.1468121623604
20
14.2071600432442
30
0.00000000000000
11
-59.1431454956937
21
14.2059881327191
31
0.00000000000000
  0
LINE
  5
F10418
330
F10419
100
AcDbEntity
8
Geo
100
AcDbLine
10
-59.1431454956937
20
14.2059881327191
30
0.00000000000000
11
-59.1394788290271
21
14.2048311925561
31
0.00000000000000
  0
LINE
  5
F1041A
330
F1041B
100
AcDbEntity
8
Geo
100
AcDbLine
10
-59.1394788290271
20
14.2048311925561
30
0.00000000000000
11
-59.1358121623604
21
14.2036893057117
31
0.00000000000000
  0
LINE
  5
F1041C
330
F1041D
100
AcDbEntity
8
Geo
100
AcDbLine
10
-59.1358121623604
20
14.2036893057117
30
0.00000000000000
11
-59.1321454956937
21
14.2025625540629
31
0.00000000000000
  0
LINE
  5
F1041E
330
F1041F
100
AcDbEntity
8
Geo
100
AcDbLine
10
-59.1321454956937
20
14.2025625540629
30
0.00000000000000
11
-59.1284788290271
21
14.2014510184014
31
0.00000000000000
  0
LINE
  5
F10420
330
F10421
100
AcDbEntity
8
Geo
100
AcDbLine
10
-59.1284788290271
20
14.2014510184014
30
0.00000000000000
11
-59.1248121623604
21
14.2003547784280
31
0.00000000000000
  0
LINE
  5
F10422
330
F10423
100
AcDbEntity
8
Geo
100
AcDbLine
10
-59.1248121623604
20
14.2003547784280
30
0.00000000000000
11
-59.1211454956937
21
14.1992739127467
31
0.00000000000000
  0
LINE
  5
F10424
330
F10425
100
AcDbEntity
8
Geo
100
AcDbLine
10
-59.1211454956937
20
14.1992739127467
30
0.00000000000000
11
-59.1174788290271
21
14.1982084988591
31
0.00000000000000
  0
LINE
  5
F10426
330
F10427
100
AcDbEntity
8
Geo
100
AcDbLine
10
-59.1174788290271
20
14.1982084988591
30
0.00000000000000
11
-59.1138121623604
21
14.1971586131589
31
0.00000000000000
  0
LINE
  5
F10428
330
F10429
100
AcDbEntity
8
Geo
100
AcDbLine
10
-59.1138121623604
20
14.1971586131589
30
0.00000000000000
11
-59.1101454956938
21
14.1961243309264
31
0.00000000000000
  0
LINE
  5
F1042A
330
F1042B
100
AcDbEntity
8
Geo
100
AcDbLine
10
-59.1101454956938
20
14.1961243309264
30
0.00000000000000
11
-59.1064788290271
21
14.1951057263228
31
0.00000000000000
  0
LINE
  5
F1042C
330
F1042D
100
AcDbEntity
8
Geo
100
AcDbLine
10
-59.1064788290271
20
14.1951057263228
30
0.00000000000000
11
-59.1028121623604
21
14.1941028723856
31
0.00000000000000
  0
LINE
  5
F1042E
330
F1042F
100
AcDbEntity
8
Geo
100
AcDbLine
10
-59.1028121623604
20
14.2475976090953
30
0.00000000000000
11
-59.0991454956937
21
14.2460159720092
31
0.00000000000000
  0
LINE
  5
F10430
330
F10431
100
AcDbEntity
8
Geo
100
AcDbLine
10
-59.0991454956937
20
14.2460159720092
30
0.00000000000000
11
-59.0954788290271
21
14.2438917360840
31
0.00000000000000
  0
LINE
  5
F10432
330
F10433
100
AcDbEntity
8
Geo
100
AcDbLine
10
-59.0954788290271
20
14.2438917360840
30
0.00000000000000
11
-59.0918121623604
21
14.2417660230982
31
0.00000000000000
  0
LINE
  5
F10434
330
F10435
100
AcDbEntity
8
Geo
100
AcDbLine
10
-59.0918121623604
20
14.2417660230982
30
0.00000000000000
11
-59.0881454956937
21
14.2396390684848
31
0.00000000000000
  0
LINE
  5
F10436
330
F10437
100
AcDbEntity
8
Geo
100
AcDbLine
10
-59.0881454956937
20
14.2396390684848
30
0.00000000000000
11
-59.0844788290271
21
14.2375111087517
31
0.00000000000000
  0
LINE
  5
F10438
330
F10439
100
AcDbEntity
8
Geo
100
AcDbLine
10
-59.0844788290271
20
14.2375111087517
30
0.00000000000000
11
-59.0808121623604
21
14.2353823817984
31
0.00000000000000
  0
LINE
  5
F1043A
330
F1043B
100
AcDbEntity
8
Geo
100
AcDbLine
10
-59.0808121623604
20
14.2353823817984
30
0.00000000000000
11
-59.0771454956937
21
14.2332531289243
31
0.00000000000000
  0
LINE
  5
F1043C
330
F1043D
100
AcDbEntity
8
Geo
100
AcDbLine
10
-59.0771454956937
20
14.2332531289243
30
0.00000000000000
11
-59.0734788290271
21
14.2311236035318
31
0.00000000000000
  0
LINE
  5
F1043E
330
F1043F
100
AcDbEntity
8
Geo
100
AcDbLine
10
-59.0734788290271
20
14.2311236035318
30
0.00000000000000
11
-59.0698121623604
21
14.2289941007016
31
0.00000000000000
  0
LINE
  5
F10440
330
F10441
100
AcDbEntity
8
Geo
100
AcDbLine
10
-59.0698121623604
20
14.2289941007016
30
0.00000000000000
11
-59.0661454956937
21
14.2268650415111
31
0.00000000000000
  0
LINE
  5
F10442
330
F10443
100
AcDbEntity
8
Geo
100
AcDbLine
10
-59.0661454956937
20
14.2268650415111
30
0.00000000000000
11
-59.0624788290271
21
14.2247371834324
31
0.00000000000000
  0
LINE
  5
F10444
330
F10445
100
AcDbEntity
8
Geo
100
AcDbLine
10
-59.0624788290271
20
14.2247371834324
30
0.00000000000000
11
-59.0588121623604
21
14.2226120933024
31
0.00000000000000
  0
LINE
  5
F10446
330
F10447
100
AcDbEntity
8
Geo
100
AcDbLine
10
-59.0588121623604
20
14.2226120933024
30
0.00000000000000
11
-59.0551454956938
21
14.2204931251355
31
0.00000000000000
  0
LINE
  5
F10448
330
F10449
100
AcDbEntity
8
Geo
100
AcDbLine
10
-59.0551454956938
20
14.2204931251355
30
0.00000000000000
11
-59.0514788290271
21
14.2183873079655
31
0.00000000000000
  0
LINE
  5
F1044A
330
F1044B
100
AcDbEntity
8
Geo
100
AcDbLine
10
-59.0514788290271
20
14.2183873079655
30
0.00000000000000
11
-59.0478121623604
21
14.2163087905016
31
0.00000000000000
  0
LINE
  5
F1044C
330
F1044D
100
AcDbEntity
8
Geo
100
AcDbLine
10
-59.0478121623604
20
14.2163087905016
30
0.00000000000000
11
-59.0441454956937
21
14.2142848408105
31
0.00000000000000
  0
LINE
  5
F1044E
330
F1044F
100
AcDbEntity
8
Geo
100
AcDbLine
10
-59.0441454956937
20
14.2142848408105
30
0.00000000000000
11
-59.0404788290271
21
14.2123659151500
31
0.00000000000000
  0
LINE
  5
F10450
330
F10451
100
AcDbEntity
8
Geo
100
AcDbLine
10
-59.0404788290271
20
14.2123659151500
30
0.00000000000000
11
-59.0368121623604
21
14.2106421077326
31
0.00000000000000
  0
LINE
  5
F10452
330
F10453
100
AcDbEntity
8
Geo
100
AcDbLine
10
-59.0368121623604
20
14.2106421077326
30
0.00000000000000
11
-59.0331454956937
21
14.2092696537680
31
0.00000000000000
  0
LINE
  5
F10454
330
F10455
100
AcDbEntity
8
Geo
100
AcDbLine
10
-59.0331454956937
20
14.2092696537680
30
0.00000000000000
11
-59.0294788290271
21
14.2085137677005
31
0.00000000000000
  0
LINE
  5
F10456
330
F10457
100
AcDbEntity
8
Geo
100
AcDbLine
10
-59.0294788290271
20
14.2085137677005
30
0.00000000000000
11
-59.0258121623604
21
14.2088195680383
31
0.00000000000000
  0
LINE
  5
F10458
330
F10459
100
AcDbEntity
8
Geo
100
AcDbLine
10
-59.0258121623604
20
14.2088195680383
30
0.00000000000000
11
-59.0221454956937
21
14.2109346752290
31
0.00000000000000
  0
LINE
  5
F1045A
330
F1045B
100
AcDbEntity
8
Geo
100
AcDbLine
10
-59.0221454956937
20
14.2109346752290
30
0.00000000000000
11
-59.0184788290271
21
14.2161319672958
31
0.00000000000000
  0
LINE
  5
F1045C
330
F1045D
100
AcDbEntity
8
Geo
100
AcDbLine
10
-59.0184788290271
20
14.2161319672958
30
0.00000000000000
11
-59.0148121623604
21
14.2266283858822
31
0.00000000000000
  0
LINE
  5
F1045E
330
F1045F
100
AcDbEntity
8
Geo
100
AcDbLine
10
-59.0148121623604
20
14.2266283858822
30
0.00000000000000
11
-59.0111454956937
21
14.2463645166471
31
0.00000000000000
  0
LINE
  5
F10460
330
F10461
100
AcDbEntity
8
Geo
100
AcDbLine
10
-59.0111454956937
20
14.2463645166471
30
0.00000000000000
11
-59.0074788290271
21
14.2823142074269
31
0.00000000000000
  0
LINE
  5
F10462
330
F10463
100
AcDbEntity
8
Geo
100
AcDbLine
10
-59.0074788290271
20
14.2823142074269
30
0.00000000000000
11
-59.0038121623604
21
14.3459491325391
31
0.00000000000000
  0
LINE
  5
F10464
330
F10465
100
AcDbEntity
8
Geo
100
AcDbLine
10
-59.0038121623604
20
14.3459491325391
30
0.00000000000000
11
-59.0001454956938
21
14.4514489632131
31
0.00000000000000
  0
LINE
  5
F10466
330
F10467
100
AcDbEntity
8
Geo
100
AcDbLine
10
-59.0001454956938
20
14.4514489632131
30
0.00000000000000
11
-59.0001454956938
21
14.4778142886531
31
0.00000000000000
  0
LINE
  5
F10468
330
F10469
100
AcDbEntity
8
Geo
100
AcDbLine
10
-59.0001454956938
20
14.4778142886531
30
0.00000000000000
11
-59.0038121623604
21
14.5628887702671
31
0.00000000000000
  0
LINE
  5
F1046A
330
F1046B
100
AcDbEntity
8
Geo
100
AcDbLine
10
-59.0038121623604
20
14.5628887702671
30
0.00000000000000
11
-59.0074788290271
21
14.6206310113914
31
0.00000000000000
  0
LINE
  5
F1046C
330
F1046D
100
AcDbEntity
8
Geo
100
AcDbLine
10
-59.0074788290271
20
14.6206310113914
30
0.00000000000000
11
-59.0111454956937
21
14.6559082209566
31
0.00000000000000
  0
LINE
  5
F1046E
330
F1046F
100
AcDbEntity
8
Geo
100
AcDbLine
10
-59.0111454956937
20
14.6559082209566
30
0.00000000000000
11
-59.0148121623604
21
14.6749868756538
31
0.00000000000000
  0
LINE
  5
F10470
330
F10471
100
AcDbEntity
8
Geo
100
AcDbLine
10
-59.0148121623604
20
14.6749868756538
30
0.00000000000000
11
-59.0184788290271
21
14.6834049700870
31
0.00000000000000
  0
LINE
  5
F10472
330
F10473
100
AcDbEntity
8
Geo
100
AcDbLine
10
-59.0184788290271
20
14.6834049700870
30
0.00000000000000
11
-59.0221454956937
21
14.6853448414279
31
0.00000000000000
  0
LINE
  5
F10474
330
F10475
100
AcDbEntity
8
Geo
100
AcDbLine
10
-59.0221454956937
20
14.6853448414279
30
0.00000000000000
11
-59.0230504447336
21
14.6851836890154
31
0.00000000000000
  0
LINE
  5
F10476
330
F10477
100
AcDbEntity
8
Geo
100
AcDbLine
10
-59.0230504447336
20
14.1443568256452
30
0.00000000000000
11
-59.0258121623604
21
14.1458579884842
31
0.00000000000000
  0
LINE
  5
F10478
330
F10479
100
AcDbEntity
8
Geo
100
AcDbLine
10
-59.0258121623604
20
14.1458579884842
30
0.00000000000000
11
-59.0294788290271
21
14.1492783230517
31
0.00000000000000
  0
LINE
  5
F1047A
330
F1047B
100
AcDbEntity
8
Geo
100
AcDbLine
10
-59.0294788290271
20
14.1492783230517
30
0.00000000000000
11
-59.0331454956937
21
14.1533485171173
31
0.00000000000000
  0
LINE
  5
F1047C
330
F1047D
100
AcDbEntity
8
Geo
100
AcDbLine
10
-59.0331454956937
20
14.1533485171173
30
0.00000000000000
11
-59.0368121623604
21
14.1574515365939
31
0.00000000000000
  0
LINE
  5
F1047E
330
F1047F
100
AcDbEntity
8
Geo
100
AcDbLine
10
-59.0368121623604
20
14.1574515365939
30
0.00000000000000
11
-59.0404788290271
21
14.1612810685902
31
0.00000000000000
  0
LINE
  5
F10480
330
F10481
100
AcDbEntity
8
Geo
100
AcDbLine
10
-59.0404788290271
20
14.1612810685902
30
0.00000000000000
11
-59.0441454956937
21
14.1647173082998
31
0.00000000000000
  0
LINE
  5
F10482
330
F10483
100
AcDbEntity
8
Geo
100
AcDbLine
10
-59.0441454956937
20
14.1647173082998
30
0.00000000000000
11
-59.0478121623604
21
14.1677454045486
31
0.00000000000000
  0
LINE
  5
F10484
330
F10485
100
AcDbEntity
8
Geo
100
AcDbLine
10
-59.0478121623604
20
14.1677454045486
30
0.00000000000000
11
-59.0514788290271
21
14.1704040393704
31
0.00000000000000
  0
LINE
  5
F10486
330
F10487
100
AcDbEntity
8
Geo
100
AcDbLine
10
-59.0514788290271
20
14.1704040393704
30
0.00000000000000
11
-59.0551454956938
21
14.1727543481195
31
0.00000000000000
  0
LINE
  5
F10488
330
F10489
100
AcDbEntity
8
Geo
100
AcDbLine
10
-59.0551454956938
20
14.1727543481195
30
0.00000000000000
11
-59.0588121623604
21
14.1748621066200
31
0.00000000000000
  0
LINE
  5
F1048A
330
F1048B
100
AcDbEntity
8
Geo
100
AcDbLine
10
-59.0588121623604
20
14.1748621066200
30
0.00000000000000
11
-59.0624788290271
21
14.1767883052137
31
0.00000000000000
  0
LINE
  5
F1048C
330
F1048D
100
AcDbEntity
8
Geo
100
AcDbLine
10
-59.0624788290271
20
14.1767883052137
30
0.00000000000000
11
-59.0661454956937
21
14.1785848480585
31
0.00000000000000
  0
LINE
  5
F1048E
330
F1048F
100
AcDbEntity
8
Geo
100
AcDbLine
10
-59.0661454956937
20
14.1785848480585
30
0.00000000000000
11
-59.0698121623604
21
14.1802932557835
31
0.00000000000000
  0
LINE
  5
F10490
330
F10491
100
AcDbEntity
8
Geo
100
AcDbLine
10
-59.0698121623604
20
14.1802932557835
30
0.00000000000000
11
-59.0734788290271
21
14.1819450282283
31
0.00000000000000
  0
LINE
  5
F10492
330
F10493
100
AcDbEntity
8
Geo
100
AcDbLine
10
-59.0734788290271
20
14.1819450282283
30
0.00000000000000
11
-59.0771454956937
21
14.1835628421870
31
0.00000000000000
  0
LINE
  5
F10494
330
F10495
100
AcDbEntity
8
Geo
100
AcDbLine
10
-59.0771454956937
20
14.1835628421870
30
0.00000000000000
11
-59.0808121623604
21
14.1851620941773
31
0.00000000000000
  0
LINE
  5
F10496
330
F10497
100
AcDbEntity
8
Geo
100
AcDbLine
10
-59.0808121623604
20
14.1851620941773
30
0.00000000000000
11
-59.0844788290271
21
14.1867525072904
31
0.00000000000000
  0
LINE
  5
F10498
330
F10499
100
AcDbEntity
8
Geo
100
AcDbLine
10
-59.0844788290271
20
14.1867525072904
30
0.00000000000000
11
-59.0881454956937
21
14.1883396456829
31
0.00000000000000
  0
LINE
  5
F1049A
330
F1049B
100
AcDbEntity
8
Geo
100
AcDbLine
10
-59.0881454956937
20
14.1883396456829
30
0.00000000000000
11
-59.0918121623604
21
14.1899262501302
31
0.00000000000000
  0
LINE
  5
F1049C
330
F1049D
100
AcDbEntity
8
Geo
100
AcDbLine
10
-59.0918121623604
20
14.1899262501302
30
0.00000000000000
11
-59.0954788290271
21
14.1915133444512
31
0.00000000000000
  0
LINE
  5
F1049E
330
F1049F
100
AcDbEntity
8
Geo
100
AcDbLine
10
-59.0954788290271
20
14.1915133444512
30
0.00000000000000
11
-59.0991454956937
21
14.1931010799680
31
0.00000000000000
  0
LINE
  5
F104A0
330
F104A1
100
AcDbEntity
8
Geo
100
AcDbLine
10
-59.0991454956937
20
14.1931010799680
30
0.00000000000000
11
-59.1028121623604
21
14.1941028723856
31
0.00000000000000
  0
LINE
  5
F104A2
330
F104A3
100
AcDbEntity
8
Geo
100
AcDbLine
10
-60.0634788290271
20
14.5405961142723
30
0.00000000000000
11
-60.0598121623604
21
14.5445166771604
31
0.00000000000000
  0
LINE
  5
F104A4
330
F104A5
100
AcDbEntity
8
Geo
100
AcDbLine
10
-60.0598121623604
20
14.5445166771604
30
0.00000000000000
11
-60.0561454956938
21
14.5484600957769
31
0.00000000000000
  0
LINE
  5
F104A6
330
F104A7
100
AcDbEntity
8
Geo
100
AcDbLine
10
-60.0561454956938
20
14.5484600957769
30
0.00000000000000
11
-60.0524788290271
21
14.5523548937364
31
0.00000000000000
  0
LINE
  5
F104A8
330
F104A9
100
AcDbEntity
8
Geo
100
AcDbLine
10
-60.0524788290271
20
14.5523548937364
30
0.00000000000000
11
-60.0488121623604
21
14.5561746511193
31
0.00000000000000
  0
LINE
  5
F104AA
330
F104AB
100
AcDbEntity
8
Geo
100
AcDbLine
10
-60.0488121623604
20
14.5561746511193
30
0.00000000000000
11
-60.0451454956938
21
14.5599122565890
31
0.00000000000000
  0
LINE
  5
F104AC
330
F104AD
100
AcDbEntity
8
Geo
100
AcDbLine
10
-60.0451454956938
20
14.5599122565890
30
0.00000000000000
11
-60.0414788290271
21
14.5635618708903
31
0.00000000000000
  0
LINE
  5
F104AE
330
F104AF
100
AcDbEntity
8
Geo
100
AcDbLine
10
-60.0414788290271
20
14.5635618708903
30
0.00000000000000
11
-60.0378121623604
21
14.5671262889067
31
0.00000000000000
  0
LINE
  5
F104B0
330
F104B1
100
AcDbEntity
8
Geo
100
AcDbLine
10
-60.0378121623604
20
14.5671262889067
30
0.00000000000000
11
-60.0341454956937
21
14.5706015452533
31
0.00000000000000
  0
LINE
  5
F104B2
330
F104B3
100
AcDbEntity
8
Geo
100
AcDbLine
10
-60.0341454956937
20
14.5706015452533
30
0.00000000000000
11
-60.0304788290271
21
14.5739967345430
31
0.00000000000000
  0
LINE
  5
F104B4
330
F104B5
100
AcDbEntity
8
Geo
100
AcDbLine
10
-60.0304788290271
20
14.5739967345430
30
0.00000000000000
11
-60.0268121623604
21
14.5773087657932
31
0.00000000000000
  0
LINE
  5
F104B6
330
F104B7
100
AcDbEntity
8
Geo
100
AcDbLine
10
-60.0268121623604
20
14.5773087657932
30
0.00000000000000
11
-60.0231454956938
21
14.5805108702790
31
0.00000000000000
  0
LINE
  5
F104B8
330
F104B9
100
AcDbEntity
8
Geo
100
AcDbLine
10
-60.0231454956938
20
14.5805108702790
30
0.00000000000000
11
-60.0194788290271
21
14.5835485114575
31
0.00000000000000
  0
LINE
  5
F104BA
330
F104BB
100
AcDbEntity
8
Geo
100
AcDbLine
10
-60.0194788290271
20
14.5835485114575
30
0.00000000000000
11
-60.0158121623604
21
14.5864247671114
31
0.00000000000000
  0
LINE
  5
F104BC
330
F104BD
100
AcDbEntity
8
Geo
100
AcDbLine
10
-60.0158121623604
20
14.5864247671114
30
0.00000000000000
11
-60.0121454956938
21
14.5891473661530
31
0.00000000000000
  0
LINE
  5
F104BE
330
F104BF
100
AcDbEntity
8
Geo
100
AcDbLine
10
-60.0121454956938
20
14.5891473661530
30
0.00000000000000
11
-60.0084788290271
21
14.5917231846292
31
0.00000000000000
  0
LINE
  5
F104C0
330
F104C1
100
AcDbEntity
8
Geo
100
AcDbLine
10
-60.0084788290271
20
14.5917231846292
30
0.00000000000000
11
-60.0048121623604
21
14.5941583720020
31
0.00000000000000
  0
LINE
  5
F104C2
330
F104C3
100
AcDbEntity
8
Geo
100
AcDbLine
10
-60.0048121623604
20
14.5941583720020
30
0.00000000000000
11
-60.0011454956938
21
14.5964584546926
31
0.00000000000000
  0
LINE
  5
F104C4
330
F104C5
100
AcDbEntity
8
Geo
100
AcDbLine
10
-60.0011454956938
20
14.5964584546926
30
0.00000000000000
11
-59.9974788290271
21
14.5986284216885
31
0.00000000000000
  0
LINE
  5
F104C6
330
F104C7
100
AcDbEntity
8
Geo
100
AcDbLine
10
-59.9974788290271
20
14.5986284216885
30
0.00000000000000
11
-59.9938121623604
21
14.6006727958625
31
0.00000000000000
  0
LINE
  5
F104C8
330
F104C9
100
AcDbEntity
8
Geo
100
AcDbLine
10
-59.9938121623604
20
14.6006727958625
30
0.00000000000000
11
-59.9901454956938
21
14.6025956938070
31
0.00000000000000
  0
LINE
  5
F104CA
330
F104CB
100
AcDbEntity
8
Geo
100
AcDbLine
10
-59.9901454956938
20
14.6025956938070
30
0.00000000000000
11
-59.9864788290271
21
14.6044008763602
31
0.00000000000000
  0
LINE
  5
F104CC
330
F104CD
100
AcDbEntity
8
Geo
100
AcDbLine
10
-59.9864788290271
20
14.6044008763602
30
0.00000000000000
11
-59.9828121623604
21
14.6060917915294
31
0.00000000000000
  0
LINE
  5
F104CE
330
F104CF
100
AcDbEntity
8
Geo
100
AcDbLine
10
-59.9828121623604
20
14.6060917915294
30
0.00000000000000
11
-59.9791454956937
21
14.6076716111598
31
0.00000000000000
  0
LINE
  5
F104D0
330
F104D1
100
AcDbEntity
8
Geo
100
AcDbLine
10
-59.9791454956937
20
14.6076716111598
30
0.00000000000000
11
-59.9754788290271
21
14.6091432624247
31
0.00000000000000
  0
LINE
  5
F104D2
330
F104D3
100
AcDbEntity
8
Geo
100
AcDbLine
10
-59.9754788290271
20
14.6091432624247
30
0.00000000000000
11
-59.9718121623604
21
14.6105094549987
31
0.00000000000000
  0
LINE
  5
F104D4
330
F104D5
100
AcDbEntity
8
Geo
100
AcDbLine
10
-59.9718121623604
20
14.6105094549987
30
0.00000000000000
11
-59.9681454956938
21
14.6117727046143
31
0.00000000000000
  0
LINE
  5
F104D6
330
F104D7
100
AcDbEntity
8
Geo
100
AcDbLine
10
-59.9681454956938
20
14.6117727046143
30
0.00000000000000
11
-59.9644788290271
21
14.6129353535683
31
0.00000000000000
  0
LINE
  5
F104D8
330
F104D9
100
AcDbEntity
8
Geo
100
AcDbLine
10
-59.9644788290271
20
14.6129353535683
30
0.00000000000000
11
-59.9608121623604
21
14.6139995886461
31
0.00000000000000
  0
LINE
  5
F104DA
330
F104DB
100
AcDbEntity
8
Geo
100
AcDbLine
10
-59.9608121623604
20
14.6139995886461
30
0.00000000000000
11
-59.9571454956938
21
14.6149674568462
31
0.00000000000000
  0
LINE
  5
F104DC
330
F104DD
100
AcDbEntity
8
Geo
100
AcDbLine
10
-59.9571454956938
20
14.6149674568462
30
0.00000000000000
11
-59.9534788290271
21
14.6158408792247
31
0.00000000000000
  0
LINE
  5
F104DE
330
F104DF
100
AcDbEntity
8
Geo
100
AcDbLine
10
-59.9534788290271
20
14.6158408792247
30
0.00000000000000
11
-59.9498121623604
21
14.6166216631242
31
0.00000000000000
  0
LINE
  5
F104E0
330
F104E1
100
AcDbEntity
8
Geo
100
AcDbLine
10
-59.9498121623604
20
14.6166216631242
30
0.00000000000000
11
-59.9461454956937
21
14.6173115130088
31
0.00000000000000
  0
LINE
  5
F104E2
330
F104E3
100
AcDbEntity
8
Geo
100
AcDbLine
10
-59.9461454956937
20
14.6173115130088
30
0.00000000000000
11
-59.9424788290271
21
14.6179120400935
31
0.00000000000000
  0
LINE
  5
F104E4
330
F104E5
100
AcDbEntity
8
Geo
100
AcDbLine
10
-59.9424788290271
20
14.6179120400935
30
0.00000000000000
11
-59.9388121623604
21
14.6184247709238
31
0.00000000000000
  0
LINE
  5
F104E6
330
F104E7
100
AcDbEntity
8
Geo
100
AcDbLine
10
-59.9388121623604
20
14.6184247709238
30
0.00000000000000
11
-59.9351454956938
21
14.6188511550418
31
0.00000000000000
  0
LINE
  5
F104E8
330
F104E9
100
AcDbEntity
8
Geo
100
AcDbLine
10
-59.9351454956938
20
14.6188511550418
30
0.00000000000000
11
-59.9314788290271
21
14.6191925718503
31
0.00000000000000
  0
LINE
  5
F104EA
330
F104EB
100
AcDbEntity
8
Geo
100
AcDbLine
10
-59.9314788290271
20
14.6191925718503
30
0.00000000000000
11
-59.9278121623604
21
14.6194503367741
31
0.00000000000000
  0
LINE
  5
F104EC
330
F104ED
100
AcDbEntity
8
Geo
100
AcDbLine
10
-59.9278121623604
20
14.6194503367741
30
0.00000000000000
11
-59.9241454956938
21
14.6196257068023
31
0.00000000000000
  0
LINE
  5
F104EE
330
F104EF
100
AcDbEntity
8
Geo
100
AcDbLine
10
-59.9241454956938
20
14.6196257068023
30
0.00000000000000
11
-59.9204788290271
21
14.6197198854821
31
0.00000000000000
  0
LINE
  5
F104F0
330
F104F1
100
AcDbEntity
8
Geo
100
AcDbLine
10
-59.9204788290271
20
14.6197198854821
30
0.00000000000000
11
-59.9168121623604
21
14.6197340274281
31
0.00000000000000
  0
LINE
  5
F104F2
330
F104F3
100
AcDbEntity
8
Geo
100
AcDbLine
10
-59.9168121623604
20
14.6197340274281
30
0.00000000000000
11
-59.9131454956938
21
14.6196692423996
31
0.00000000000000
  0
LINE
  5
F104F4
330
F104F5
100
AcDbEntity
8
Geo
100
AcDbLine
10
-59.9131454956938
20
14.6196692423996
30
0.00000000000000
11
-59.9094788290271
21
14.6195265989936
31
0.00000000000000
  0
LINE
  5
F104F6
330
F104F7
100
AcDbEntity
8
Geo
100
AcDbLine
10
-59.9094788290271
20
14.6195265989936
30
0.00000000000000
11
-59.9058121623604
21
14.6193071279938
31
0.00000000000000
  0
LINE
  5
F104F8
330
F104F9
100
AcDbEntity
8
Geo
100
AcDbLine
10
-59.9058121623604
20
14.6193071279938
30
0.00000000000000
11
-59.9021454956938
21
14.6190118254111
31
0.00000000000000
  0
LINE
  5
F104FA
330
F104FB
100
AcDbEntity
8
Geo
100
AcDbLine
10
-59.9021454956938
20
14.6190118254111
30
0.00000000000000
11
-59.8984788290271
21
14.6186416552474
31
0.00000000000000
  0
LINE
  5
F104FC
330
F104FD
100
AcDbEntity
8
Geo
100
AcDbLine
10
-59.8984788290271
20
14.6186416552474
30
0.00000000000000
11
-59.8948121623604
21
14.6181975520089
31
0.00000000000000
  0
LINE
  5
F104FE
330
F104FF
100
AcDbEntity
8
Geo
100
AcDbLine
10
-59.8948121623604
20
14.6181975520089
30
0.00000000000000
11
-59.8911454956937
21
14.6176804229936
31
0.00000000000000
  0
LINE
  5
F10500
330
F10501
100
AcDbEntity
8
Geo
100
AcDbLine
10
-59.8911454956937
20
14.6176804229936
30
0.00000000000000
11
-59.8874788290271
21
14.6170911503748
31
0.00000000000000
  0
LINE
  5
F10502
330
F10503
100
AcDbEntity
8
Geo
100
AcDbLine
10
-59.8874788290271
20
14.6170911503748
30
0.00000000000000
11
-59.8838121623604
21
14.6164305930968
31
0.00000000000000
  0
LINE
  5
F10504
330
F10505
100
AcDbEntity
8
Geo
100
AcDbLine
10
-59.8838121623604
20
14.6164305930968
30
0.00000000000000
11
-59.8801454956938
21
14.6156995886018
31
0.00000000000000
  0
LINE
  5
F10506
330
F10507
100
AcDbEntity
8
Geo
100
AcDbLine
10
-59.8801454956938
20
14.6156995886018
30
0.00000000000000
11
-59.8764788290271
21
14.6148989544012
31
0.00000000000000
  0
LINE
  5
F10508
330
F10509
100
AcDbEntity
8
Geo
100
AcDbLine
10
-59.8764788290271
20
14.6148989544012
30
0.00000000000000
11
-59.8728121623604
21
14.6140294895032
31
0.00000000000000
  0
LINE
  5
F1050A
330
F1050B
100
AcDbEntity
8
Geo
100
AcDbLine
10
-59.8728121623604
20
14.6140294895032
30
0.00000000000000
11
-59.8691454956938
21
14.6130919757100
31
0.00000000000000
  0
LINE
  5
F1050C
330
F1050D
100
AcDbEntity
8
Geo
100
AcDbLine
10
-59.8691454956938
20
14.6130919757100
30
0.00000000000000
11
-59.8654788290271
21
14.6120871787927
31
0.00000000000000
  0
LINE
  5
F1050E
330
F1050F
100
AcDbEntity
8
Geo
100
AcDbLine
10
-59.8654788290271
20
14.6120871787927
30
0.00000000000000
11
-59.8618121623604
21
14.6110158495528
31
0.00000000000000
  0
LINE
  5
F10510
330
F10511
100
AcDbEntity
8
Geo
100
AcDbLine
10
-59.8618121623604
20
14.6110158495528
30
0.00000000000000
11
-59.8581454956938
21
14.6098787247791
31
0.00000000000000
  0
LINE
  5
F10512
330
F10513
100
AcDbEntity
8
Geo
100
AcDbLine
10
-59.8581454956938
20
14.6098787247791
30
0.00000000000000
11
-59.8544788290271
21
14.6086765281054
31
0.00000000000000
  0
LINE
  5
F10514
330
F10515
100
AcDbEntity
8
Geo
100
AcDbLine
10
-59.8544788290271
20
14.6086765281054
30
0.00000000000000
11
-59.8508121623604
21
14.6074099707743
31
0.00000000000000
  0
LINE
  5
F10516
330
F10517
100
AcDbEntity
8
Geo
100
AcDbLine
10
-59.8508121623604
20
14.6074099707743
30
0.00000000000000
11
-59.8471454956938
21
14.6060963458889
31
0.00000000000000
  0
LINE
  5
F10518
330
F10519
100
AcDbEntity
8
Geo
100
AcDbLine
10
-59.8471454956938
20
14.6060963458889
30
0.00000000000000
11
-59.8434788290271
21
14.6047681795768
31
0.00000000000000
  0
LINE
  5
F1051A
330
F1051B
100
AcDbEntity
8
Geo
100
AcDbLine
10
-59.8434788290271
20
14.6047681795768
30
0.00000000000000
11
-59.8398121623604
21
14.6034263897914
31
0.00000000000000
  0
LINE
  5
F1051C
330
F1051D
100
AcDbEntity
8
Geo
100
AcDbLine
10
-59.8398121623604
20
14.6034263897914
30
0.00000000000000
11
-59.8361454956937
21
14.6020710727435
31
0.00000000000000
  0
LINE
  5
F1051E
330
F1051F
100
AcDbEntity
8
Geo
100
AcDbLine
10
-59.8361454956937
20
14.6020710727435
30
0.00000000000000
11
-59.8324788290271
21
14.6007023256136
31
0.00000000000000
  0
LINE
  5
F10520
330
F10521
100
AcDbEntity
8
Geo
100
AcDbLine
10
-59.8324788290271
20
14.6007023256136
30
0.00000000000000
11
-59.8288121623604
21
14.5993202465454
31
0.00000000000000
  0
LINE
  5
F10522
330
F10523
100
AcDbEntity
8
Geo
100
AcDbLine
10
-59.8288121623604
20
14.5993202465454
30
0.00000000000000
11
-59.8251454956938
21
14.5979249346385
31
0.00000000000000
  0
LINE
  5
F10524
330
F10525
100
AcDbEntity
8
Geo
100
AcDbLine
10
-59.8251454956938
20
14.5979249346385
30
0.00000000000000
11
-59.8214788290271
21
14.5965164899414
31
0.00000000000000
  0
LINE
  5
F10526
330
F10527
100
AcDbEntity
8
Geo
100
AcDbLine
10
-59.8214788290271
20
14.5965164899414
30
0.00000000000000
11
-59.8178121623604
21
14.5950950134442
31
0.00000000000000
  0
LINE
  5
F10528
330
F10529
100
AcDbEntity
8
Geo
100
AcDbLine
10
-59.8178121623604
20
14.5950950134442
30
0.00000000000000
11
-59.8141454956938
21
14.5936606070714
31
0.00000000000000
  0
LINE
  5
F1052A
330
F1052B
100
AcDbEntity
8
Geo
100
AcDbLine
10
-59.8141454956938
20
14.5936606070714
30
0.00000000000000
11
-59.8104788290271
21
14.5922133736745
31
0.00000000000000
  0
LINE
  5
F1052C
330
F1052D
100
AcDbEntity
8
Geo
100
AcDbLine
10
-59.8104788290271
20
14.5922133736745
30
0.00000000000000
11
-59.8068121623604
21
14.5907534170251
31
0.00000000000000
  0
LINE
  5
F1052E
330
F1052F
100
AcDbEntity
8
Geo
100
AcDbLine
10
-59.8068121623604
20
14.5907534170251
30
0.00000000000000
11
-59.8031454956938
21
14.5892808418067
31
0.00000000000000
  0
LINE
  5
F10530
330
F10531
100
AcDbEntity
8
Geo
100
AcDbLine
10
-59.8031454956938
20
14.5892808418067
30
0.00000000000000
11
-59.7994788290271
21
14.5877957536078
31
0.00000000000000
  0
LINE
  5
F10532
330
F10533
100
AcDbEntity
8
Geo
100
AcDbLine
10
-59.7994788290271
20
14.5877957536078
30
0.00000000000000
11
-59.7958121623604
21
14.5862982589141
31
0.00000000000000
  0
LINE
  5
F10534
330
F10535
100
AcDbEntity
8
Geo
100
AcDbLine
10
-59.7958121623604
20
14.5862982589141
30
0.00000000000000
11
-59.7921454956938
21
14.5847884651010
31
0.00000000000000
  0
LINE
  5
F10536
330
F10537
100
AcDbEntity
8
Geo
100
AcDbLine
10
-59.7921454956938
20
14.5847884651010
30
0.00000000000000
11
-59.7884788290271
21
14.5832664804255
31
0.00000000000000
  0
LINE
  5
F10538
330
F10539
100
AcDbEntity
8
Geo
100
AcDbLine
10
-59.7884788290271
20
14.5832664804255
30
0.00000000000000
11
-59.7848121623604
21
14.5817324140189
31
0.00000000000000
  0
LINE
  5
F1053A
330
F1053B
100
AcDbEntity
8
Geo
100
AcDbLine
10
-59.7848121623604
20
14.5817324140189
30
0.00000000000000
11
-59.7811454956937
21
14.5801863758788
31
0.00000000000000
  0
LINE
  5
F1053C
330
F1053D
100
AcDbEntity
8
Geo
100
AcDbLine
10
-59.7811454956937
20
14.5801863758788
30
0.00000000000000
11
-59.7774788290271
21
14.5786284768613
31
0.00000000000000
  0
LINE
  5
F1053E
330
F1053F
100
AcDbEntity
8
Geo
100
AcDbLine
10
-59.7774788290271
20
14.5786284768613
30
0.00000000000000
11
-59.7738121623604
21
14.5770588286727
31
0.00000000000000
  0
LINE
  5
F10540
330
F10541
100
AcDbEntity
8
Geo
100
AcDbLine
10
-59.7738121623604
20
14.5770588286727
30
0.00000000000000
11
-59.7701454956938
21
14.5754775438621
31
0.00000000000000
  0
LINE
  5
F10542
330
F10543
100
AcDbEntity
8
Geo
100
AcDbLine
10
-59.7701454956938
20
14.5754775438621
30
0.00000000000000
11
-59.7664788290271
21
14.5738847358126
31
0.00000000000000
  0
LINE
  5
F10544
330
F10545
100
AcDbEntity
8
Geo
100
AcDbLine
10
-59.7664788290271
20
14.5738847358126
30
0.00000000000000
11
-59.7628121623604
21
14.5722805187339
31
0.00000000000000
  0
LINE
  5
F10546
330
F10547
100
AcDbEntity
8
Geo
100
AcDbLine
10
-59.7628121623604
20
14.5722805187339
30
0.00000000000000
11
-59.7591454956938
21
14.5706650076536
31
0.00000000000000
  0
LINE
  5
F10548
330
F10549
100
AcDbEntity
8
Geo
100
AcDbLine
10
-59.7591454956938
20
14.5706650076536
30
0.00000000000000
11
-59.7554788290271
21
14.5690383184091
31
0.00000000000000
  0
LINE
  5
F1054A
330
F1054B
100
AcDbEntity
8
Geo
100
AcDbLine
10
-59.7554788290271
20
14.5690383184091
30
0.00000000000000
11
-59.7518121623604
21
14.5674005676393
31
0.00000000000000
  0
LINE
  5
F1054C
330
F1054D
100
AcDbEntity
8
Geo
100
AcDbLine
10
-59.7518121623604
20
14.5674005676393
30
0.00000000000000
11
-59.7481454956938
21
14.5657518727764
31
0.00000000000000
  0
LINE
  5
F1054E
330
F1054F
100
AcDbEntity
8
Geo
100
AcDbLine
10
-59.7481454956938
20
14.5657518727764
30
0.00000000000000
11
-59.7444788290271
21
14.5640923520371
31
0.00000000000000
  0
LINE
  5
F10550
330
F10551
100
AcDbEntity
8
Geo
100
AcDbLine
10
-59.7444788290271
20
14.5640923520371
30
0.00000000000000
11
-59.7408121623604
21
14.5624221244146
31
0.00000000000000
  0
LINE
  5
F10552
330
F10553
100
AcDbEntity
8
Geo
100
AcDbLine
10
-59.7408121623604
20
14.5624221244146
30
0.00000000000000
11
-59.7371454956938
21
14.5607413096696
31
0.00000000000000
  0
LINE
  5
F10554
330
F10555
100
AcDbEntity
8
Geo
100
AcDbLine
10
-59.7371454956938
20
14.5607413096696
30
0.00000000000000
11
-59.7334788290271
21
14.5590500283221
31
0.00000000000000
  0
LINE
  5
F10556
330
F10557
100
AcDbEntity
8
Geo
100
AcDbLine
10
-59.7334788290271
20
14.5590500283221
30
0.00000000000000
11
-59.7298121623604
21
14.5573484016424
31
0.00000000000000
  0
LINE
  5
F10558
330
F10559
100
AcDbEntity
8
Geo
100
AcDbLine
10
-59.7298121623604
20
14.5573484016424
30
0.00000000000000
11
-59.7261454956937
21
14.5556365516429
31
0.00000000000000
  0
LINE
  5
F1055A
330
F1055B
100
AcDbEntity
8
Geo
100
AcDbLine
10
-59.7261454956937
20
14.5556365516429
30
0.00000000000000
11
-59.7224788290271
21
14.5539146010686
31
0.00000000000000
  0
LINE
  5
F1055C
330
F1055D
100
AcDbEntity
8
Geo
100
AcDbLine
10
-59.7224788290271
20
14.5539146010686
30
0.00000000000000
11
-59.7188121623604
21
14.5521826733892
31
0.00000000000000
  0
LINE
  5
F1055E
330
F1055F
100
AcDbEntity
8
Geo
100
AcDbLine
10
-59.7188121623604
20
14.5521826733892
30
0.00000000000000
11
-59.7151454956938
21
14.5504408927894
31
0.00000000000000
  0
LINE
  5
F10560
330
F10561
100
AcDbEntity
8
Geo
100
AcDbLine
10
-59.7151454956938
20
14.5504408927894
30
0.00000000000000
11
-59.7114788290271
21
14.5486893841608
31
0.00000000000000
  0
LINE
  5
F10562
330
F10563
100
AcDbEntity
8
Geo
100
AcDbLine
10
-59.7114788290271
20
14.5486893841608
30
0.00000000000000
11
-59.7078121623604
21
14.5469282730921
31
0.00000000000000
  0
LINE
  5
F10564
330
F10565
100
AcDbEntity
8
Geo
100
AcDbLine
10
-59.7078121623604
20
14.5469282730921
30
0.00000000000000
11
-59.7041454956938
21
14.5451576858609
31
0.00000000000000
  0
LINE
  5
F10566
330
F10567
100
AcDbEntity
8
Geo
100
AcDbLine
10
-59.7041454956938
20
14.5451576858609
30
0.00000000000000
11
-59.7004788290271
21
14.5433777494240
31
0.00000000000000
  0
LINE
  5
F10568
330
F10569
100
AcDbEntity
8
Geo
100
AcDbLine
10
-59.7004788290271
20
14.5433777494240
30
0.00000000000000
11
-59.6968121623604
21
14.5415885914086
31
0.00000000000000
  0
LINE
  5
F1056A
330
F1056B
100
AcDbEntity
8
Geo
100
AcDbLine
10
-59.6968121623604
20
14.5415885914086
30
0.00000000000000
11
-59.6931454956938
21
14.5397903401034
31
0.00000000000000
  0
LINE
  5
F1056C
330
F1056D
100
AcDbEntity
8
Geo
100
AcDbLine
10
-59.6931454956938
20
14.5397903401034
30
0.00000000000000
11
-59.6894788290271
21
14.5379831244487
31
0.00000000000000
  0
LINE
  5
F1056E
330
F1056F
100
AcDbEntity
8
Geo
100
AcDbLine
10
-59.6894788290271
20
14.5379831244487
30
0.00000000000000
11
-59.6858121623604
21
14.5361670740280
31
0.00000000000000
  0
LINE
  5
F10570
330
F10571
100
AcDbEntity
8
Geo
100
AcDbLine
10
-59.6858121623604
20
14.5361670740280
30
0.00000000000000
11
-59.6821454956938
21
14.5343423190578
31
0.00000000000000
  0
LINE
  5
F10572
330
F10573
100
AcDbEntity
8
Geo
100
AcDbLine
10
-59.6821454956938
20
14.5343423190578
30
0.00000000000000
11
-59.6784788290271
21
14.5325089903792
31
0.00000000000000
  0
LINE
  5
F10574
330
F10575
100
AcDbEntity
8
Geo
100
AcDbLine
10
-59.6784788290271
20
14.5325089903792
30
0.00000000000000
11
-59.6748121623604
21
14.5306672194479
31
0.00000000000000
  0
LINE
  5
F10576
330
F10577
100
AcDbEntity
8
Geo
100
AcDbLine
10
-59.6748121623604
20
14.5306672194479
30
0.00000000000000
11
-59.6711454956938
21
14.5288171383247
31
0.00000000000000
  0
LINE
  5
F10578
330
F10579
100
AcDbEntity
8
Geo
100
AcDbLine
10
-59.6711454956938
20
14.5288171383247
30
0.00000000000000
11
-59.6674788290271
21
14.5269588796667
31
0.00000000000000
  0
LINE
  5
F1057A
330
F1057B
100
AcDbEntity
8
Geo
100
AcDbLine
10
-59.6674788290271
20
14.5269588796667
30
0.00000000000000
11
-59.6638121623604
21
14.5250925767170
31
0.00000000000000
  0
LINE
  5
F1057C
330
F1057D
100
AcDbEntity
8
Geo
100
AcDbLine
10
-59.6638121623604
20
14.5250925767170
30
0.00000000000000
11
-59.6601454956938
21
14.5232183632956
31
0.00000000000000
  0
LINE
  5
F1057E
330
F1057F
100
AcDbEntity
8
Geo
100
AcDbLine
10
-59.6601454956938
20
14.5232183632956
30
0.00000000000000
11
-59.6564788290271
21
14.5213363737899
31
0.00000000000000
  0
LINE
  5
F10580
330
F10581
100
AcDbEntity
8
Geo
100
AcDbLine
10
-59.6564788290271
20
14.5213363737899
30
0.00000000000000
11
-59.6528121623604
21
14.5194467431445
31
0.00000000000000
  0
LINE
  5
F10582
330
F10583
100
AcDbEntity
8
Geo
100
AcDbLine
10
-59.6528121623604
20
14.5194467431445
30
0.00000000000000
11
-59.6491454956938
21
14.5175496068523
31
0.00000000000000
  0
LINE
  5
F10584
330
F10585
100
AcDbEntity
8
Geo
100
AcDbLine
10
-59.6491454956938
20
14.5175496068523
30
0.00000000000000
11
-59.6454788290271
21
14.5156451009442
31
0.00000000000000
  0
LINE
  5
F10586
330
F10587
100
AcDbEntity
8
Geo
100
AcDbLine
10
-59.6454788290271
20
14.5156451009442
30
0.00000000000000
11
-59.6418121623604
21
14.5137333619793
31
0.00000000000000
  0
LINE
  5
F10588
330
F10589
100
AcDbEntity
8
Geo
100
AcDbLine
10
-59.6418121623604
20
14.5137333619793
30
0.00000000000000
11
-59.6381454956938
21
14.5118145270357
31
0.00000000000000
  0
LINE
  5
F1058A
330
F1058B
100
AcDbEntity
8
Geo
100
AcDbLine
10
-59.6381454956938
20
14.5118145270357
30
0.00000000000000
11
-59.6344788290271
21
14.5098887337001
31
0.00000000000000
  0
LINE
  5
F1058C
330
F1058D
100
AcDbEntity
8
Geo
100
AcDbLine
10
-59.6344788290271
20
14.5098887337001
30
0.00000000000000
11
-59.6308121623604
21
14.5079561200582
31
0.00000000000000
  0
LINE
  5
F1058E
330
F1058F
100
AcDbEntity
8
Geo
100
AcDbLine
10
-59.6308121623604
20
14.5079561200582
30
0.00000000000000
11
-59.6271454956938
21
14.5060168246848
31
0.00000000000000
  0
LINE
  5
F10590
330
F10591
100
AcDbEntity
8
Geo
100
AcDbLine
10
-59.6271454956938
20
14.5060168246848
30
0.00000000000000
11
-59.6234788290271
21
14.5040709866336
31
0.00000000000000
  0
LINE
  5
F10592
330
F10593
100
AcDbEntity
8
Geo
100
AcDbLine
10
-59.6234788290271
20
14.5040709866336
30
0.00000000000000
11
-59.6198121623604
21
14.5021187454277
31
0.00000000000000
  0
LINE
  5
F10594
330
F10595
100
AcDbEntity
8
Geo
100
AcDbLine
10
-59.6198121623604
20
14.5021187454277
30
0.00000000000000
11
-59.6161454956938
21
14.5001602410490
31
0.00000000000000
  0
LINE
  5
F10596
330
F10597
100
AcDbEntity
8
Geo
100
AcDbLine
10
-59.6161454956938
20
14.5001602410490
30
0.00000000000000
11
-59.6124788290271
21
14.4981956139289
31
0.00000000000000
  0
LINE
  5
F10598
330
F10599
100
AcDbEntity
8
Geo
100
AcDbLine
10
-59.6124788290271
20
14.4981956139289
30
0.00000000000000
11
-59.6088121623604
21
14.4962250049375
31
0.00000000000000
  0
LINE
  5
F1059A
330
F1059B
100
AcDbEntity
8
Geo
100
AcDbLine
10
-59.6088121623604
20
14.4962250049375
30
0.00000000000000
11
-59.6051454956938
21
14.4942485553738
31
0.00000000000000
  0
LINE
  5
F1059C
330
F1059D
100
AcDbEntity
8
Geo
100
AcDbLine
10
-59.6051454956938
20
14.4942485553738
30
0.00000000000000
11
-59.6014788290271
21
14.4922664069559
31
0.00000000000000
  0
LINE
  5
F1059E
330
F1059F
100
AcDbEntity
8
Geo
100
AcDbLine
10
-59.6014788290271
20
14.4922664069559
30
0.00000000000000
11
-59.5978121623604
21
14.4902787018103
31
0.00000000000000
  0
LINE
  5
F105A0
330
F105A1
100
AcDbEntity
8
Geo
100
AcDbLine
10
-59.5978121623604
20
14.4902787018103
30
0.00000000000000
11
-59.5941454956938
21
14.4882855824618
31
0.00000000000000
  0
LINE
  5
F105A2
330
F105A3
100
AcDbEntity
8
Geo
100
AcDbLine
10
-59.5941454956938
20
14.4882855824618
30
0.00000000000000
11
-59.5904788290271
21
14.4862871918238
31
0.00000000000000
  0
LINE
  5
F105A4
330
F105A5
100
AcDbEntity
8
Geo
100
AcDbLine
10
-59.5904788290271
20
14.4862871918238
30
0.00000000000000
11
-59.5868121623604
21
14.4842836731873
31
0.00000000000000
  0
LINE
  5
F105A6
330
F105A7
100
AcDbEntity
8
Geo
100
AcDbLine
10
-59.5868121623604
20
14.4842836731873
30
0.00000000000000
11
-59.5831454956937
21
14.4822751702112
31
0.00000000000000
  0
LINE
  5
F105A8
330
F105A9
100
AcDbEntity
8
Geo
100
AcDbLine
10
-59.5831454956937
20
14.4822751702112
30
0.00000000000000
11
-59.5794788290271
21
14.4802618269118
31
0.00000000000000
  0
LINE
  5
F105AA
330
F105AB
100
AcDbEntity
8
Geo
100
AcDbLine
10
-59.5794788290271
20
14.4802618269118
30
0.00000000000000
11
-59.5758121623604
21
14.4782437876524
31
0.00000000000000
  0
LINE
  5
F105AC
330
F105AD
100
AcDbEntity
8
Geo
100
AcDbLine
10
-59.5758121623604
20
14.4782437876524
30
0.00000000000000
11
-59.5721454956938
21
14.4762211971329
31
0.00000000000000
  0
LINE
  5
F105AE
330
F105AF
100
AcDbEntity
8
Geo
100
AcDbLine
10
-59.5721454956938
20
14.4762211971329
30
0.00000000000000
11
-59.5684788290271
21
14.4741942003798
31
0.00000000000000
  0
LINE
  5
F105B0
330
F105B1
100
AcDbEntity
8
Geo
100
AcDbLine
10
-59.5684788290271
20
14.4741942003798
30
0.00000000000000
11
-59.5648121623604
21
14.4721629427353
31
0.00000000000000
  0
LINE
  5
F105B2
330
F105B3
100
AcDbEntity
8
Geo
100
AcDbLine
10
-59.5648121623604
20
14.4721629427353
30
0.00000000000000
11
-59.5611454956938
21
14.4701275698473
31
0.00000000000000
  0
LINE
  5
F105B4
330
F105B5
100
AcDbEntity
8
Geo
100
AcDbLine
10
-59.5611454956938
20
14.4701275698473
30
0.00000000000000
11
-59.5574788290271
21
14.4680882276587
31
0.00000000000000
  0
LINE
  5
F105B6
330
F105B7
100
AcDbEntity
8
Geo
100
AcDbLine
10
-59.5574788290271
20
14.4680882276587
30
0.00000000000000
11
-59.5538121623604
21
14.4660450623970
31
0.00000000000000
  0
LINE
  5
F105B8
330
F105B9
100
AcDbEntity
8
Geo
100
AcDbLine
10
-59.5538121623604
20
14.4660450623970
30
0.00000000000000
11
-59.5501454956938
21
14.4639982205639
31
0.00000000000000
  0
LINE
  5
F105BA
330
F105BB
100
AcDbEntity
8
Geo
100
AcDbLine
10
-59.5501454956938
20
14.4639982205639
30
0.00000000000000
11
-59.5464788290271
21
14.4619478489245
31
0.00000000000000
  0
LINE
  5
F105BC
330
F105BD
100
AcDbEntity
8
Geo
100
AcDbLine
10
-59.5464788290271
20
14.4619478489245
30
0.00000000000000
11
-59.5428121623604
21
14.4598940944973
31
0.00000000000000
  0
LINE
  5
F105BE
330
F105BF
100
AcDbEntity
8
Geo
100
AcDbLine
10
-59.5428121623604
20
14.4598940944973
30
0.00000000000000
11
-59.5391454956938
21
14.4578371045432
31
0.00000000000000
  0
LINE
  5
F105C0
330
F105C1
100
AcDbEntity
8
Geo
100
AcDbLine
10
-59.5391454956938
20
14.4578371045432
30
0.00000000000000
11
-59.5354788290271
21
14.4557770265551
31
0.00000000000000
  0
LINE
  5
F105C2
330
F105C3
100
AcDbEntity
8
Geo
100
AcDbLine
10
-59.5354788290271
20
14.4557770265551
30
0.00000000000000
11
-59.5318121623604
21
14.4537140082473
31
0.00000000000000
  0
LINE
  5
F105C4
330
F105C5
100
AcDbEntity
8
Geo
100
AcDbLine
10
-59.5318121623604
20
14.4537140082473
30
0.00000000000000
11
-59.5281454956937
21
14.4516481975450
31
0.00000000000000
  0
LINE
  5
F105C6
330
F105C7
100
AcDbEntity
8
Geo
100
AcDbLine
10
-59.5281454956937
20
14.4516481975450
30
0.00000000000000
11
-59.5244788290271
21
14.4495797425736
31
0.00000000000000
  0
LINE
  5
F105C8
330
F105C9
100
AcDbEntity
8
Geo
100
AcDbLine
10
-59.5244788290271
20
14.4495797425736
30
0.00000000000000
11
-59.5208121623604
21
14.4475087916482
31
0.00000000000000
  0
LINE
  5
F105CA
330
F105CB
100
AcDbEntity
8
Geo
100
AcDbLine
10
-59.5208121623604
20
14.4475087916482
30
0.00000000000000
11
-59.5171454956938
21
14.4454354932626
31
0.00000000000000
  0
LINE
  5
F105CC
330
F105CD
100
AcDbEntity
8
Geo
100
AcDbLine
10
-59.5171454956938
20
14.4454354932626
30
0.00000000000000
11
-59.5134788290271
21
14.4433599960791
31
0.00000000000000
  0
LINE
  5
F105CE
330
F105CF
100
AcDbEntity
8
Geo
100
AcDbLine
10
-59.5134788290271
20
14.4433599960791
30
0.00000000000000
11
-59.5098121623604
21
14.4412824489177
31
0.00000000000000
  0
LINE
  5
F105D0
330
F105D1
100
AcDbEntity
8
Geo
100
AcDbLine
10
-59.5098121623604
20
14.4412824489177
30
0.00000000000000
11
-59.5061454956938
21
14.4392030007454
31
0.00000000000000
  0
LINE
  5
F105D2
330
F105D3
100
AcDbEntity
8
Geo
100
AcDbLine
10
-59.5061454956938
20
14.4392030007454
30
0.00000000000000
11
-59.5024788290271
21
14.4371218006653
31
0.00000000000000
  0
LINE
  5
F105D4
330
F105D5
100
AcDbEntity
8
Geo
100
AcDbLine
10
-59.5024788290271
20
14.4371218006653
30
0.00000000000000
11
-59.4988121623604
21
14.4350389979064
31
0.00000000000000
  0
LINE
  5
F105D6
330
F105D7
100
AcDbEntity
8
Geo
100
AcDbLine
10
-59.4988121623604
20
14.4350389979064
30
0.00000000000000
11
-59.4951454956937
21
14.4329547418124
31
0.00000000000000
  0
LINE
  5
F105D8
330
F105D9
100
AcDbEntity
8
Geo
100
AcDbLine
10
-59.4951454956937
20
14.4329547418124
30
0.00000000000000
11
-59.4914788290271
21
14.4308691818313
31
0.00000000000000
  0
LINE
  5
F105DA
330
F105DB
100
AcDbEntity
8
Geo
100
AcDbLine
10
-59.4914788290271
20
14.4308691818313
30
0.00000000000000
11
-59.4878121623604
21
14.4287824675046
31
0.00000000000000
  0
LINE
  5
F105DC
330
F105DD
100
AcDbEntity
8
Geo
100
AcDbLine
10
-59.4878121623604
20
14.4287824675046
30
0.00000000000000
11
-59.4841454956938
21
14.4266947484565
31
0.00000000000000
  0
LINE
  5
F105DE
330
F105DF
100
AcDbEntity
8
Geo
100
AcDbLine
10
-59.4841454956938
20
14.4266947484565
30
0.00000000000000
11
-59.4804788290271
21
14.4246061743833
31
0.00000000000000
  0
LINE
  5
F105E0
330
F105E1
100
AcDbEntity
8
Geo
100
AcDbLine
10
-59.4804788290271
20
14.4246061743833
30
0.00000000000000
11
-59.4768121623604
21
14.4225168950427
31
0.00000000000000
  0
LINE
  5
F105E2
330
F105E3
100
AcDbEntity
8
Geo
100
AcDbLine
10
-59.4768121623604
20
14.4225168950427
30
0.00000000000000
11
-59.4731454956937
21
14.4204270602428
31
0.00000000000000
  0
LINE
  5
F105E4
330
F105E5
100
AcDbEntity
8
Geo
100
AcDbLine
10
-59.4731454956937
20
14.4204270602428
30
0.00000000000000
11
-59.4694788290271
21
14.4183368198316
31
0.00000000000000
  0
LINE
  5
F105E6
330
F105E7
100
AcDbEntity
8
Geo
100
AcDbLine
10
-59.4694788290271
20
14.4183368198316
30
0.00000000000000
11
-59.4658121623604
21
14.4162463236861
31
0.00000000000000
  0
LINE
  5
F105E8
330
F105E9
100
AcDbEntity
8
Geo
100
AcDbLine
10
-59.4658121623604
20
14.4162463236861
30
0.00000000000000
11
-59.4621454956938
21
14.4141557217019
31
0.00000000000000
  0
LINE
  5
F105EA
330
F105EB
100
AcDbEntity
8
Geo
100
AcDbLine
10
-59.4621454956938
20
14.4141557217019
30
0.00000000000000
11
-59.4584788290271
21
14.4120651637819
31
0.00000000000000
  0
LINE
  5
F105EC
330
F105ED
100
AcDbEntity
8
Geo
100
AcDbLine
10
-59.4584788290271
20
14.4120651637819
30
0.00000000000000
11
-59.4548121623604
21
14.4099747998260
31
0.00000000000000
  0
LINE
  5
F105EE
330
F105EF
100
AcDbEntity
8
Geo
100
AcDbLine
10
-59.4548121623604
20
14.4099747998260
30
0.00000000000000
11
-59.4511454956938
21
14.4078847797201
31
0.00000000000000
  0
LINE
  5
F105F0
330
F105F1
100
AcDbEntity
8
Geo
100
AcDbLine
10
-59.4511454956938
20
14.4078847797201
30
0.00000000000000
11
-59.4474788290271
21
14.4057952533254
31
0.00000000000000
  0
LINE
  5
F105F2
330
F105F3
100
AcDbEntity
8
Geo
100
AcDbLine
10
-59.4474788290271
20
14.4057952533254
30
0.00000000000000
11
-59.4438121623604
21
14.4037063704680
31
0.00000000000000
  0
LINE
  5
F105F4
330
F105F5
100
AcDbEntity
8
Geo
100
AcDbLine
10
-59.4438121623604
20
14.4037063704680
30
0.00000000000000
11
-59.4401454956937
21
14.4016182809275
31
0.00000000000000
  0
LINE
  5
F105F6
330
F105F7
100
AcDbEntity
8
Geo
100
AcDbLine
10
-59.4401454956937
20
14.4016182809275
30
0.00000000000000
11
-59.4364788290271
21
14.3995311344267
31
0.00000000000000
  0
LINE
  5
F105F8
330
F105F9
100
AcDbEntity
8
Geo
100
AcDbLine
10
-59.4364788290271
20
14.3995311344267
30
0.00000000000000
11
-59.4328121623604
21
14.3974450806210
31
0.00000000000000
  0
LINE
  5
F105FA
330
F105FB
100
AcDbEntity
8
Geo
100
AcDbLine
10
-59.4328121623604
20
14.3974450806210
30
0.00000000000000
11
-59.4291454956938
21
14.3953602690872
31
0.00000000000000
  0
LINE
  5
F105FC
330
F105FD
100
AcDbEntity
8
Geo
100
AcDbLine
10
-59.4291454956938
20
14.3953602690872
30
0.00000000000000
11
-59.4254788290271
21
14.3932768493131
31
0.00000000000000
  0
LINE
  5
F105FE
330
F105FF
100
AcDbEntity
8
Geo
100
AcDbLine
10
-59.4254788290271
20
14.3932768493131
30
0.00000000000000
11
-59.4218121623604
21
14.3911949706868
31
0.00000000000000
  0
LINE
  5
F10600
330
F10601
100
AcDbEntity
8
Geo
100
AcDbLine
10
-59.4218121623604
20
14.3911949706868
30
0.00000000000000
11
-59.4181454956938
21
14.3891147824858
31
0.00000000000000
  0
LINE
  5
F10602
330
F10603
100
AcDbEntity
8
Geo
100
AcDbLine
10
-59.4181454956938
20
14.3891147824858
30
0.00000000000000
11
-59.4144788290271
21
14.3870364338663
31
0.00000000000000
  0
LINE
  5
F10604
330
F10605
100
AcDbEntity
8
Geo
100
AcDbLine
10
-59.4144788290271
20
14.3870364338663
30
0.00000000000000
11
-59.4108121623604
21
14.3849600738528
31
0.00000000000000
  0
LINE
  5
F10606
330
F10607
100
AcDbEntity
8
Geo
100
AcDbLine
10
-59.4108121623604
20
14.3849600738528
30
0.00000000000000
11
-59.4071454956937
21
14.3828858513271
31
0.00000000000000
  0
LINE
  5
F10608
330
F10609
100
AcDbEntity
8
Geo
100
AcDbLine
10
-59.4071454956937
20
14.3828858513271
30
0.00000000000000
11
-59.4034788290271
21
14.3808139150177
31
0.00000000000000
  0
LINE
  5
F1060A
330
F1060B
100
AcDbEntity
8
Geo
100
AcDbLine
10
-59.4034788290271
20
14.3808139150177
30
0.00000000000000
11
-59.3998121623604
21
14.3787444134893
31
0.00000000000000
  0
LINE
  5
F1060C
330
F1060D
100
AcDbEntity
8
Geo
100
AcDbLine
10
-59.3998121623604
20
14.3787444134893
30
0.00000000000000
11
-59.3961454956938
21
14.3766774951319
31
0.00000000000000
  0
LINE
  5
F1060E
330
F1060F
100
AcDbEntity
8
Geo
100
AcDbLine
10
-59.3961454956938
20
14.3766774951319
30
0.00000000000000
11
-59.3924788290271
21
14.3746133081503
31
0.00000000000000
  0
LINE
  5
F10610
330
F10611
100
AcDbEntity
8
Geo
100
AcDbLine
10
-59.3924788290271
20
14.3746133081503
30
0.00000000000000
11
-59.3888121623604
21
14.3725520005535
31
0.00000000000000
  0
LINE
  5
F10612
330
F10613
100
AcDbEntity
8
Geo
100
AcDbLine
10
-59.3888121623604
20
14.3725520005535
30
0.00000000000000
11
-59.3851454956937
21
14.3704937201439
31
0.00000000000000
  0
LINE
  5
F10614
330
F10615
100
AcDbEntity
8
Geo
100
AcDbLine
10
-59.3851454956937
20
14.3704937201439
30
0.00000000000000
11
-59.3814788290271
21
14.3684386145072
31
0.00000000000000
  0
LINE
  5
F10616
330
F10617
100
AcDbEntity
8
Geo
100
AcDbLine
10
-59.3814788290271
20
14.3684386145072
30
0.00000000000000
11
-59.3778121623604
21
14.3663868310009
31
0.00000000000000
  0
LINE
  5
F10618
330
F10619
100
AcDbEntity
8
Geo
100
AcDbLine
10
-59.3778121623604
20
14.3663868310009
30
0.00000000000000
11
-59.3741454956938
21
14.3643385167448
31
0.00000000000000
  0
LINE
  5
F1061A
330
F1061B
100
AcDbEntity
8
Geo
100
AcDbLine
10
-59.3741454956938
20
14.3643385167448
30
0.00000000000000
11
-59.3704788290271
21
14.3622938186096
31
0.00000000000000
  0
LINE
  5
F1061C
330
F1061D
100
AcDbEntity
8
Geo
100
AcDbLine
10
-59.3704788290271
20
14.3622938186096
30
0.00000000000000
11
-59.3668121623604
21
14.3602528832070
31
0.00000000000000
  0
LINE
  5
F1061E
330
F1061F
100
AcDbEntity
8
Geo
100
AcDbLine
10
-59.3668121623604
20
14.3602528832070
30
0.00000000000000
11
-59.3631454956938
21
14.3582158568787
31
0.00000000000000
  0
LINE
  5
F10620
330
F10621
100
AcDbEntity
8
Geo
100
AcDbLine
10
-59.3631454956938
20
14.3582158568787
30
0.00000000000000
11
-59.3594788290271
21
14.3561828856861
31
0.00000000000000
  0
LINE
  5
F10622
330
F10623
100
AcDbEntity
8
Geo
100
AcDbLine
10
-59.3594788290271
20
14.3561828856861
30
0.00000000000000
11
-59.3558121623604
21
14.3541541153999
31
0.00000000000000
  0
LINE
  5
F10624
330
F10625
100
AcDbEntity
8
Geo
100
AcDbLine
10
-59.3558121623604
20
14.3541541153999
30
0.00000000000000
11
-59.3521454956937
21
14.3521296914897
31
0.00000000000000
  0
LINE
  5
F10626
330
F10627
100
AcDbEntity
8
Geo
100
AcDbLine
10
-59.3521454956937
20
14.3521296914897
30
0.00000000000000
11
-59.3484788290271
21
14.3501097591132
31
0.00000000000000
  0
LINE
  5
F10628
330
F10629
100
AcDbEntity
8
Geo
100
AcDbLine
10
-59.3484788290271
20
14.3501097591132
30
0.00000000000000
11
-59.3448121623604
21
14.3480944631061
31
0.00000000000000
  0
LINE
  5
F1062A
330
F1062B
100
AcDbEntity
8
Geo
100
AcDbLine
10
-59.3448121623604
20
14.3480944631061
30
0.00000000000000
11
-59.3411454956938
21
14.3460839479720
31
0.00000000000000
  0
LINE
  5
F1062C
330
F1062D
100
AcDbEntity
8
Geo
100
AcDbLine
10
-59.3411454956938
20
14.3460839479720
30
0.00000000000000
11
-59.3374788290271
21
14.3440783578711
31
0.00000000000000
  0
LINE
  5
F1062E
330
F1062F
100
AcDbEntity
8
Geo
100
AcDbLine
10
-59.3374788290271
20
14.3440783578711
30
0.00000000000000
11
-59.3338121623604
21
14.3420778366110
31
0.00000000000000
  0
LINE
  5
F10630
330
F10631
100
AcDbEntity
8
Geo
100
AcDbLine
10
-59.3338121623604
20
14.3420778366110
30
0.00000000000000
11
-59.3301454956937
21
14.3400825276355
31
0.00000000000000
  0
LINE
  5
F10632
330
F10633
100
AcDbEntity
8
Geo
100
AcDbLine
10
-59.3301454956937
20
14.3400825276355
30
0.00000000000000
11
-59.3264788290271
21
14.3380925740149
31
0.00000000000000
  0
LINE
  5
F10634
330
F10635
100
AcDbEntity
8
Geo
100
AcDbLine
10
-59.3264788290271
20
14.3380925740149
30
0.00000000000000
11
-59.3228121623604
21
14.3361081184353
31
0.00000000000000
  0
LINE
  5
F10636
330
F10637
100
AcDbEntity
8
Geo
100
AcDbLine
10
-59.3228121623604
20
14.3361081184353
30
0.00000000000000
11
-59.3191454956937
21
14.3341293031887
31
0.00000000000000
  0
LINE
  5
F10638
330
F10639
100
AcDbEntity
8
Geo
100
AcDbLine
10
-59.3191454956937
20
14.3341293031887
30
0.00000000000000
11
-59.3154788290271
21
14.3321562701627
31
0.00000000000000
  0
LINE
  5
F1063A
330
F1063B
100
AcDbEntity
8
Geo
100
AcDbLine
10
-59.3154788290271
20
14.3321562701627
30
0.00000000000000
11
-59.3118121623604
21
14.3301891608301
31
0.00000000000000
  0
LINE
  5
F1063C
330
F1063D
100
AcDbEntity
8
Geo
100
AcDbLine
10
-59.3118121623604
20
14.3301891608301
30
0.00000000000000
11
-59.3081454956938
21
14.3282281162391
31
0.00000000000000
  0
LINE
  5
F1063E
330
F1063F
100
AcDbEntity
8
Geo
100
AcDbLine
10
-59.3081454956938
20
14.3282281162391
30
0.00000000000000
11
-59.3044788290271
21
14.3262732770031
31
0.00000000000000
  0
LINE
  5
F10640
330
F10641
100
AcDbEntity
8
Geo
100
AcDbLine
10
-59.3044788290271
20
14.3262732770031
30
0.00000000000000
11
-59.3008121623604
21
14.3243247832905
31
0.00000000000000
  0
LINE
  5
F10642
330
F10643
100
AcDbEntity
8
Geo
100
AcDbLine
10
-59.3008121623604
20
14.3243247832905
30
0.00000000000000
11
-59.2971454956937
21
14.3223827748145
31
0.00000000000000
  0
LINE
  5
F10644
330
F10645
100
AcDbEntity
8
Geo
100
AcDbLine
10
-59.2971454956937
20
14.3223827748145
30
0.00000000000000
11
-59.2934788290271
21
14.3204473908237
31
0.00000000000000
  0
LINE
  5
F10646
330
F10647
100
AcDbEntity
8
Geo
100
AcDbLine
10
-59.2934788290271
20
14.3204473908237
30
0.00000000000000
11
-59.2898121623604
21
14.3185187700913
31
0.00000000000000
  0
LINE
  5
F10648
330
F10649
100
AcDbEntity
8
Geo
100
AcDbLine
10
-59.2898121623604
20
14.3185187700913
30
0.00000000000000
11
-59.2861454956938
21
14.3165970509058
31
0.00000000000000
  0
LINE
  5
F1064A
330
F1064B
100
AcDbEntity
8
Geo
100
AcDbLine
10
-59.2861454956938
20
14.3165970509058
30
0.00000000000000
11
-59.2824788290271
21
14.3146823710607
31
0.00000000000000
  0
LINE
  5
F1064C
330
F1064D
100
AcDbEntity
8
Geo
100
AcDbLine
10
-59.2824788290271
20
14.3146823710607
30
0.00000000000000
11
-59.2788121623604
21
14.3127748678449
31
0.00000000000000
  0
LINE
  5
F1064E
330
F1064F
100
AcDbEntity
8
Geo
100
AcDbLine
10
-59.2788121623604
20
14.3127748678449
30
0.00000000000000
11
-59.2751454956937
21
14.3108746780326
31
0.00000000000000
  0
LINE
  5
F10650
330
F10651
100
AcDbEntity
8
Geo
100
AcDbLine
10
-59.2751454956937
20
14.3108746780326
30
0.00000000000000
11
-59.2714788290271
21
14.3089819378736
31
0.00000000000000
  0
LINE
  5
F10652
330
F10653
100
AcDbEntity
8
Geo
100
AcDbLine
10
-59.2714788290271
20
14.3089819378736
30
0.00000000000000
11
-59.2678121623604
21
14.3070967830836
31
0.00000000000000
  0
LINE
  5
F10654
330
F10655
100
AcDbEntity
8
Geo
100
AcDbLine
10
-59.2678121623604
20
14.3070967830836
30
0.00000000000000
11
-59.2641454956937
21
14.3052193488344
31
0.00000000000000
  0
LINE
  5
F10656
330
F10657
100
AcDbEntity
8
Geo
100
AcDbLine
10
-59.2641454956937
20
14.3052193488344
30
0.00000000000000
11
-59.2604788290271
21
14.3033497697441
31
0.00000000000000
  0
LINE
  5
F10658
330
F10659
100
AcDbEntity
8
Geo
100
AcDbLine
10
-59.2604788290271
20
14.3033497697441
30
0.00000000000000
11
-59.2568121623604
21
14.3014881798677
31
0.00000000000000
  0
LINE
  5
F1065A
330
F1065B
100
AcDbEntity
8
Geo
100
AcDbLine
10
-59.2568121623604
20
14.3014881798677
30
0.00000000000000
11
-59.2531454956938
21
14.2996347126873
31
0.00000000000000
  0
LINE
  5
F1065C
330
F1065D
100
AcDbEntity
8
Geo
100
AcDbLine
10
-59.2531454956938
20
14.2996347126873
30
0.00000000000000
11
-59.2494788290271
21
14.2977895011025
31
0.00000000000000
  0
LINE
  5
F1065E
330
F1065F
100
AcDbEntity
8
Geo
100
AcDbLine
10
-59.2494788290271
20
14.2977895011025
30
0.00000000000000
11
-59.2458121623604
21
14.2959526774211
31
0.00000000000000
  0
LINE
  5
F10660
330
F10661
100
AcDbEntity
8
Geo
100
AcDbLine
10
-59.2458121623604
20
14.2959526774211
30
0.00000000000000
11
-59.2421454956937
21
14.2941243733493
31
0.00000000000000
  0
LINE
  5
F10662
330
F10663
100
AcDbEntity
8
Geo
100
AcDbLine
10
-59.2421454956937
20
14.2941243733493
30
0.00000000000000
11
-59.2384788290271
21
14.2923047199825
31
0.00000000000000
  0
LINE
  5
F10664
330
F10665
100
AcDbEntity
8
Geo
100
AcDbLine
10
-59.2384788290271
20
14.2923047199825
30
0.00000000000000
11
-59.2348121623604
21
14.2904938477959
31
0.00000000000000
  0
LINE
  5
F10666
330
F10667
100
AcDbEntity
8
Geo
100
AcDbLine
10
-59.2348121623604
20
14.2904938477959
30
0.00000000000000
11
-59.2311454956937
21
14.2886918866349
31
0.00000000000000
  0
LINE
  5
F10668
330
F10669
100
AcDbEntity
8
Geo
100
AcDbLine
10
-59.2311454956937
20
14.2886918866349
30
0.00000000000000
11
-59.2274788290271
21
14.2868989657060
31
0.00000000000000
  0
LINE
  5
F1066A
330
F1066B
100
AcDbEntity
8
Geo
100
AcDbLine
10
-59.2274788290271
20
14.2868989657060
30
0.00000000000000
11
-59.2238121623604
21
14.2851152135675
31
0.00000000000000
  0
LINE
  5
F1066C
330
F1066D
100
AcDbEntity
8
Geo
100
AcDbLine
10
-59.2238121623604
20
14.2851152135675
30
0.00000000000000
11
-59.2201454956937
21
14.2833407581204
31
0.00000000000000
  0
LINE
  5
F1066E
330
F1066F
100
AcDbEntity
8
Geo
100
AcDbLine
10
-59.2201454956937
20
14.2833407581204
30
0.00000000000000
11
-59.2164788290271
21
14.2815757265987
31
0.00000000000000
  0
LINE
  5
F10670
330
F10671
100
AcDbEntity
8
Geo
100
AcDbLine
10
-59.2164788290271
20
14.2815757265987
30
0.00000000000000
11
-59.2128121623604
21
14.2798202455612
31
0.00000000000000
  0
LINE
  5
F10672
330
F10673
100
AcDbEntity
8
Geo
100
AcDbLine
10
-59.2128121623604
20
14.2798202455612
30
0.00000000000000
11
-59.2091454956937
21
14.2780744408815
31
0.00000000000000
  0
LINE
  5
F10674
330
F10675
100
AcDbEntity
8
Geo
100
AcDbLine
10
-59.2091454956937
20
14.2780744408815
30
0.00000000000000
11
-59.2054788290271
21
14.2763384377396
31
0.00000000000000
  0
LINE
  5
F10676
330
F10677
100
AcDbEntity
8
Geo
100
AcDbLine
10
-59.2054788290271
20
14.2763384377396
30
0.00000000000000
11
-59.2018121623604
21
14.2746123606125
31
0.00000000000000
  0
LINE
  5
F10678
330
F10679
100
AcDbEntity
8
Geo
100
AcDbLine
10
-59.2018121623604
20
14.2746123606125
30
0.00000000000000
11
-59.1981454956938
21
14.2728963332657
31
0.00000000000000
  0
LINE
  5
F1067A
330
F1067B
100
AcDbEntity
8
Geo
100
AcDbLine
10
-59.1981454956938
20
14.2728963332657
30
0.00000000000000
11
-59.1944788290271
21
14.2711904787439
31
0.00000000000000
  0
LINE
  5
F1067C
330
F1067D
100
AcDbEntity
8
Geo
100
AcDbLine
10
-59.1944788290271
20
14.2711904787439
30
0.00000000000000
11
-59.1908121623604
21
14.2694949193625
31
0.00000000000000
  0
LINE
  5
F1067E
330
F1067F
100
AcDbEntity
8
Geo
100
AcDbLine
10
-59.1908121623604
20
14.2694949193625
30
0.00000000000000
11
-59.1871454956937
21
14.2678097766986
31
0.00000000000000
  0
LINE
  5
F10680
330
F10681
100
AcDbEntity
8
Geo
100
AcDbLine
10
-59.1871454956937
20
14.2678097766986
30
0.00000000000000
11
-59.1834788290271
21
14.2661351715825
31
0.00000000000000
  0
LINE
  5
F10682
330
F10683
100
AcDbEntity
8
Geo
100
AcDbLine
10
-59.1834788290271
20
14.2661351715825
30
0.00000000000000
11
-59.1798121623604
21
14.2644712240889
31
0.00000000000000
  0
LINE
  5
F10684
330
F10685
100
AcDbEntity
8
Geo
100
AcDbLine
10
-59.1798121623604
20
14.2644712240889
30
0.00000000000000
11
-59.1761454956937
21
14.2628180535283
31
0.00000000000000
  0
LINE
  5
F10686
330
F10687
100
AcDbEntity
8
Geo
100
AcDbLine
10
-59.1761454956937
20
14.2628180535283
30
0.00000000000000
11
-59.1724788290271
21
14.2611757784383
31
0.00000000000000
  0
LINE
  5
F10688
330
F10689
100
AcDbEntity
8
Geo
100
AcDbLine
10
-59.1724788290271
20
14.2611757784383
30
0.00000000000000
11
-59.1688121623604
21
14.2595445165755
31
0.00000000000000
  0
LINE
  5
F1068A
330
F1068B
100
AcDbEntity
8
Geo
100
AcDbLine
10
-59.1688121623604
20
14.2595445165755
30
0.00000000000000
11
-59.1651454956937
21
14.2579243849068
31
0.00000000000000
  0
LINE
  5
F1068C
330
F1068D
100
AcDbEntity
8
Geo
100
AcDbLine
10
-59.1651454956937
20
14.2579243849068
30
0.00000000000000
11
-59.1614788290271
21
14.2563154996008
31
0.00000000000000
  0
LINE
  5
F1068E
330
F1068F
100
AcDbEntity
8
Geo
100
AcDbLine
10
-59.1614788290271
20
14.2563154996008
30
0.00000000000000
11
-59.1578121623604
21
14.2547179760199
31
0.00000000000000
  0
LINE
  5
F10690
330
F10691
100
AcDbEntity
8
Geo
100
AcDbLine
10
-59.1578121623604
20
14.2547179760199
30
0.00000000000000
11
-59.1541454956937
21
14.2531319287118
31
0.00000000000000
  0
LINE
  5
F10692
330
F10693
100
AcDbEntity
8
Geo
100
AcDbLine
10
-59.1541454956937
20
14.2531319287118
30
0.00000000000000
11
-59.1504788290271
21
14.2515574714013
31
0.00000000000000
  0
LINE
  5
F10694
330
F10695
100
AcDbEntity
8
Geo
100
AcDbLine
10
-59.1504788290271
20
14.2515574714013
30
0.00000000000000
11
-59.1468121623604
21
14.2499947169821
31
0.00000000000000
  0
LINE
  5
F10696
330
F10697
100
AcDbEntity
8
Geo
100
AcDbLine
10
-59.1468121623604
20
14.2499947169821
30
0.00000000000000
11
-59.1431454956937
21
14.2484437775088
31
0.00000000000000
  0
LINE
  5
F10698
330
F10699
100
AcDbEntity
8
Geo
100
AcDbLine
10
-59.1431454956937
20
14.2484437775088
30
0.00000000000000
11
-59.1394788290271
21
14.2469047641889
31
0.00000000000000
  0
LINE
  5
F1069A
330
F1069B
100
AcDbEntity
8
Geo
100
AcDbLine
10
-59.1394788290271
20
14.2469047641889
30
0.00000000000000
11
-59.1358121623604
21
14.2453777873746
31
0.00000000000000
  0
LINE
  5
F1069C
330
F1069D
100
AcDbEntity
8
Geo
100
AcDbLine
10
-59.1358121623604
20
14.2453777873746
30
0.00000000000000
11
-59.1321454956937
21
14.2438629565552
31
0.00000000000000
  0
LINE
  5
F1069E
330
F1069F
100
AcDbEntity
8
Geo
100
AcDbLine
10
-59.1321454956937
20
14.2438629565552
30
0.00000000000000
11
-59.1284788290271
21
14.2423603803491
31
0.00000000000000
  0
LINE
  5
F106A0
330
F106A1
100
AcDbEntity
8
Geo
100
AcDbLine
10
-59.1284788290271
20
14.2423603803491
30
0.00000000000000
11
-59.1248121623604
21
14.2408701664958
31
0.00000000000000
  0
LINE
  5
F106A2
330
F106A3
100
AcDbEntity
8
Geo
100
AcDbLine
10
-59.1248121623604
20
14.2408701664958
30
0.00000000000000
11
-59.1211454956937
21
14.2393924218486
31
0.00000000000000
  0
LINE
  5
F106A4
330
F106A5
100
AcDbEntity
8
Geo
100
AcDbLine
10
-59.1211454956937
20
14.2393924218486
30
0.00000000000000
11
-59.1174788290271
21
14.2379272523667
31
0.00000000000000
  0
LINE
  5
F106A6
330
F106A7
100
AcDbEntity
8
Geo
100
AcDbLine
10
-59.1174788290271
20
14.2379272523667
30
0.00000000000000
11
-59.1138121623604
21
14.2364747631073
31
0.00000000000000
  0
LINE
  5
F106A8
330
F106A9
100
AcDbEntity
8
Geo
100
AcDbLine
10
-59.1138121623604
20
14.2364747631073
30
0.00000000000000
11
-59.1101454956938
21
14.2350350582189
31
0.00000000000000
  0
LINE
  5
F106AA
330
F106AB
100
AcDbEntity
8
Geo
100
AcDbLine
10
-59.1101454956938
20
14.2350350582189
30
0.00000000000000
11
-59.1064788290271
21
14.2336082409330
31
0.00000000000000
  0
LINE
  5
F106AC
330
F106AD
100
AcDbEntity
8
Geo
100
AcDbLine
10
-59.1064788290271
20
14.2336082409330
30
0.00000000000000
11
-59.1028121623604
21
14.2321944135569
31
0.00000000000000
  0
LINE
  5
F106AE
330
F106AF
100
AcDbEntity
8
Geo
100
AcDbLine
10
-15.1001454956938
20
15.8147702573303
30
0.00000000000000
11
-15.1001454956938
21
14.4147702573303
31
0.00000000000000
  0
ARC
  5
F106B0
330
F106B1
100
AcDbEntity
8
Geo
100
AcDbCircle
10
-59.8501454956938
20
14.4147702573303
30
0.00000000000000
 40
0.250000000000000
100
AcDbArc
 50
180.000000000000
 51
270.000000000000
  0
LINE
  5
F106B2
330
F106B3
100
AcDbEntity
8
Geo
100
AcDbLine
10
-59.8501454956938
20
14.1647702573303
30
0.00000000000000
11
-59.1001454956938
21
14.1647702573303
31
0.00000000000000
  0
LINE
  5
F106B4
330
F106B5
100
AcDbEntity
8
Geo
100
AcDbLine
10
-59.1001454956938
20
14.1647702573303
30
0.00000000000000
11
-59.0992344089393
21
14.1647702573303
31
0.00000000000000
  0
LINE
  5
F106B6
330
F106B7
100
AcDbEntity
8
Geo
100
AcDbLine
10
-59.0992344089393
20
14.1647702573303
30
0.00000000000000
11
-52.5681454956938
21
12.4147702573303
31
0.00000000000000
  0
LINE
  5
F106B8
330
F106B9
100
AcDbEntity
8
Geo
100
AcDbLine
10
-52.5681454956938
20
12.4147702573303
30
0.00000000000000
11
-15.7001454956938
21
12.4147702573303
31
0.00000000000000
  0
LINE
  5
F106BA
330
F106BB
100
AcDbEntity
8
Geo
100
AcDbLine
10
-15.7001454956938
20
12.4147702573303
30
0.00000000000000
11
-15.1001454956938
21
13.0147702573303
31
0.00000000000000
  0
LINE
  5
F106BC
330
F106BD
100
AcDbEntity
8
Geo
100
AcDbLine
10
-59.8501454956938
20
14.6647702573303
30
0.00000000000000
11
-59.8501454956938
21
14.1647702573303
31
0.00000000000000
  0
LINE
  5
F106BE
330
F106BF
100
AcDbEntity
8
Geo
100
AcDbLine
10
-59.1001454956938
20
14.6647702573303
30
0.00000000000000
11
-59.1001454956938
21
14.1647702573303
31
0.00000000000000
  0
LINE
  5
F106C0
330
F106C1
100
AcDbEntity
8
Geo
100
AcDbLine
10
-59.1001454956938
20
14.6647702573303
30
0.00000000000000
11
-59.1001454956938
21
14.1647702573303
31
0.00000000000000
  0
LINE
  5
F106C2
330
F106C3
100
AcDbEntity
8
Geo
100
AcDbLine
10
-59.0992344089393
20
14.6647702573303
30
0.00000000000000
11
-59.0992344089393
21
14.1647702573303
31
0.00000000000000
  0
LINE
  5
F106C4
330
F106C5
100
AcDbEntity
8
Geo
100
AcDbLine
10
-52.5681454956938
20
16.4147702573303
30
0.00000000000000
11
-52.5681454956938
21
12.4147702573303
31
0.00000000000000
  0
LINE
  5
F106C6
330
F106C7
100
AcDbEntity
8
Geo
100
AcDbLine
10
-52.5681454956938
20
16.4147702573303
30
0.00000000000000
11
-52.5681454956938
21
12.4147702573303
31
0.00000000000000
  0
LINE
  5
F106C8
330
F106C9
100
AcDbEntity
8
Geo
100
AcDbLine
10
-15.7001454956938
20
16.4147702573303
30
0.00000000000000
11
-15.7001454956938
21
12.4147702573303
31
0.00000000000000
  0
LINE
  5
F106CA
330
F106CB
100
AcDbEntity
8
Geo
100
AcDbLine
10
-15.1001454956938
20
15.8147702573303
30
0.00000000000000
11
-15.1001454956938
21
13.0147702573303
31
0.00000000000000
  0
LINE
  5
F106CC
330
F106CD
100
AcDbEntity
8
Geo
 6
Dashdot
100
AcDbLine
10
-60.1001454956938
20
14.4147702573303
30
0.00000000000000
11
-15.1001454956938
21
14.4147702573303
31
0.00000000000000
0
VIEWPORT
5
294
102
{ACAD_XDICTIONARY
360
58A
102
}
330
25D
100
AcDbEntity
67
1
8
0
60
1
100
AcDbViewport
10
0.0
20
0.0
30
0.0
40
10.0
41
10.0
68
-1
69
1
12
0.0
22
0.0
13
0.0
23
0.0
14
1.0
24
1.0
15
0.0
25
0.0
16
0.0
26
0.0
36
1.0
17
0.0
27
0.0
37
0.0
42
0.0
43
0.0
44
0.0
45
10.0
50
0.0
51
0.0000000000007958
72
100
90
32800
1

281
0
71
0
74
0
110
0.0
120
0.0
130
0.0
111
1.0
121
0.0
131
0.0
112
0.0
122
1.0
132
0.0
79
0
146
0.0
1001
VD_INVISIBLE_NOT_FOR_READ
1000
VD_INVISIBLE_NOT_FOR_READ
0
VIEWPORT
5
295
102
{ACAD_XDICTIONARY
360
58C
102
}
330
25D
100
AcDbEntity
67
1
8
0
60
1
100
AcDbViewport
10
0.0
20
0.0
30
0.0
40
10.0
41
10.0
68
0
69
2
12
0.0
22
0.0
13
0.0
23
0.0
14
1.0
24
1.0
15
0.0
25
0.0
16
0.0
26
0.0
36
1.0
17
0.0
27
0.0
37
0.0
42
0.0
43
0.0
44
0.0
45
10.0
50
0.0
51
0.0000000000007958
72
100
90
163872
1

281
0
71
0
74
0
110
0.0
120
0.0
130
0.0
111
1.0
121
0.0
131
0.0
112
0.0
122
1.0
132
0.0
79
0
146
0.0
1001
VD_INVISIBLE_NOT_FOR_READ
1000
VD_INVISIBLE_NOT_FOR_READ
0
ENDSEC
0
SECTION
2
OBJECTS
0
DICTIONARY
5
13
330
0
100
AcDbDictionary
281
1
3
ACAD_COLOR
350
FA7
3
ACAD_GROUP
350
14
3
ACAD_LAYOUT
350
FCF
3
ACAD_MATERIAL
350
F7A
3
ACAD_MLEADERSTYLE
350
FCD
3
ACAD_MLINESTYLE
350
16
3
ACAD_PLOTSETTINGS
350
17
3
ACAD_PLOTSTYLENAME
350
18
3
ACAD_SCALELIST
350
FAB
3
ACAD_TABLESTYLE
350
FA8
3
ACAD_VISUALSTYLE
350
F93
3
ACDB_RECOMPOSE_DATA
350
107E
3
AcDbVariableDictionary
350
FF0
3
DWGPROPS
350
107F
0
DICTIONARY
5
FA7
102
{ACAD_REACTORS
330
13
102
}
330
13
100
AcDbDictionary
281
1
0
DICTIONARY
5
14
330
13
100
AcDbDictionary
281
1
0
DICTIONARY
5
FCF
102
{ACAD_REACTORS
330
13
102
}
330
13
100
AcDbDictionary
281
1
3
Layout1
350
FD1
3
Model
350
FD0
0
DICTIONARY
5
F7A
102
{ACAD_REACTORS
330
13
102
}
330
13
100
AcDbDictionary
281
1
3
ByBlock
350
F83
3
ByLayer
350
F7B
3
Global
350
F8B
0
DICTIONARY
5
FCD
102
{ACAD_REACTORS
330
13
102
}
330
13
100
AcDbDictionary
281
1
3
Standard
350
FCE
0
DICTIONARY
5
16
330
13
100
AcDbDictionary
281
1
3
Standard
350
FAA
0
DICTIONARY
5
17
102
{ACAD_REACTORS
330
13
102
}
330
13
100
AcDbDictionary
281
1
0
ACDBDICTIONARYWDFLT
5
18
102
{ACAD_REACTORS
330
13
102
}
330
13
100
AcDbDictionary
281
1
3
Normal
350
19
100
AcDbDictionaryWithDefault
340
19
0
DICTIONARY
5
FAB
102
{ACAD_REACTORS
330
13
102
}
330
13
100
AcDbDictionary
281
1
3
A0
350
FAC
3
A1
350
FAD
3
A2
350
FAE
3
A3
350
FAF
3
A4
350
FB0
3
A5
350
FB1
3
A6
350
FB2
3
A7
350
FB3
3
A8
350
FB4
3
A9
350
FB5
3
B0
350
FB6
3
B1
350
FB7
3
B2
350
FB8
3
B3
350
FB9
3
B4
350
FBA
3
B5
350
FBB
3
B6
350
FBC
3
B7
350
FBD
3
B8
350
FBE
3
B9
350
FBF
3
C0
350
FC0
3
C1
350
FC1
3
C2
350
FC2
3
C3
350
FC3
3
C4
350
FC4
3
C5
350
FC5
3
C6
350
FC6
3
C7
350
FC7
3
C8
350
FC8
3
C9
350
FC9
3
D0
350
FCA
3
D1
350
FCB
3
D2
350
FCC
0
DICTIONARY
5
FA8
102
{ACAD_REACTORS
330
13
102
}
330
13
100
AcDbDictionary
281
1
3
Standard
350
FA9
0
DICTIONARY
5
F93
102
{ACAD_REACTORS
330
13
102
}
330
13
100
AcDbDictionary
281
1
3
2dWireframe
350
F99
3
3D Hidden
350
F9B
3
3dWireframe
350
F9A
3
Basic
350
F98
3
Brighten
350
F9F
3
ColorChange
350
FA3
3
Conceptual
350
F9C
3
Dim
350
F9E
3
EdgeColorOff
350
FA6
3
Facepattern
350
FA2
3
Flat
350
F94
3
FlatWithEdges
350
F95
3
Gouraud
350
F96
3
GouraudWithEdges
350
F97
3
JitterOff
350
FA4
3
Linepattern
350
FA1
3
OverhangOff
350
FA5
3
Realistic
350
F9D
3
Thicken
350
FA0
0
XRECORD
5
107E
102
{ACAD_REACTORS
330
13
102
}
330
13
100
AcDbXrecord
280
1
90
1
330
FA9
0
DICTIONARY
5
FF0
102
{ACAD_REACTORS
330
13
102
}
330
13
100
AcDbDictionary
281
1
3
CANNOSCALE
350
FF3
3
CMLEADERSTYLE
350
FF2
3
CTABLESTYLE
350
FF1
3
DIMASSOC
350
FF6
3
INDEXCTL
350
FF5
3
SORTENTS
350
FF4
3
XCLIPFRAME
350
1078
0
XRECORD
5
107F
102
{ACAD_REACTORS
330
13
102
}
330
13
100
AcDbXrecord
280
1
1
DWGPROPS COOKIE
2

3

4

6

7

8

9

300
=
301
=
302
=
303
=
304
=
305
=
306
=
307
=
308
=
309
=
40
0.0
41
0.0
42
0.0
1

90
0
0
LAYOUT
5
FD1
102
{ACAD_XDICTIONARY
360
10A9
102
}
102
{ACAD_REACTORS
330
FCF
102
}
330
FCF
100
AcDbPlotSettings
1

2
Microsoft XPS Document Writer
4

6

40
0.0
41
0.0
42
0.0
43
0.0
44
0.0
45
0.0
46
0.0
47
0.0
48
0.0
49
0.0
140
0.0
141
0.0
142
1.0
143
1.0
70
688
72
0
73
0
74
5
7

75
16
147
1.0
148
0.0
149
0.0
100
AcDbLayout
1
Layout1
70
1
71
1
10
0.0
20
0.0
11
12.0
21
9.0
12
0.0
22
0.0
32
0.0
14
1.000000000000000E+20
24
1.000000000000000E+20
34
1.000000000000000E+20
15
-1.000000000000000E+20
25
-1.000000000000000E+20
35
-1.000000000000000E+20
146
0.0
13
0.0
23
0.0
33
0.0
16
1.0
26
0.0
36
0.0
17
0.0
27
1.0
37
0.0
76
0
330
25D
0
LAYOUT
5
FD0
102
{ACAD_XDICTIONARY
360
10A7
102
}
102
{ACAD_REACTORS
330
FCF
102
}
330
FCF
100
AcDbPlotSettings
1

2
Microsoft XPS Document Writer
4

6

40
0.0
41
0.0
42
0.0
43
0.0
44
0.0
45
0.0
46
0.0
47
0.0
48
0.0
49
0.0
140
0.0
141
0.0
142
1.0
143
1.0
70
1712
72
0
73
0
74
0
7

75
0
147
1.0
148
0.0
149
0.0
100
AcDbLayout
1
Model
70
1
71
0
10
0.0
20
0.0
11
12.0
21
9.0
12
0.0
22
0.0
32
0.0
14
0.0
24
0.0
34
0.0
15
0.0
25
0.0
35
0.0
146
0.0
13
0.0
23
0.0
33
0.0
16
1.0
26
0.0
36
0.0
17
0.0
27
1.0
37
0.0
76
0
330
261
331
26B
0
MATERIAL
5
F83
102
{ACAD_XDICTIONARY
360
F84
102
}
102
{ACAD_REACTORS
330
F7A
102
}
330
F7A
100
AcDbMaterial
1
ByBlock
72
0
43
0.0208333333333333
43
0.0
43
0.0
43
0.0
43
0.0
43
0.0208333333333333
43
0.0
43
0.0
43
0.0
43
0.0
43
1.0
43
0.0
43
0.0
43
0.0
43
0.0
43
1.0
77
0
47
0.0208333333333333
47
0.0
47
0.0
47
0.0
47
0.0
47
0.0208333333333333
47
0.0
47
0.0
47
0.0
47
0.0
47
1.0
47
0.0
47
0.0
47
0.0
47
0.0
47
1.0
171
0
49
0.0208333333333333
49
0.0
49
0.0
49
0.0
49
0.0
49
0.0208333333333333
49
0.0
49
0.0
49
0.0
49
0.0
49
1.0
49
0.0
49
0.0
49
0.0
49
0.0
49
1.0
175
0
142
0.0208333333333333
142
0.0
142
0.0
142
0.0
142
0.0
142
0.0208333333333333
142
0.0
142
0.0
142
0.0
142
0.0
142
1.0
142
0.0
142
0.0
142
0.0
142
0.0
142
1.0
179
0
144
0.0208333333333333
144
0.0
144
0.0
144
0.0
144
0.0
144
0.0208333333333333
144
0.0
144
0.0
144
0.0
144
0.0
144
1.0
144
0.0
144
0.0
144
0.0
144
0.0
144
1.0
147
0.0208333333333333
147
0.0
147
0.0
147
0.0
147
0.0
147
0.0208333333333333
147
0.0
147
0.0
147
0.0
147
0.0
147
1.0
147
0.0
147
0.0
147
0.0
147
0.0
147
1.0
0
MATERIAL
5
F7B
102
{ACAD_XDICTIONARY
360
F7C
102
}
102
{ACAD_REACTORS
330
F7A
102
}
330
F7A
100
AcDbMaterial
1
ByLayer
72
0
43
0.0208333333333333
43
0.0
43
0.0
43
0.0
43
0.0
43
0.0208333333333333
43
0.0
43
0.0
43
0.0
43
0.0
43
1.0
43
0.0
43
0.0
43
0.0
43
0.0
43
1.0
77
0
47
0.0208333333333333
47
0.0
47
0.0
47
0.0
47
0.0
47
0.0208333333333333
47
0.0
47
0.0
47
0.0
47
0.0
47
1.0
47
0.0
47
0.0
47
0.0
47
0.0
47
1.0
171
0
49
0.0208333333333333
49
0.0
49
0.0
49
0.0
49
0.0
49
0.0208333333333333
49
0.0
49
0.0
49
0.0
49
0.0
49
1.0
49
0.0
49
0.0
49
0.0
49
0.0
49
1.0
175
0
142
0.0208333333333333
142
0.0
142
0.0
142
0.0
142
0.0
142
0.0208333333333333
142
0.0
142
0.0
142
0.0
142
0.0
142
1.0
142
0.0
142
0.0
142
0.0
142
0.0
142
1.0
179
0
144
0.0208333333333333
144
0.0
144
0.0
144
0.0
144
0.0
144
0.0208333333333333
144
0.0
144
0.0
144
0.0
144
0.0
144
1.0
144
0.0
144
0.0
144
0.0
144
0.0
144
1.0
147
0.0208333333333333
147
0.0
147
0.0
147
0.0
147
0.0
147
0.0208333333333333
147
0.0
147
0.0
147
0.0
147
0.0
147
1.0
147
0.0
147
0.0
147
0.0
147
0.0
147
1.0
0
MATERIAL
5
F8B
102
{ACAD_XDICTIONARY
360
F8C
102
}
102
{ACAD_REACTORS
330
F7A
102
}
330
F7A
100
AcDbMaterial
1
Global
72
0
43
0.0208333333333333
43
0.0
43
0.0
43
0.0
43
0.0
43
0.0208333333333333
43
0.0
43
0.0
43
0.0
43
0.0
43
1.0
43
0.0
43
0.0
43
0.0
43
0.0
43
1.0
77
0
47
0.0208333333333333
47
0.0
47
0.0
47
0.0
47
0.0
47
0.0208333333333333
47
0.0
47
0.0
47
0.0
47
0.0
47
1.0
47
0.0
47
0.0
47
0.0
47
0.0
47
1.0
171
0
49
0.0208333333333333
49
0.0
49
0.0
49
0.0
49
0.0
49
0.0208333333333333
49
0.0
49
0.0
49
0.0
49
0.0
49
1.0
49
0.0
49
0.0
49
0.0
49
0.0
49
1.0
175
0
142
0.0208333333333333
142
0.0
142
0.0
142
0.0
142
0.0
142
0.0208333333333333
142
0.0
142
0.0
142
0.0
142
0.0
142
1.0
142
0.0
142
0.0
142
0.0
142
0.0
142
1.0
179
0
144
0.0208333333333333
144
0.0
144
0.0
144
0.0
144
0.0
144
0.0208333333333333
144
0.0
144
0.0
144
0.0
144
0.0
144
1.0
144
0.0
144
0.0
144
0.0
144
0.0
144
1.0
147
0.0208333333333333
147
0.0
147
0.0
147
0.0
147
0.0
147
0.0208333333333333
147
0.0
147
0.0
147
0.0
147
0.0
147
1.0
147
0.0
147
0.0
147
0.0
147
0.0
147
1.0
0
MLEADERSTYLE
5
FCE
102
{ACAD_REACTORS
330
FCD
102
}
330
FCD
100
AcDbMLeaderStyle
170
2
171
1
172
0
90
2
40
0.0
41
0.0
173
1
91
-1056964608
340
256
92
-2
290
1
42
0.09
291
1
43
0.36
3
Standard
44
0.18
300

342
253
174
1
178
6
175
1
176
0
93
-1056964608
45
0.18
292
0
297
0
46
0.18
94
-1056964608
47
1.0
49
1.0
140
1.0
293
1
141
0.0
294
1
177
0
142
1.0
295
0
296
0
143
0.125
1001
ACAD_MLEADERVER
1070
2
0
MLINESTYLE
5
FAA
102
{ACAD_REACTORS
330
16
102
}
330
16
100
AcDbMlineStyle
2
STANDARD
70
0
3

62
256
51
90.0
52
90.0
71
2
49
0.5
62
256
6
BYLAYER
49
-0.5
62
256
6
BYLAYER
0
ACDBPLACEHOLDER
5
19
102
{ACAD_REACTORS
330
18
102
}
330
18
0
SCALE
5
FAC
102
{ACAD_REACTORS
330
FAB
102
}
330
FAB
100
AcDbScale
70
0
300
1:1
140
1.0
141
1.0
290
1
0
SCALE
5
FAD
102
{ACAD_REACTORS
330
FAB
102
}
330
FAB
100
AcDbScale
70
0
300
1:2
140
1.0
141
2.0
290
0
0
SCALE
5
FAE
102
{ACAD_REACTORS
330
FAB
102
}
330
FAB
100
AcDbScale
70
0
300
1:4
140
1.0
141
4.0
290
0
0
SCALE
5
FAF
102
{ACAD_REACTORS
330
FAB
102
}
330
FAB
100
AcDbScale
70
0
300
1:5
140
1.0
141
5.0
290
0
0
SCALE
5
FB0
102
{ACAD_REACTORS
330
FAB
102
}
330
FAB
100
AcDbScale
70
0
300
1:8
140
1.0
141
8.0
290
0
0
SCALE
5
FB1
102
{ACAD_REACTORS
330
FAB
102
}
330
FAB
100
AcDbScale
70
0
300
1:10
140
1.0
141
10.0
290
0
0
SCALE
5
FB2
102
{ACAD_REACTORS
330
FAB
102
}
330
FAB
100
AcDbScale
70
0
300
1:16
140
1.0
141
16.0
290
0
0
SCALE
5
FB3
102
{ACAD_REACTORS
330
FAB
102
}
330
FAB
100
AcDbScale
70
0
300
1:20
140
1.0
141
20.0
290
0
0
SCALE
5
FB4
102
{ACAD_REACTORS
330
FAB
102
}
330
FAB
100
AcDbScale
70
0
300
1:30
140
1.0
141
30.0
290
0
0
SCALE
5
FB5
102
{ACAD_REACTORS
330
FAB
102
}
330
FAB
100
AcDbScale
70
0
300
1:40
140
1.0
141
40.0
290
0
0
SCALE
5
FB6
102
{ACAD_REACTORS
330
FAB
102
}
330
FAB
100
AcDbScale
70
0
300
1:50
140
1.0
141
50.0
290
0
0
SCALE
5
FB7
102
{ACAD_REACTORS
330
FAB
102
}
330
FAB
100
AcDbScale
70
0
300
1:100
140
1.0
141
100.0
290
0
0
SCALE
5
FB8
102
{ACAD_REACTORS
330
FAB
102
}
330
FAB
100
AcDbScale
70
0
300
2:1
140
2.0
141
1.0
290
0
0
SCALE
5
FB9
102
{ACAD_REACTORS
330
FAB
102
}
330
FAB
100
AcDbScale
70
0
300
4:1
140
4.0
141
1.0
290
0
0
SCALE
5
FBA
102
{ACAD_REACTORS
330
FAB
102
}
330
FAB
100
AcDbScale
70
0
300
8:1
140
8.0
141
1.0
290
0
0
SCALE
5
FBB
102
{ACAD_REACTORS
330
FAB
102
}
330
FAB
100
AcDbScale
70
0
300
10:1
140
10.0
141
1.0
290
0
0
SCALE
5
FBC
102
{ACAD_REACTORS
330
FAB
102
}
330
FAB
100
AcDbScale
70
0
300
100:1
140
100.0
141
1.0
290
0
0
SCALE
5
FBD
102
{ACAD_REACTORS
330
FAB
102
}
330
FAB
100
AcDbScale
70
0
300
1/128" = 1'-0"
140
0.0078125
141
12.0
290
0
0
SCALE
5
FBE
102
{ACAD_REACTORS
330
FAB
102
}
330
FAB
100
AcDbScale
70
0
300
1/64" = 1'-0"
140
0.015625
141
12.0
290
0
0
SCALE
5
FBF
102
{ACAD_REACTORS
330
FAB
102
}
330
FAB
100
AcDbScale
70
0
300
1/32" = 1'-0"
140
0.03125
141
12.0
290
0
0
SCALE
5
FC0
102
{ACAD_REACTORS
330
FAB
102
}
330
FAB
100
AcDbScale
70
0
300
1/16" = 1'-0"
140
0.0625
141
12.0
290
0
0
SCALE
5
FC1
102
{ACAD_REACTORS
330
FAB
102
}
330
FAB
100
AcDbScale
70
0
300
3/32" = 1'-0"
140
0.09375
141
12.0
290
0
0
SCALE
5
FC2
102
{ACAD_REACTORS
330
FAB
102
}
330
FAB
100
AcDbScale
70
0
300
1/8" = 1'-0"
140
0.125
141
12.0
290
0
0
SCALE
5
FC3
102
{ACAD_REACTORS
330
FAB
102
}
330
FAB
100
AcDbScale
70
0
300
3/16" = 1'-0"
140
0.1875
141
12.0
290
0
0
SCALE
5
FC4
102
{ACAD_REACTORS
330
FAB
102
}
330
FAB
100
AcDbScale
70
0
300
1/4" = 1'-0"
140
0.25
141
12.0
290
0
0
SCALE
5
FC5
102
{ACAD_REACTORS
330
FAB
102
}
330
FAB
100
AcDbScale
70
0
300
3/8" = 1'-0"
140
0.375
141
12.0
290
0
0
SCALE
5
FC6
102
{ACAD_REACTORS
330
FAB
102
}
330
FAB
100
AcDbScale
70
0
300
1/2" = 1'-0"
140
0.5
141
12.0
290
0
0
SCALE
5
FC7
102
{ACAD_REACTORS
330
FAB
102
}
330
FAB
100
AcDbScale
70
0
300
3/4" = 1'-0"
140
0.75
141
12.0
290
0
0
SCALE
5
FC8
102
{ACAD_REACTORS
330
FAB
102
}
330
FAB
100
AcDbScale
70
0
300
1" = 1'-0"
140
1.0
141
12.0
290
0
0
SCALE
5
FC9
102
{ACAD_REACTORS
330
FAB
102
}
330
FAB
100
AcDbScale
70
0
300
1-1/2" = 1'-0"
140
1.5
141
12.0
290
0
0
SCALE
5
FCA
102
{ACAD_REACTORS
330
FAB
102
}
330
FAB
100
AcDbScale
70
0
300
3" = 1'-0"
140
3.0
141
12.0
290
0
0
SCALE
5
FCB
102
{ACAD_REACTORS
330
FAB
102
}
330
FAB
100
AcDbScale
70
0
300
6" = 1'-0"
140
6.0
141
12.0
290
0
0
SCALE
5
FCC
102
{ACAD_REACTORS
330
FAB
102
}
330
FAB
100
AcDbScale
70
0
300
1'-0" = 1'-0"
140
12.0
141
12.0
290
0
0
TABLESTYLE
5
FA9
102
{ACAD_XDICTIONARY
360
FF8
102
}
102
{ACAD_REACTORS
330
FA8
102
}
330
FA8
100
AcDbTableStyle
3
Standard
70
0
71
0
40
0.06
41
0.06
280
0
281
0
7
Standard
140
0.18
170
2
62
0
63
7
283
0
274
-2
284
1
64
0
275
-2
285
1
65
0
276
-2
286
1
66
0
277
-2
287
1
67
0
278
-2
288
1
68
0
279
-2
289
1
69
0
7
Standard
140
0.25
170
5
62
0
63
7
283
0
274
-2
284
1
64
0
275
-2
285
1
65
0
276
-2
286
1
66
0
277
-2
287
1
67
0
278
-2
288
1
68
0
279
-2
289
1
69
0
7
Standard
140
0.18
170
5
62
0
63
7
283
0
274
-2
284
1
64
0
275
-2
285
1
65
0
276
-2
286
1
66
0
277
-2
287
1
67
0
278
-2
288
1
68
0
279
-2
289
1
69
0
0
VISUALSTYLE
5
F99
102
{ACAD_XDICTIONARY
360
108A
102
}
102
{ACAD_REACTORS
330
F93
102
}
330
F93
100
AcDbVisualStyle
2

70
4
71
0
72
2
73
0
90
0
40
-0.6
41
-30.0
62
5
63
7
74
1
91
4
64
7
65
257
75
1
175
1
42
1.0
92
0
66
257
43
1.0
76
1
77
6
78
2
67
7
79
5
170
0
171
0
290
0
174
0
93
1
44
0.0
173
0
291
0
45
0.0
1001
ACAD
1000
AcDbSavedByObjectVersion
1070
0
0
VISUALSTYLE
5
F9B
102
{ACAD_XDICTIONARY
360
108E
102
}
102
{ACAD_REACTORS
330
F93
102
}
330
F93
100
AcDbVisualStyle
2

70
6
71
1
72
2
73
2
90
0
40
-0.6
41
-30.0
62
5
63
7
74
2
91
2
64
7
65
257
75
2
175
1
42
179.0
92
0
66
257
43
1.0
76
1
77
6
78
2
67
7
79
3
170
0
171
0
290
0
174
0
93
1
44
0.0
173
0
291
0
45
0.0
1001
ACAD
1000
AcDbSavedByObjectVersion
1070
0
0
VISUALSTYLE
5
F9A
102
{ACAD_XDICTIONARY
360
108C
102
}
102
{ACAD_REACTORS
330
F93
102
}
330
F93
100
AcDbVisualStyle
2

70
5
71
0
72
2
73
0
90
0
40
-0.6
41
-30.0
62
5
63
7
74
1
91
4
64
7
65
257
75
1
175
1
42
1.0
92
0
66
257
43
1.0
76
1
77
6
78
2
67
7
79
5
170
0
171
0
290
0
174
0
93
1
44
0.0
173
0
291
0
45
0.0
1001
ACAD
1000
AcDbSavedByObjectVersion
1070
0
0
VISUALSTYLE
5
F98
102
{ACAD_XDICTIONARY
360
1088
102
}
102
{ACAD_REACTORS
330
F93
102
}
330
F93
100
AcDbVisualStyle
2

70
7
71
1
72
0
73
1
90
0
40
-0.6
41
-30.0
62
5
63
7
74
0
91
4
64
7
65
257
75
1
175
1
42
1.0
92
8
66
7
43
1.0
76
1
77
6
78
2
67
7
79
5
170
0
171
0
290
0
174
0
93
1
44
0.0
173
0
291
1
45
0.0
1001
ACAD
1000
AcDbSavedByObjectVersion
1070
0
0
VISUALSTYLE
5
F9F
102
{ACAD_XDICTIONARY
360
1096
102
}
102
{ACAD_REACTORS
330
F93
102
}
330
F93
100
AcDbVisualStyle
2

70
12
71
2
72
2
73
0
90
0
40
-0.6
41
-30.0
62
5
63
7
74
1
91
4
64
7
65
257
75
1
175
1
42
1.0
92
8
66
7
43
1.0
76
1
77
6
78
2
67
7
79
5
170
0
171
0
290
0
174
0
93
1
44
50.0
173
0
291
1
45
0.0
1001
ACAD
1000
AcDbSavedByObjectVersion
1070
0
0
VISUALSTYLE
5
FA3
102
{ACAD_XDICTIONARY
360
109E
102
}
102
{ACAD_REACTORS
330
F93
102
}
330
F93
100
AcDbVisualStyle
2

70
16
71
2
72
2
73
3
90
0
40
-0.6
41
-30.0
62
5
63
8
74
1
91
4
64
7
65
257
75
1
175
1
42
1.0
92
8
66
8
43
1.0
76
1
77
6
78
2
67
7
79
5
170
0
171
0
290
0
174
0
93
1
44
0.0
173
0
291
1
45
0.0
1001
ACAD
1000
AcDbSavedByObjectVersion
1070
0
0
VISUALSTYLE
5
F9C
102
{ACAD_XDICTIONARY
360
1090
102
}
102
{ACAD_REACTORS
330
F93
102
}
330
F93
100
AcDbVisualStyle
2

70
9
71
3
72
2
73
0
90
0
40
-0.6
41
-30.0
62
5
63
7
74
2
91
2
64
7
65
257
75
1
175
1
42
179.0
92
8
66
7
43
1.0
76
1
77
6
78
2
67
7
79
3
170
0
171
0
290
0
174
0
93
1
44
0.0
173
0
291
0
45
0.0
1001
ACAD
1000
AcDbSavedByObjectVersion
1070
0
0
VISUALSTYLE
5
F9E
102
{ACAD_XDICTIONARY
360
1094
102
}
102
{ACAD_REACTORS
330
F93
102
}
330
F93
100
AcDbVisualStyle
2

70
11
71
2
72
2
73
0
90
0
40
-0.6
41
-30.0
62
5
63
7
74
1
91
4
64
7
65
257
75
1
175
1
42
1.0
92
8
66
7
43
1.0
76
1
77
6
78
2
67
7
79
5
170
0
171
0
290
0
174
0
93
1
44
-50.0
173
0
291
1
45
0.0
1001
ACAD
1000
AcDbSavedByObjectVersion
1070
0
0
VISUALSTYLE
5
FA6
102
{ACAD_XDICTIONARY
360
10A4
102
}
102
{ACAD_REACTORS
330
F93
102
}
330
F93
100
AcDbVisualStyle
2

70
22
71
2
72
2
73
0
90
0
40
-0.6
41
-30.0
62
5
63
7
74
1
91
4
64
7
65
257
75
1
175
1
42
1.0
92
8
66
7
43
1.0
76
1
77
6
78
2
67
7
79
5
170
0
171
0
290
0
174
0
93
1
44
0.0
173
0
291
1
45
0.0
1001
ACAD
1000
AcDbSavedByObjectVersion
1070
0
0
VISUALSTYLE
5
FA2
102
{ACAD_XDICTIONARY
360
109C
102
}
102
{ACAD_REACTORS
330
F93
102
}
330
F93
100
AcDbVisualStyle
2

70
15
71
2
72
2
73
0
90
0
40
-0.6
41
-30.0
62
5
63
7
74
1
91
4
64
7
65
257
75
1
175
1
42
1.0
92
8
66
7
43
1.0
76
1
77
6
78
2
67
7
79
5
170
0
171
0
290
0
174
0
93
1
44
0.0
173
0
291
1
45
0.0
1001
ACAD
1000
AcDbSavedByObjectVersion
1070
0
0
VISUALSTYLE
5
F94
102
{ACAD_XDICTIONARY
360
1080
102
}
102
{ACAD_REACTORS
330
F93
102
}
330
F93
100
AcDbVisualStyle
2

70
0
71
2
72
1
73
1
90
2
40
-0.6
41
30.0
62
5
63
7
74
0
91
4
64
7
65
257
75
1
175
1
42
1.0
92
8
66
7
43
1.0
76
1
77
6
78
2
67
7
79
5
170
0
171
0
290
0
174
0
93
13
44
0.0
173
0
291
1
45
0.0
1001
ACAD
1000
AcDbSavedByObjectVersion
1070
0
0
VISUALSTYLE
5
F95
102
{ACAD_XDICTIONARY
360
1082
102
}
102
{ACAD_REACTORS
330
F93
102
}
330
F93
100
AcDbVisualStyle
2

70
1
71
2
72
1
73
1
90
2
40
-0.6
41
30.0
62
5
63
7
74
1
91
4
64
7
65
257
75
1
175
1
42
1.0
92
0
66
257
43
1.0
76
1
77
6
78
2
67
7
79
5
170
0
171
0
290
0
174
0
93
13
44
0.0
173
0
291
1
45
0.0
1001
ACAD
1000
AcDbSavedByObjectVersion
1070
0
0
VISUALSTYLE
5
F96
102
{ACAD_XDICTIONARY
360
1084
102
}
102
{ACAD_REACTORS
330
F93
102
}
330
F93
100
AcDbVisualStyle
2

70
2
71
2
72
2
73
1
90
2
40
-0.6
41
30.0
62
5
63
7
74
0
91
4
64
7
65
257
75
1
175
1
42
1.0
92
0
66
7
43
1.0
76
1
77
6
78
2
67
7
79
5
170
0
171
0
290
0
174
0
93
13
44
0.0
173
0
291
1
45
0.0
1001
ACAD
1000
AcDbSavedByObjectVersion
1070
0
0
VISUALSTYLE
5
F97
102
{ACAD_XDICTIONARY
360
1086
102
}
102
{ACAD_REACTORS
330
F93
102
}
330
F93
100
AcDbVisualStyle
2

70
3
71
2
72
2
73
1
90
2
40
-0.6
41
30.0
62
5
63
7
74
1
91
4
64
7
65
257
75
1
175
1
42
1.0
92
0
66
257
43
1.0
76
1
77
6
78
2
67
7
79
5
170
0
171
0
290
0
174
0
93
13
44
0.0
173
0
291
1
45
0.0
1001
ACAD
1000
AcDbSavedByObjectVersion
1070
0
0
VISUALSTYLE
5
FA4
102
{ACAD_XDICTIONARY
360
10A0
102
}
102
{ACAD_REACTORS
330
F93
102
}
330
F93
100
AcDbVisualStyle
2

70
20
71
2
72
2
73
0
90
0
40
-0.6
41
-30.0
62
5
63
7
74
1
91
4
64
7
65
257
75
1
175
1
42
1.0
92
10
66
7
43
1.0
76
1
77
6
78
2
67
7
79
5
170
0
171
0
290
0
174
0
93
1
44
0.0
173
0
291
1
45
0.0
1001
ACAD
1000
AcDbSavedByObjectVersion
1070
0
0
VISUALSTYLE
5
FA1
102
{ACAD_XDICTIONARY
360
109A
102
}
102
{ACAD_REACTORS
330
F93
102
}
330
F93
100
AcDbVisualStyle
2

70
14
71
2
72
2
73
0
90
0
40
-0.6
41
-30.0
62
5
63
7
74
1
91
4
64
7
65
257
75
7
175
7
42
1.0
92
8
66
7
43
1.0
76
1
77
6
78
2
67
7
79
5
170
0
171
0
290
0
174
0
93
1
44
0.0
173
0
291
1
45
0.0
1001
ACAD
1000
AcDbSavedByObjectVersion
1070
0
0
VISUALSTYLE
5
FA5
102
{ACAD_XDICTIONARY
360
10A2
102
}
102
{ACAD_REACTORS
330
F93
102
}
330
F93
100
AcDbVisualStyle
2

70
21
71
2
72
2
73
0
90
0
40
-0.6
41
-30.0
62
5
63
7
74
1
91
4
64
7
65
257
75
1
175
1
42
1.0
92
9
66
7
43
1.0
76
1
77
6
78
2
67
7
79
5
170
0
171
0
290
0
174
0
93
1
44
0.0
173
0
291
1
45
0.0
1001
ACAD
1000
AcDbSavedByObjectVersion
1070
0
0
VISUALSTYLE
5
F9D
102
{ACAD_XDICTIONARY
360
1092
102
}
102
{ACAD_REACTORS
330
F93
102
}
330
F93
100
AcDbVisualStyle
2

70
8
71
2
72
2
73
0
90
0
40
-0.6
41
-30.0
62
5
63
7
74
1
91
0
64
7
65
257
75
1
175
1
42
1.0
92
8
66
8
43
1.0
76
1
77
6
78
2
67
7
79
5
170
0
171
0
290
0
174
0
93
13
44
0.0
173
0
291
0
45
0.0
1001
ACAD
1000
AcDbSavedByObjectVersion
1070
0
0
VISUALSTYLE
5
FA0
102
{ACAD_XDICTIONARY
360
1098
102
}
102
{ACAD_REACTORS
330
F93
102
}
330
F93
100
AcDbVisualStyle
2

70
13
71
2
72
2
73
0
90
0
40
-0.6
41
-30.0
62
5
63
7
74
1
91
4
64
7
65
257
75
1
175
1
42
1.0
92
12
66
7
43
1.0
76
1
77
6
78
2
67
7
79
5
170
0
171
0
290
0
174
0
93
1
44
0.0
173
0
291
1
45
0.0
1001
ACAD
1000
AcDbSavedByObjectVersion
1070
0
0
DICTIONARYVAR
5
FF3
102
{ACAD_REACTORS
330
FF0
102
}
330
FF0
100
DictionaryVariables
280
0
1
1:1
0
DICTIONARYVAR
5
FF2
102
{ACAD_REACTORS
330
FF0
102
}
330
FF0
100
DictionaryVariables
280
0
1
STANDARD
0
DICTIONARYVAR
5
FF1
102
{ACAD_REACTORS
330
FF0
102
}
330
FF0
100
DictionaryVariables
280
0
1
STANDARD
0
DICTIONARYVAR
5
FF6
102
{ACAD_REACTORS
330
FF0
102
}
330
FF0
100
DictionaryVariables
280
0
1
1
0
DICTIONARYVAR
5
FF5
102
{ACAD_REACTORS
330
FF0
102
}
330
FF0
100
DictionaryVariables
280
0
1
0
0
DICTIONARYVAR
5
FF4
102
{ACAD_REACTORS
330
FF0
102
}
330
FF0
100
DictionaryVariables
280
0
1
127
0
DICTIONARYVAR
5
1078
102
{ACAD_REACTORS
330
FF0
102
}
330
FF0
100
DictionaryVariables
280
0
1
2
0
DICTIONARY
5
10A9
330
FD1
100
AcDbDictionary
280
1
281
1
3
ACAD_XREC_ROUNDTRIP
360
10AA
0
DICTIONARY
5
10A7
330
FD0
100
AcDbDictionary
280
1
281
1
3
ACAD_XREC_ROUNDTRIP
360
10A8
0
DICTIONARY
5
F84
330
F83
100
AcDbDictionary
280
1
281
1
3
ACAD_XREC_ROUNDTRIP
360
FFF
3
BUMPTILE
360
F86
3
DIFFUSETILE
360
F85
3
OPACITYTILE
360
F89
3
REFLECTIONTILE
360
F88
3
REFRACTIONTILE
360
F8A
3
SPECULARTILE
360
F87
0
DICTIONARY
5
F7C
330
F7B
100
AcDbDictionary
280
1
281
1
3
ACAD_XREC_ROUNDTRIP
360
FFE
3
BUMPTILE
360
F7E
3
DIFFUSETILE
360
F7D
3
OPACITYTILE
360
F81
3
REFLECTIONTILE
360
F80
3
REFRACTIONTILE
360
F82
3
SPECULARTILE
360
F7F
0
DICTIONARY
5
F8C
330
F8B
100
AcDbDictionary
280
1
281
1
3
ACAD_XREC_ROUNDTRIP
360
1000
3
BUMPTILE
360
F8E
3
DIFFUSETILE
360
F8D
3
OPACITYTILE
360
F91
3
REFLECTIONTILE
360
F90
3
REFRACTIONTILE
360
F92
3
SPECULARTILE
360
F8F
0
DICTIONARY
5
FF8
330
FA9
100
AcDbDictionary
280
1
281
1
3
ACAD_ROUNDTRIP_2008_TABLESTYLE_CELLSTYLEMAP
360
1079
3
ACAD_XREC_ROUNDTRIP
360
10A6
0
DICTIONARY
5
108A
330
F99
100
AcDbDictionary
280
1
281
1
3
ACAD_XREC_ROUNDTRIP
360
108B
0
DICTIONARY
5
108E
330
F9B
100
AcDbDictionary
280
1
281
1
3
ACAD_XREC_ROUNDTRIP
360
108F
0
DICTIONARY
5
108C
330
F9A
100
AcDbDictionary
280
1
281
1
3
ACAD_XREC_ROUNDTRIP
360
108D
0
DICTIONARY
5
1088
330
F98
100
AcDbDictionary
280
1
281
1
3
ACAD_XREC_ROUNDTRIP
360
1089
0
DICTIONARY
5
1096
330
F9F
100
AcDbDictionary
280
1
281
1
3
ACAD_XREC_ROUNDTRIP
360
1097
0
DICTIONARY
5
109E
330
FA3
100
AcDbDictionary
280
1
281
1
3
ACAD_XREC_ROUNDTRIP
360
109F
0
DICTIONARY
5
1090
330
F9C
100
AcDbDictionary
280
1
281
1
3
ACAD_XREC_ROUNDTRIP
360
1091
0
DICTIONARY
5
1094
330
F9E
100
AcDbDictionary
280
1
281
1
3
ACAD_XREC_ROUNDTRIP
360
1095
0
DICTIONARY
5
10A4
330
FA6
100
AcDbDictionary
280
1
281
1
3
ACAD_XREC_ROUNDTRIP
360
10A5
0
DICTIONARY
5
109C
330
FA2
100
AcDbDictionary
280
1
281
1
3
ACAD_XREC_ROUNDTRIP
360
109D
0
DICTIONARY
5
1080
330
F94
100
AcDbDictionary
280
1
281
1
3
ACAD_XREC_ROUNDTRIP
360
1081
0
DICTIONARY
5
1082
330
F95
100
AcDbDictionary
280
1
281
1
3
ACAD_XREC_ROUNDTRIP
360
1083
0
DICTIONARY
5
1084
330
F96
100
AcDbDictionary
280
1
281
1
3
ACAD_XREC_ROUNDTRIP
360
1085
0
DICTIONARY
5
1086
330
F97
100
AcDbDictionary
280
1
281
1
3
ACAD_XREC_ROUNDTRIP
360
1087
0
DICTIONARY
5
10A0
330
FA4
100
AcDbDictionary
280
1
281
1
3
ACAD_XREC_ROUNDTRIP
360
10A1
0
DICTIONARY
5
109A
330
FA1
100
AcDbDictionary
280
1
281
1
3
ACAD_XREC_ROUNDTRIP
360
109B
0
DICTIONARY
5
10A2
330
FA5
100
AcDbDictionary
280
1
281
1
3
ACAD_XREC_ROUNDTRIP
360
10A3
0
DICTIONARY
5
1092
330
F9D
100
AcDbDictionary
280
1
281
1
3
ACAD_XREC_ROUNDTRIP
360
1093
0
DICTIONARY
5
1098
330
FA0
100
AcDbDictionary
280
1
281
1
3
ACAD_XREC_ROUNDTRIP
360
1099
0
XRECORD
5
10AA
102
{ACAD_REACTORS
330
10A9
102
}
330
10A9
100
AcDbXrecord
280
1
102
SHADEPLOT
70
0
102
SHADEPLOTRESLEVEL
70
2
102
SHADEPLOTCUSTOMDPI
70
300
0
XRECORD
5
10A8
102
{ACAD_REACTORS
330
10A7
102
}
330
10A7
100
AcDbXrecord
280
1
102
SHADEPLOT
70
0
102
SHADEPLOTRESLEVEL
70
2
102
SHADEPLOTCUSTOMDPI
70
300
0
XRECORD
5
FFF
102
{ACAD_REACTORS
330
F84
102
}
330
F84
100
AcDbXrecord
280
1
102
MATERIAL
148
0.0
149
0.0
149
0.0
93
0
94
127
282
0
72
0
77
0
171
0
175
0
179
0
273
0
0
XRECORD
5
F86
102
{ACAD_REACTORS
330
F84
102
}
330
F84
100
AcDbXrecord
280
1
270
1
271
1
0
XRECORD
5
F85
102
{ACAD_REACTORS
330
F84
102
}
330
F84
100
AcDbXrecord
280
1
270
1
271
1
0
XRECORD
5
F89
102
{ACAD_REACTORS
330
F84
102
}
330
F84
100
AcDbXrecord
280
1
270
1
271
1
0
XRECORD
5
F88
102
{ACAD_REACTORS
330
F84
102
}
330
F84
100
AcDbXrecord
280
1
270
1
271
1
0
XRECORD
5
F8A
102
{ACAD_REACTORS
330
F84
102
}
330
F84
100
AcDbXrecord
280
1
270
1
271
1
0
XRECORD
5
F87
102
{ACAD_REACTORS
330
F84
102
}
330
F84
100
AcDbXrecord
280
1
270
1
271
1
0
XRECORD
5
FFE
102
{ACAD_REACTORS
330
F7C
102
}
330
F7C
100
AcDbXrecord
280
1
102
MATERIAL
148
0.0
149
0.0
149
0.0
93
0
94
127
282
0
72
0
77
0
171
0
175
0
179
0
273
0
0
XRECORD
5
F7E
102
{ACAD_REACTORS
330
F7C
102
}
330
F7C
100
AcDbXrecord
280
1
270
1
271
1
0
XRECORD
5
F7D
102
{ACAD_REACTORS
330
F7C
102
}
330
F7C
100
AcDbXrecord
280
1
270
1
271
1
0
XRECORD
5
F81
102
{ACAD_REACTORS
330
F7C
102
}
330
F7C
100
AcDbXrecord
280
1
270
1
271
1
0
XRECORD
5
F80
102
{ACAD_REACTORS
330
F7C
102
}
330
F7C
100
AcDbXrecord
280
1
270
1
271
1
0
XRECORD
5
F82
102
{ACAD_REACTORS
330
F7C
102
}
330
F7C
100
AcDbXrecord
280
1
270
1
271
1
0
XRECORD
5
F7F
102
{ACAD_REACTORS
330
F7C
102
}
330
F7C
100
AcDbXrecord
280
1
270
1
271
1
0
XRECORD
5
1000
102
{ACAD_REACTORS
330
F8C
102
}
330
F8C
100
AcDbXrecord
280
1
102
MATERIAL
148
0.0
149
0.0
149
0.0
93
0
94
127
282
0
72
0
77
0
171
0
175
0
179
0
273
0
0
XRECORD
5
F8E
102
{ACAD_REACTORS
330
F8C
102
}
330
F8C
100
AcDbXrecord
280
1
270
1
271
1
0
XRECORD
5
F8D
102
{ACAD_REACTORS
330
F8C
102
}
330
F8C
100
AcDbXrecord
280
1
270
1
271
1
0
XRECORD
5
F91
102
{ACAD_REACTORS
330
F8C
102
}
330
F8C
100
AcDbXrecord
280
1
270
1
271
1
0
XRECORD
5
F90
102
{ACAD_REACTORS
330
F8C
102
}
330
F8C
100
AcDbXrecord
280
1
270
1
271
1
0
XRECORD
5
F92
102
{ACAD_REACTORS
330
F8C
102
}
330
F8C
100
AcDbXrecord
280
1
270
1
271
1
0
XRECORD
5
F8F
102
{ACAD_REACTORS
330
F8C
102
}
330
F8C
100
AcDbXrecord
280
1
270
1
271
1
0
CELLSTYLEMAP
5
1079
102
{ACAD_REACTORS
330
FF8
102
}
330
FF8
100
AcDbCellStyleMap
90
3
300
CELLSTYLE
1
TABLEFORMAT_BEGIN
90
5
170
1
91
0
92
32768
62
257
93
1
300
CONTENTFORMAT
1
CONTENTFORMAT_BEGIN
90
0
91
0
92
512
93
0
300

40
0.0
140
1.0
94
5
62
0
340
253
144
0.25
309
CONTENTFORMAT_END
171
1
301
MARGIN
1
CELLMARGIN_BEGIN
40
0.06
40
0.06
40
0.06
40
0.06
40
0.18
40
0.18
309
CELLMARGIN_END
94
6
95
1
302
GRIDFORMAT
1
GRIDFORMAT_BEGIN
90
0
91
1
62
0
92
-2
340
0
93
0
40
0.045
309
GRIDFORMAT_END
95
2
302
GRIDFORMAT
1
GRIDFORMAT_BEGIN
90
0
91
1
62
0
92
-2
340
0
93
0
40
0.045
309
GRIDFORMAT_END
95
4
302
GRIDFORMAT
1
GRIDFORMAT_BEGIN
90
0
91
1
62
0
92
-2
340
0
93
0
40
0.045
309
GRIDFORMAT_END
95
8
302
GRIDFORMAT
1
GRIDFORMAT_BEGIN
90
0
91
1
62
0
92
-2
340
0
93
0
40
0.045
309
GRIDFORMAT_END
95
16
302
GRIDFORMAT
1
GRIDFORMAT_BEGIN
90
0
91
1
62
0
92
-2
340
0
93
0
40
0.045
309
GRIDFORMAT_END
95
32
302
GRIDFORMAT
1
GRIDFORMAT_BEGIN
90
0
91
1
62
0
92
-2
340
0
93
0
40
0.045
309
GRIDFORMAT_END
309
TABLEFORMAT_END
1
CELLSTYLE_BEGIN
90
1
91
1
300
_TITLE
309
CELLSTYLE_END
300
CELLSTYLE
1
TABLEFORMAT_BEGIN
90
5
170
1
91
0
92
0
62
257
93
1
300
CONTENTFORMAT
1
CONTENTFORMAT_BEGIN
90
0
91
0
92
512
93
0
300

40
0.0
140
1.0
94
5
62
0
340
253
144
0.18
309
CONTENTFORMAT_END
171
1
301
MARGIN
1
CELLMARGIN_BEGIN
40
0.06
40
0.06
40
0.06
40
0.06
40
0.18
40
0.18
309
CELLMARGIN_END
94
6
95
1
302
GRIDFORMAT
1
GRIDFORMAT_BEGIN
90
0
91
1
62
0
92
-2
340
0
93
0
40
0.045
309
GRIDFORMAT_END
95
2
302
GRIDFORMAT
1
GRIDFORMAT_BEGIN
90
0
91
1
62
0
92
-2
340
0
93
0
40
0.045
309
GRIDFORMAT_END
95
4
302
GRIDFORMAT
1
GRIDFORMAT_BEGIN
90
0
91
1
62
0
92
-2
340
0
93
0
40
0.045
309
GRIDFORMAT_END
95
8
302
GRIDFORMAT
1
GRIDFORMAT_BEGIN
90
0
91
1
62
0
92
-2
340
0
93
0
40
0.045
309
GRIDFORMAT_END
95
16
302
GRIDFORMAT
1
GRIDFORMAT_BEGIN
90
0
91
1
62
0
92
-2
340
0
93
0
40
0.045
309
GRIDFORMAT_END
95
32
302
GRIDFORMAT
1
GRIDFORMAT_BEGIN
90
0
91
1
62
0
92
-2
340
0
93
0
40
0.045
309
GRIDFORMAT_END
309
TABLEFORMAT_END
1
CELLSTYLE_BEGIN
90
2
91
1
300
_HEADER
309
CELLSTYLE_END
300
CELLSTYLE
1
TABLEFORMAT_BEGIN
90
5
170
1
91
0
92
0
62
257
93
1
300
CONTENTFORMAT
1
CONTENTFORMAT_BEGIN
90
0
91
0
92
512
93
0
300

40
0.0
140
1.0
94
2
62
0
340
253
144
0.18
309
CONTENTFORMAT_END
171
1
301
MARGIN
1
CELLMARGIN_BEGIN
40
0.06
40
0.06
40
0.06
40
0.06
40
0.18
40
0.18
309
CELLMARGIN_END
94
6
95
1
302
GRIDFORMAT
1
GRIDFORMAT_BEGIN
90
0
91
1
62
0
92
-2
340
0
93
0
40
0.045
309
GRIDFORMAT_END
95
2
302
GRIDFORMAT
1
GRIDFORMAT_BEGIN
90
0
91
1
62
0
92
-2
340
0
93
0
40
0.045
309
GRIDFORMAT_END
95
4
302
GRIDFORMAT
1
GRIDFORMAT_BEGIN
90
0
91
1
62
0
92
-2
340
0
93
0
40
0.045
309
GRIDFORMAT_END
95
8
302
GRIDFORMAT
1
GRIDFORMAT_BEGIN
90
0
91
1
62
0
92
-2
340
0
93
0
40
0.045
309
GRIDFORMAT_END
95
16
302
GRIDFORMAT
1
GRIDFORMAT_BEGIN
90
0
91
1
62
0
92
-2
340
0
93
0
40
0.045
309
GRIDFORMAT_END
95
32
302
GRIDFORMAT
1
GRIDFORMAT_BEGIN
90
0
91
1
62
0
92
-2
340
0
93
0
40
0.045
309
GRIDFORMAT_END
309
TABLEFORMAT_END
1
CELLSTYLE_BEGIN
90
3
91
2
300
_DATA
309
CELLSTYLE_END
0
XRECORD
5
10A6
102
{ACAD_REACTORS
330
FF8
102
}
330
FF8
100
AcDbXrecord
280
1
102
ACAD_ROUNDTRIP_PRE2007_TABLESTYLE
90
512
91
0
1

92
512
93
0
2

94
512
95
0
3

0
XRECORD
5
108B
102
{ACAD_REACTORS
330
108A
102
}
330
108A
100
AcDbXrecord
280
1
102
RTVSPropertyOp0
70
1
102
RTVSPropertyOp1
70
1
102
RTVSPropertyOp2
70
1
102
RTVSPropertyOp3
70
1
102
RTVSPropertyOp4
70
1
102
RTVSPropertyOp5
70
1
102
RTVSPropertyOp6
70
1
102
RTVSPropertyOp7
70
1
102
RTVSPropertyOp8
70
1
102
RTVSPropertyOp9
70
1
102
RTVSPropertyOp10
70
1
102
RTVSPropertyOp11
70
1
102
RTVSPropertyOp12
70
1
102
RTVSPropertyOp13
70
1
102
RTVSPropertyOp14
70
1
102
RTVSPropertyOp15
70
1
102
RTVSPropertyOp16
70
1
102
RTVSPropertyOp17
70
1
102
RTVSPropertyOp18
70
1
102
RTVSPropertyOp19
70
1
102
RTVSPropertyOp20
70
1
102
RTVSPropertyOp21
70
1
102
RTVSPropertyOp22
70
1
102
RTVSPropertyOp23
70
1
102
RTVSPropertyOp24
70
1
102
RTVSPropertyOp25
70
1
102
RTVSPropertyOp26
70
1
102
RTVSPropertyOp27
70
1
0
XRECORD
5
108F
102
{ACAD_REACTORS
330
108E
102
}
330
108E
100
AcDbXrecord
280
1
102
RTVSPropertyOp0
70
1
102
RTVSPropertyOp1
70
1
102
RTVSPropertyOp2
70
1
102
RTVSPropertyOp3
70
1
102
RTVSPropertyOp4
70
1
102
RTVSPropertyOp5
70
1
102
RTVSPropertyOp6
70
1
102
RTVSPropertyOp7
70
1
102
RTVSPropertyOp8
70
1
102
RTVSPropertyOp9
70
1
102
RTVSPropertyOp10
70
1
102
RTVSPropertyOp11
70
1
102
RTVSPropertyOp12
70
1
102
RTVSPropertyOp13
70
1
102
RTVSPropertyOp14
70
1
102
RTVSPropertyOp15
70
1
102
RTVSPropertyOp16
70
1
102
RTVSPropertyOp17
70
1
102
RTVSPropertyOp18
70
1
102
RTVSPropertyOp19
70
1
102
RTVSPropertyOp20
70
1
102
RTVSPropertyOp21
70
1
102
RTVSPropertyOp22
70
1
102
RTVSPropertyOp23
70
1
102
RTVSPropertyOp24
70
1
102
RTVSPropertyOp25
70
1
102
RTVSPropertyOp26
70
1
102
RTVSPropertyOp27
70
1
0
XRECORD
5
108D
102
{ACAD_REACTORS
330
108C
102
}
330
108C
100
AcDbXrecord
280
1
102
RTVSPropertyOp0
70
1
102
RTVSPropertyOp1
70
1
102
RTVSPropertyOp2
70
1
102
RTVSPropertyOp3
70
1
102
RTVSPropertyOp4
70
1
102
RTVSPropertyOp5
70
1
102
RTVSPropertyOp6
70
1
102
RTVSPropertyOp7
70
1
102
RTVSPropertyOp8
70
1
102
RTVSPropertyOp9
70
1
102
RTVSPropertyOp10
70
1
102
RTVSPropertyOp11
70
1
102
RTVSPropertyOp12
70
1
102
RTVSPropertyOp13
70
1
102
RTVSPropertyOp14
70
1
102
RTVSPropertyOp15
70
1
102
RTVSPropertyOp16
70
1
102
RTVSPropertyOp17
70
1
102
RTVSPropertyOp18
70
1
102
RTVSPropertyOp19
70
1
102
RTVSPropertyOp20
70
1
102
RTVSPropertyOp21
70
1
102
RTVSPropertyOp22
70
1
102
RTVSPropertyOp23
70
1
102
RTVSPropertyOp24
70
1
102
RTVSPropertyOp25
70
1
102
RTVSPropertyOp26
70
1
102
RTVSPropertyOp27
70
1
0
XRECORD
5
1089
102
{ACAD_REACTORS
330
1088
102
}
330
1088
100
AcDbXrecord
280
1
102
RTVSPropertyOp0
70
1
102
RTVSPropertyOp1
70
1
102
RTVSPropertyOp2
70
1
102
RTVSPropertyOp3
70
1
102
RTVSPropertyOp4
70
1
102
RTVSPropertyOp5
70
1
102
RTVSPropertyOp6
70
1
102
RTVSPropertyOp7
70
1
102
RTVSPropertyOp8
70
1
102
RTVSPropertyOp9
70
1
102
RTVSPropertyOp10
70
1
102
RTVSPropertyOp11
70
1
102
RTVSPropertyOp12
70
1
102
RTVSPropertyOp13
70
1
102
RTVSPropertyOp14
70
1
102
RTVSPropertyOp15
70
1
102
RTVSPropertyOp16
70
1
102
RTVSPropertyOp17
70
1
102
RTVSPropertyOp18
70
1
102
RTVSPropertyOp19
70
1
102
RTVSPropertyOp20
70
1
102
RTVSPropertyOp21
70
1
102
RTVSPropertyOp22
70
1
102
RTVSPropertyOp23
70
1
102
RTVSPropertyOp24
70
1
102
RTVSPropertyOp25
70
1
102
RTVSPropertyOp26
70
1
102
RTVSPropertyOp27
70
1
0
XRECORD
5
1097
102
{ACAD_REACTORS
330
1096
102
}
330
1096
100
AcDbXrecord
280
1
102
RTVSPropertyOp0
70
1
102
RTVSPropertyOp1
70
1
102
RTVSPropertyOp2
70
1
102
RTVSPropertyOp3
70
1
102
RTVSPropertyOp4
70
1
102
RTVSPropertyOp5
70
1
102
RTVSPropertyOp6
70
1
102
RTVSPropertyOp7
70
1
102
RTVSPropertyOp8
70
1
102
RTVSPropertyOp9
70
1
102
RTVSPropertyOp10
70
1
102
RTVSPropertyOp11
70
1
102
RTVSPropertyOp12
70
1
102
RTVSPropertyOp13
70
1
102
RTVSPropertyOp14
70
1
102
RTVSPropertyOp15
70
1
102
RTVSPropertyOp16
70
1
102
RTVSPropertyOp17
70
1
102
RTVSPropertyOp18
70
1
102
RTVSPropertyOp19
70
1
102
RTVSPropertyOp20
70
1
102
RTVSPropertyOp21
70
1
102
RTVSPropertyOp22
70
1
102
RTVSPropertyOp23
70
1
102
RTVSPropertyOp24
70
1
102
RTVSPropertyOp25
70
1
102
RTVSPropertyOp26
70
1
102
RTVSPropertyOp27
70
1
0
XRECORD
5
109F
102
{ACAD_REACTORS
330
109E
102
}
330
109E
100
AcDbXrecord
280
1
102
RTVSPropertyOp0
70
1
102
RTVSPropertyOp1
70
1
102
RTVSPropertyOp2
70
1
102
RTVSPropertyOp3
70
1
102
RTVSPropertyOp4
70
1
102
RTVSPropertyOp5
70
1
102
RTVSPropertyOp6
70
1
102
RTVSPropertyOp7
70
1
102
RTVSPropertyOp8
70
1
102
RTVSPropertyOp9
70
1
102
RTVSPropertyOp10
70
1
102
RTVSPropertyOp11
70
1
102
RTVSPropertyOp12
70
1
102
RTVSPropertyOp13
70
1
102
RTVSPropertyOp14
70
1
102
RTVSPropertyOp15
70
1
102
RTVSPropertyOp16
70
1
102
RTVSPropertyOp17
70
1
102
RTVSPropertyOp18
70
1
102
RTVSPropertyOp19
70
1
102
RTVSPropertyOp20
70
1
102
RTVSPropertyOp21
70
1
102
RTVSPropertyOp22
70
1
102
RTVSPropertyOp23
70
1
102
RTVSPropertyOp24
70
1
102
RTVSPropertyOp25
70
1
102
RTVSPropertyOp26
70
1
102
RTVSPropertyOp27
70
1
0
XRECORD
5
1091
102
{ACAD_REACTORS
330
1090
102
}
330
1090
100
AcDbXrecord
280
1
102
RTVSPropertyOp0
70
1
102
RTVSPropertyOp1
70
1
102
RTVSPropertyOp2
70
1
102
RTVSPropertyOp3
70
1
102
RTVSPropertyOp4
70
1
102
RTVSPropertyOp5
70
1
102
RTVSPropertyOp6
70
1
102
RTVSPropertyOp7
70
1
102
RTVSPropertyOp8
70
1
102
RTVSPropertyOp9
70
1
102
RTVSPropertyOp10
70
1
102
RTVSPropertyOp11
70
1
102
RTVSPropertyOp12
70
1
102
RTVSPropertyOp13
70
1
102
RTVSPropertyOp14
70
1
102
RTVSPropertyOp15
70
1
102
RTVSPropertyOp16
70
1
102
RTVSPropertyOp17
70
1
102
RTVSPropertyOp18
70
1
102
RTVSPropertyOp19
70
1
102
RTVSPropertyOp20
70
1
102
RTVSPropertyOp21
70
1
102
RTVSPropertyOp22
70
1
102
RTVSPropertyOp23
70
1
102
RTVSPropertyOp24
70
1
102
RTVSPropertyOp25
70
1
102
RTVSPropertyOp26
70
1
102
RTVSPropertyOp27
70
1
0
XRECORD
5
1095
102
{ACAD_REACTORS
330
1094
102
}
330
1094
100
AcDbXrecord
280
1
102
RTVSPropertyOp0
70
1
102
RTVSPropertyOp1
70
1
102
RTVSPropertyOp2
70
1
102
RTVSPropertyOp3
70
1
102
RTVSPropertyOp4
70
1
102
RTVSPropertyOp5
70
1
102
RTVSPropertyOp6
70
1
102
RTVSPropertyOp7
70
1
102
RTVSPropertyOp8
70
1
102
RTVSPropertyOp9
70
1
102
RTVSPropertyOp10
70
1
102
RTVSPropertyOp11
70
1
102
RTVSPropertyOp12
70
1
102
RTVSPropertyOp13
70
1
102
RTVSPropertyOp14
70
1
102
RTVSPropertyOp15
70
1
102
RTVSPropertyOp16
70
1
102
RTVSPropertyOp17
70
1
102
RTVSPropertyOp18
70
1
102
RTVSPropertyOp19
70
1
102
RTVSPropertyOp20
70
1
102
RTVSPropertyOp21
70
1
102
RTVSPropertyOp22
70
1
102
RTVSPropertyOp23
70
1
102
RTVSPropertyOp24
70
1
102
RTVSPropertyOp25
70
1
102
RTVSPropertyOp26
70
1
102
RTVSPropertyOp27
70
1
0
XRECORD
5
10A5
102
{ACAD_REACTORS
330
10A4
102
}
330
10A4
100
AcDbXrecord
280
1
102
RTVSPropertyOp0
70
0
102
RTVSPropertyOp1
70
0
102
RTVSPropertyOp2
70
0
102
RTVSPropertyOp3
70
0
102
RTVSPropertyOp4
70
0
102
RTVSPropertyOp5
70
0
102
RTVSPropertyOp6
70
0
102
RTVSPropertyOp7
70
0
102
RTVSPropertyOp8
70
0
102
RTVSPropertyOp9
70
0
102
RTVSPropertyOp10
70
0
102
RTVSPropertyOp11
70
0
102
RTVSPropertyOp12
70
0
102
RTVSPropertyOp13
70
0
102
RTVSPropertyOp14
70
2
102
RTVSPropertyOp15
70
0
102
RTVSPropertyOp16
70
0
102
RTVSPropertyOp17
70
0
102
RTVSPropertyOp18
70
0
102
RTVSPropertyOp19
70
0
102
RTVSPropertyOp20
70
0
102
RTVSPropertyOp21
70
0
102
RTVSPropertyOp22
70
0
102
RTVSPropertyOp23
70
0
102
RTVSPropertyOp24
70
0
102
RTVSPropertyOp25
70
0
102
RTVSPropertyOp26
70
0
102
RTVSPropertyOp27
70
0
0
XRECORD
5
109D
102
{ACAD_REACTORS
330
109C
102
}
330
109C
100
AcDbXrecord
280
1
102
RTVSPropertyOp0
70
1
102
RTVSPropertyOp1
70
1
102
RTVSPropertyOp2
70
1
102
RTVSPropertyOp3
70
1
102
RTVSPropertyOp4
70
1
102
RTVSPropertyOp5
70
1
102
RTVSPropertyOp6
70
1
102
RTVSPropertyOp7
70
1
102
RTVSPropertyOp8
70
1
102
RTVSPropertyOp9
70
1
102
RTVSPropertyOp10
70
1
102
RTVSPropertyOp11
70
1
102
RTVSPropertyOp12
70
1
102
RTVSPropertyOp13
70
1
102
RTVSPropertyOp14
70
1
102
RTVSPropertyOp15
70
1
102
RTVSPropertyOp16
70
1
102
RTVSPropertyOp17
70
1
102
RTVSPropertyOp18
70
1
102
RTVSPropertyOp19
70
1
102
RTVSPropertyOp20
70
1
102
RTVSPropertyOp21
70
1
102
RTVSPropertyOp22
70
1
102
RTVSPropertyOp23
70
1
102
RTVSPropertyOp24
70
1
102
RTVSPropertyOp25
70
1
102
RTVSPropertyOp26
70
1
102
RTVSPropertyOp27
70
1
0
XRECORD
5
1081
102
{ACAD_REACTORS
330
1080
102
}
330
1080
100
AcDbXrecord
280
1
102
RTVSPropertyOp0
70
1
102
RTVSPropertyOp1
70
1
102
RTVSPropertyOp2
70
1
102
RTVSPropertyOp3
70
1
102
RTVSPropertyOp4
70
1
102
RTVSPropertyOp5
70
1
102
RTVSPropertyOp6
70
1
102
RTVSPropertyOp7
70
1
102
RTVSPropertyOp8
70
1
102
RTVSPropertyOp9
70
1
102
RTVSPropertyOp10
70
1
102
RTVSPropertyOp11
70
1
102
RTVSPropertyOp12
70
1
102
RTVSPropertyOp13
70
1
102
RTVSPropertyOp14
70
1
102
RTVSPropertyOp15
70
1
102
RTVSPropertyOp16
70
1
102
RTVSPropertyOp17
70
1
102
RTVSPropertyOp18
70
1
102
RTVSPropertyOp19
70
1
102
RTVSPropertyOp20
70
1
102
RTVSPropertyOp21
70
1
102
RTVSPropertyOp22
70
1
102
RTVSPropertyOp23
70
1
102
RTVSPropertyOp24
70
1
102
RTVSPropertyOp25
70
1
102
RTVSPropertyOp26
70
1
102
RTVSPropertyOp27
70
1
0
XRECORD
5
1083
102
{ACAD_REACTORS
330
1082
102
}
330
1082
100
AcDbXrecord
280
1
102
RTVSPropertyOp0
70
1
102
RTVSPropertyOp1
70
1
102
RTVSPropertyOp2
70
1
102
RTVSPropertyOp3
70
1
102
RTVSPropertyOp4
70
1
102
RTVSPropertyOp5
70
1
102
RTVSPropertyOp6
70
1
102
RTVSPropertyOp7
70
1
102
RTVSPropertyOp8
70
1
102
RTVSPropertyOp9
70
1
102
RTVSPropertyOp10
70
1
102
RTVSPropertyOp11
70
1
102
RTVSPropertyOp12
70
1
102
RTVSPropertyOp13
70
1
102
RTVSPropertyOp14
70
1
102
RTVSPropertyOp15
70
1
102
RTVSPropertyOp16
70
1
102
RTVSPropertyOp17
70
1
102
RTVSPropertyOp18
70
1
102
RTVSPropertyOp19
70
1
102
RTVSPropertyOp20
70
1
102
RTVSPropertyOp21
70
1
102
RTVSPropertyOp22
70
1
102
RTVSPropertyOp23
70
1
102
RTVSPropertyOp24
70
1
102
RTVSPropertyOp25
70
1
102
RTVSPropertyOp26
70
1
102
RTVSPropertyOp27
70
1
0
XRECORD
5
1085
102
{ACAD_REACTORS
330
1084
102
}
330
1084
100
AcDbXrecord
280
1
102
RTVSPropertyOp0
70
1
102
RTVSPropertyOp1
70
1
102
RTVSPropertyOp2
70
1
102
RTVSPropertyOp3
70
1
102
RTVSPropertyOp4
70
1
102
RTVSPropertyOp5
70
1
102
RTVSPropertyOp6
70
1
102
RTVSPropertyOp7
70
1
102
RTVSPropertyOp8
70
1
102
RTVSPropertyOp9
70
1
102
RTVSPropertyOp10
70
1
102
RTVSPropertyOp11
70
1
102
RTVSPropertyOp12
70
1
102
RTVSPropertyOp13
70
1
102
RTVSPropertyOp14
70
1
102
RTVSPropertyOp15
70
1
102
RTVSPropertyOp16
70
1
102
RTVSPropertyOp17
70
1
102
RTVSPropertyOp18
70
1
102
RTVSPropertyOp19
70
1
102
RTVSPropertyOp20
70
1
102
RTVSPropertyOp21
70
1
102
RTVSPropertyOp22
70
1
102
RTVSPropertyOp23
70
1
102
RTVSPropertyOp24
70
1
102
RTVSPropertyOp25
70
1
102
RTVSPropertyOp26
70
1
102
RTVSPropertyOp27
70
1
0
XRECORD
5
1087
102
{ACAD_REACTORS
330
1086
102
}
330
1086
100
AcDbXrecord
280
1
102
RTVSPropertyOp0
70
1
102
RTVSPropertyOp1
70
1
102
RTVSPropertyOp2
70
1
102
RTVSPropertyOp3
70
1
102
RTVSPropertyOp4
70
1
102
RTVSPropertyOp5
70
1
102
RTVSPropertyOp6
70
1
102
RTVSPropertyOp7
70
1
102
RTVSPropertyOp8
70
1
102
RTVSPropertyOp9
70
1
102
RTVSPropertyOp10
70
1
102
RTVSPropertyOp11
70
1
102
RTVSPropertyOp12
70
1
102
RTVSPropertyOp13
70
1
102
RTVSPropertyOp14
70
1
102
RTVSPropertyOp15
70
1
102
RTVSPropertyOp16
70
1
102
RTVSPropertyOp17
70
1
102
RTVSPropertyOp18
70
1
102
RTVSPropertyOp19
70
1
102
RTVSPropertyOp20
70
1
102
RTVSPropertyOp21
70
1
102
RTVSPropertyOp22
70
1
102
RTVSPropertyOp23
70
1
102
RTVSPropertyOp24
70
1
102
RTVSPropertyOp25
70
1
102
RTVSPropertyOp26
70
1
102
RTVSPropertyOp27
70
1
0
XRECORD
5
10A1
102
{ACAD_REACTORS
330
10A0
102
}
330
10A0
100
AcDbXrecord
280
1
102
RTVSPropertyOp0
70
0
102
RTVSPropertyOp1
70
0
102
RTVSPropertyOp2
70
0
102
RTVSPropertyOp3
70
0
102
RTVSPropertyOp4
70
0
102
RTVSPropertyOp5
70
0
102
RTVSPropertyOp6
70
0
102
RTVSPropertyOp7
70
0
102
RTVSPropertyOp8
70
0
102
RTVSPropertyOp9
70
0
102
RTVSPropertyOp10
70
0
102
RTVSPropertyOp11
70
0
102
RTVSPropertyOp12
70
0
102
RTVSPropertyOp13
70
0
102
RTVSPropertyOp14
70
2
102
RTVSPropertyOp15
70
0
102
RTVSPropertyOp16
70
0
102
RTVSPropertyOp17
70
0
102
RTVSPropertyOp18
70
0
102
RTVSPropertyOp19
70
0
102
RTVSPropertyOp20
70
0
102
RTVSPropertyOp21
70
0
102
RTVSPropertyOp22
70
0
102
RTVSPropertyOp23
70
0
102
RTVSPropertyOp24
70
0
102
RTVSPropertyOp25
70
0
102
RTVSPropertyOp26
70
0
102
RTVSPropertyOp27
70
0
0
XRECORD
5
109B
102
{ACAD_REACTORS
330
109A
102
}
330
109A
100
AcDbXrecord
280
1
102
RTVSPropertyOp0
70
1
102
RTVSPropertyOp1
70
1
102
RTVSPropertyOp2
70
1
102
RTVSPropertyOp3
70
1
102
RTVSPropertyOp4
70
1
102
RTVSPropertyOp5
70
1
102
RTVSPropertyOp6
70
1
102
RTVSPropertyOp7
70
1
102
RTVSPropertyOp8
70
1
102
RTVSPropertyOp9
70
1
102
RTVSPropertyOp10
70
1
102
RTVSPropertyOp11
70
1
102
RTVSPropertyOp12
70
1
102
RTVSPropertyOp13
70
1
102
RTVSPropertyOp14
70
1
102
RTVSPropertyOp15
70
1
102
RTVSPropertyOp16
70
1
102
RTVSPropertyOp17
70
1
102
RTVSPropertyOp18
70
1
102
RTVSPropertyOp19
70
1
102
RTVSPropertyOp20
70
1
102
RTVSPropertyOp21
70
1
102
RTVSPropertyOp22
70
1
102
RTVSPropertyOp23
70
1
102
RTVSPropertyOp24
70
1
102
RTVSPropertyOp25
70
1
102
RTVSPropertyOp26
70
1
102
RTVSPropertyOp27
70
1
0
XRECORD
5
10A3
102
{ACAD_REACTORS
330
10A2
102
}
330
10A2
100
AcDbXrecord
280
1
102
RTVSPropertyOp0
70
0
102
RTVSPropertyOp1
70
0
102
RTVSPropertyOp2
70
0
102
RTVSPropertyOp3
70
0
102
RTVSPropertyOp4
70
0
102
RTVSPropertyOp5
70
0
102
RTVSPropertyOp6
70
0
102
RTVSPropertyOp7
70
0
102
RTVSPropertyOp8
70
0
102
RTVSPropertyOp9
70
0
102
RTVSPropertyOp10
70
0
102
RTVSPropertyOp11
70
0
102
RTVSPropertyOp12
70
0
102
RTVSPropertyOp13
70
0
102
RTVSPropertyOp14
70
2
102
RTVSPropertyOp15
70
0
102
RTVSPropertyOp16
70
0
102
RTVSPropertyOp17
70
0
102
RTVSPropertyOp18
70
0
102
RTVSPropertyOp19
70
0
102
RTVSPropertyOp20
70
0
102
RTVSPropertyOp21
70
0
102
RTVSPropertyOp22
70
0
102
RTVSPropertyOp23
70
0
102
RTVSPropertyOp24
70
0
102
RTVSPropertyOp25
70
0
102
RTVSPropertyOp26
70
0
102
RTVSPropertyOp27
70
0
0
XRECORD
5
1093
102
{ACAD_REACTORS
330
1092
102
}
330
1092
100
AcDbXrecord
280
1
102
RTVSPropertyOp0
70
1
102
RTVSPropertyOp1
70
1
102
RTVSPropertyOp2
70
1
102
RTVSPropertyOp3
70
1
102
RTVSPropertyOp4
70
1
102
RTVSPropertyOp5
70
1
102
RTVSPropertyOp6
70
1
102
RTVSPropertyOp7
70
1
102
RTVSPropertyOp8
70
1
102
RTVSPropertyOp9
70
1
102
RTVSPropertyOp10
70
1
102
RTVSPropertyOp11
70
1
102
RTVSPropertyOp12
70
1
102
RTVSPropertyOp13
70
1
102
RTVSPropertyOp14
70
1
102
RTVSPropertyOp15
70
1
102
RTVSPropertyOp16
70
1
102
RTVSPropertyOp17
70
1
102
RTVSPropertyOp18
70
1
102
RTVSPropertyOp19
70
1
102
RTVSPropertyOp20
70
1
102
RTVSPropertyOp21
70
1
102
RTVSPropertyOp22
70
1
102
RTVSPropertyOp23
70
1
102
RTVSPropertyOp24
70
1
102
RTVSPropertyOp25
70
1
102
RTVSPropertyOp26
70
1
102
RTVSPropertyOp27
70
1
0
XRECORD
5
1099
102
{ACAD_REACTORS
330
1098
102
}
330
1098
100
AcDbXrecord
280
1
102
RTVSPropertyOp0
70
1
102
RTVSPropertyOp1
70
1
102
RTVSPropertyOp2
70
1
102
RTVSPropertyOp3
70
1
102
RTVSPropertyOp4
70
1
102
RTVSPropertyOp5
70
1
102
RTVSPropertyOp6
70
1
102
RTVSPropertyOp7
70
1
102
RTVSPropertyOp8
70
1
102
RTVSPropertyOp9
70
1
102
RTVSPropertyOp10
70
1
102
RTVSPropertyOp11
70
1
102
RTVSPropertyOp12
70
1
102
RTVSPropertyOp13
70
1
102
RTVSPropertyOp14
70
1
102
RTVSPropertyOp15
70
1
102
RTVSPropertyOp16
70
1
102
RTVSPropertyOp17
70
1
102
RTVSPropertyOp18
70
1
102
RTVSPropertyOp19
70
1
102
RTVSPropertyOp20
70
1
102
RTVSPropertyOp21
70
1
102
RTVSPropertyOp22
70
1
102
RTVSPropertyOp23
70
1
102
RTVSPropertyOp24
70
1
102
RTVSPropertyOp25
70
1
102
RTVSPropertyOp26
70
1
102
RTVSPropertyOp27
70
1
0
ENDSEC
0
EOF
