0
SECTION
2
HEADER
9
$ACADVER
1
AC1015
9
$ACADMAINTVER
70
20
9
$DWGCODEPAGE
3
ANSI_1252
9
$INSBASE
10
0.0
20
0.0
30
0.0
9
$EXTMIN
10
-150.000000000000
20
-105.000000000000
30
0.0
9
$EXTMAX
10
150.000000000000
20
105.000000000000
30
0.0
9
$LIMMIN
10
0.0
20
0.0
9
$LIMMAX
10
12.0
20
9.0
9
$ORTHOMODE
70
0
9
$REGENMODE
70
1
9
$FILLMODE
70
1
9
$QTEXTMODE
70
0
9
$MIRRTEXT
70
1
9
$LTSCALE
40
1.0
9
$ATTMODE
70
1
9
$TEXTSIZE
40
0.2
9
$TRACEWID
40
0.05
9
$TEXTSTYLE
7
Standard
9
$CLAYER
8
0
9
$CELTYPE
6
ByLayer
9
$CECOLOR
62
256
9
$CELTSCALE
40
1.0
9
$DISPSILH
70
0
9
$DIMSCALE
40
1.0
9
$DIMASZ
40
2.5
9
$DIMEXO
40
0.625
9
$DIMDLI
40
0.38
9
$DIMRND
40
0.0
9
$DIMDLE
40
0.0
9
$DIMEXE
40
1.25
9
$DIMTP
40
0.0
9
$DIMTM
40
0.000000001
9
$DIMTXT
40
2.5
9
$DIMCEN
40
0.09
9
$DIMTSZ
40
0.0
9
$DIMTOL
70
1
9
$DIMLIM
70
0
9
$DIMTIH
70
0
9
$DIMTOH
70
0
9
$DIMSE1
70
0
9
$DIMSE2
70
0
9
$DIMTAD
70
1
9
$DIMZIN
70
0
9
$DIMBLK
1
VDDIM_DEFAULT
9
$DIMASO
70
1
9
$DIMSHO
70
1
9
$DIMPOST
1

9
$DIMAPOST
1

9
$DIMALT
70
0
9
$DIMALTD
70
2
9
$DIMALTF
40
25.4
9
$DIMLFAC
40
1.00000000000000
9
$DIMTOFL
70
0
9
$DIMTVP
40
0.0
9
$DIMTIX
70
0
9
$DIMSOXD
70
0
9
$DIMSAH
70
0
9
$DIMBLK1
1

9
$DIMBLK2
1

9
$DIMSTYLE
2
BEM-ISBE
9
$DIMCLRD
70
0
9
$DIMCLRE
70
0
9
$DIMCLRT
70
0
9
$DIMTFAC
40
0.5
9
$DIMGAP
40
0.625
9
$DIMJUST
70
0
9
$DIMSD1
70
0
9
$DIMSD2
70
0
9
$DIMTOLJ
70
1
9
$DIMTZIN
70
0
9
$DIMALTZ
70
0
9
$DIMALTTZ
70
0
9
$DIMUPT
70
0
9
$DIMDEC
70
3
9
$DIMTDEC
70
3
9
$DIMALTU
70
2
9
$DIMALTTD
70
2
9
$DIMTXSTY
7
Standard
9
$DIMAUNIT
70
0
9
$DIMADEC
70
3
9
$DIMALTRND
40
0.0
9
$DIMAZIN
70
0
9
$DIMDSEP
70
46
9
$DIMATFIT
70
3
9
$DIMFRAC
70
0
9
$DIMLDRBLK
1

9
$DIMLUNIT
70
2
9
$DIMLWD
70
-2
9
$DIMLWE
70
-2
9
$DIMTMOVE
70
0
9
$LUNITS
70
2
9
$LUPREC
70
4
9
$SKETCHINC
40
0.1
9
$FILLETRAD
40
0.5
9
$AUNITS
70
0
9
$AUPREC
70
0
9
$MENU
1
.
9
$ELEVATION
40
0.0
9
$PELEVATION
40
0.0
9
$THICKNESS
40
0.0
9
$LIMCHECK
70
0
9
$CHAMFERA
40
0.5
9
$CHAMFERB
40
0.5
9
$CHAMFERC
40
1.0
9
$CHAMFERD
40
0.0
9
$SKPOLY
70
0
9
$TDCREATE
40
0.0
9
$TDUCREATE
40
0.0
9
$TDUPDATE
40
0.0
9
$TDUUPDATE
40
0.0
9
$TDINDWG
40
0.0
9
$TDUSRTIMER
40
0.0
9
$USRTIMER
70
1
9
$ANGBASE
50
0.0
9
$ANGDIR
70
0
9
$PDMODE
70
0
9
$PDSIZE
40
0.0
9
$PLINEWID
40
0.0
9
$SPLFRAME
70
0
9
$SPLINETYPE
70
6
9
$SPLINESEGS
70
8
9
$HANDSEED
5
10AB
9
$SURFTAB1
70
6
9
$SURFTAB2
70
6
9
$SURFTYPE
70
6
9
$SURFU
70
6
9
$SURFV
70
6
9
$UCSBASE
2

9
$UCSNAME
2

9
$UCSORG
10
0.0
20
0.0
30
0.0
9
$UCSXDIR
10
1.0
20
0.0
30
0.0
9
$UCSYDIR
10
0.0
20
1.0
30
0.0
9
$UCSORTHOREF
2

9
$UCSORTHOVIEW
70
0
9
$UCSORGTOP
10
0.0
20
0.0
30
0.0
9
$UCSORGBOTTOM
10
0.0
20
0.0
30
0.0
9
$UCSORGLEFT
10
0.0
20
0.0
30
0.0
9
$UCSORGRIGHT
10
0.0
20
0.0
30
0.0
9
$UCSORGFRONT
10
0.0
20
0.0
30
0.0
9
$UCSORGBACK
10
0.0
20
0.0
30
0.0
9
$PUCSBASE
2

9
$PUCSNAME
2

9
$PUCSORG
10
0.0
20
0.0
30
0.0
9
$PUCSXDIR
10
1.0
20
0.0
30
0.0
9
$PUCSYDIR
10
0.0
20
1.0
30
0.0
9
$PUCSORTHOREF
2

9
$PUCSORTHOVIEW
70
0
9
$PUCSORGTOP
10
0.0
20
0.0
30
0.0
9
$PUCSORGBOTTOM
10
0.0
20
0.0
30
0.0
9
$PUCSORGLEFT
10
0.0
20
0.0
30
0.0
9
$PUCSORGRIGHT
10
0.0
20
0.0
30
0.0
9
$PUCSORGFRONT
10
0.0
20
0.0
30
0.0
9
$PUCSORGBACK
10
0.0
20
0.0
30
0.0
9
$USERI1
70
0
9
$USERI2
70
0
9
$USERI3
70
0
9
$USERI4
70
0
9
$USERI5
70
0
9
$USERR1
40
0.0
9
$USERR2
40
0.0
9
$USERR3
40
0.0
9
$USERR4
40
0.0
9
$USERR5
40
0.0
9
$WORLDVIEW
70
1
9
$SHADEDGE
70
3
9
$SHADEDIF
70
70
9
$TILEMODE
70
1
9
$MAXACTVP
70
64
9
$PINSBASE
10
0.0
20
0.0
30
0.0
9
$PLIMCHECK
70
0
9
$PEXTMIN
10
1.000000000000000E+20
20
1.000000000000000E+20
30
1.000000000000000E+20
9
$PEXTMAX
10
-1.000000000000000E+20
20
-1.000000000000000E+20
30
-1.000000000000000E+20
9
$PLIMMIN
10
0.0
20
0.0
9
$PLIMMAX
10
12.0
20
9.0
9
$UNITMODE
70
0
9
$VISRETAIN
70
1
9
$PLINEGEN
70
0
9
$PSLTSCALE
70
1
9
$TREEDEPTH
70
3020
9
$CMLSTYLE
2
Standard
9
$CMLJUST
70
0
9
$CMLSCALE
40
1.0
9
$PROXYGRAPHICS
70
1
9
$MEASUREMENT
70
0
9
$CELWEIGHT
370
-1
9
$ENDCAPS
280
0
9
$JOINSTYLE
280
0
9
$LWDISPLAY
290
0
9
$INSUNITS
70
4
9
$HYPERLINKBASE
1

9
$STYLESHEET
1

9
$XEDIT
290
1
9
$CEPSNTYPE
380
0
9
$PSTYLEMODE
290
0
9
$FINGERPRINTGUID
2
{FAEB1C30-E019-11D5-929B-00C0DF256EC4}
9
$VERSIONGUID
2
{04C5C4E4-4947-4D90-8812-D401569E61F7}
9
$EXTNAMES
290
1
9
$PSVPSCALE
40
0.0
9
$OLESTARTUP
290
0
0
ENDSEC
0
SECTION
2
CLASSES
0
CLASS
1
ACDBDICTIONARYWDFLT
2
AcDbDictionaryWithDefault
3
ObjectDBX Classes
90
0
280
0
281
0
0
CLASS
1
ACDBPLACEHOLDER
2
AcDbPlaceHolder
3
ObjectDBX Classes
90
0
280
0
281
0
0
CLASS
1
LAYOUT
2
AcDbLayout
3
ObjectDBX Classes
90
0
280
0
281
0
0
CLASS
1
MATERIAL
2
AcDbMaterial
3
ObjectDBX Classes
90
1153
280
0
281
0
0
CLASS
1
VISUALSTYLE
2
AcDbVisualStyle
3
ObjectDBX Classes
90
4095
280
0
281
0
0
CLASS
1
TABLESTYLE
2
AcDbTableStyle
3
ObjectDBX Classes
90
4095
280
0
281
0
0
CLASS
1
SCALE
2
AcDbScale
3
ObjectDBX Classes
90
1153
280
0
281
0
0
CLASS
1
MLEADERSTYLE
2
AcDbMLeaderStyle
3
ACDB_MLEADERSTYLE_CLASS
90
4095
280
0
281
0
0
CLASS
1
DICTIONARYVAR
2
AcDbDictionaryVar
3
ObjectDBX Classes
90
0
280
0
281
0
0
CLASS
1
CELLSTYLEMAP
2
AcDbCellStyleMap
3
ObjectDBX Classes
90
1152
280
0
281
0
0
ENDSEC
0
SECTION
2
TABLES
0
TABLE
2
VPORT
5
24A
330
0
100
AcDbSymbolTable
70
1
0
VPORT
5
26B
330
24A
100
AcDbSymbolTableRecord
100
AcDbViewportTableRecord
2
*Active
70
0
10
0.0
20
0.0
11
1.0
21
1.0
12
0.00000000000000
22
0.00000000000000
13
0.0
23
0.0
14
10.0
24
10.0
15
10.0
25
10.0
16
0.0
26
0.0
36
1.0
17
0.0
27
0.0
37
0.0
40
210.000000000000
41
1.42857142857143
42
1.0
43
0.0
44
0.0
50
0.0
51
0.0000000000007958
71
0
72
100
73
1
74
3
75
0
76
0
77
0
78
1
281
0
65
1
110
0.0
120
0.0
130
0.0
111
1.0
121
0.0
131
0.0
112
0.0
122
1.0
132
0.0
79
0
146
0.0
0
ENDTAB
0
TABLE
2
LTYPE
5
247
330
0
100
AcDbSymbolTable
70
25
0
LTYPE
5
256
330
247
100
AcDbSymbolTableRecord
100
AcDbLinetypeTableRecord
2
ByBlock
70
0
3

72
65
73
0
40
0.0
0
LTYPE
5
257
330
247
100
AcDbSymbolTableRecord
100
AcDbLinetypeTableRecord
2
ByLayer
70
0
3

72
65
73
0
40
0.0
0
LTYPE
5
258
330
247
100
AcDbSymbolTableRecord
100
AcDbLinetypeTableRecord
2
Continuous
70
0
3
Solid line
72
65
73
0
40
0.0
0
LTYPE
5
273
330
247
100
AcDbSymbolTableRecord
100
AcDbLinetypeTableRecord
2
CENTER
70
0
3
Center ____ _ ____ _ ____ _ ____ _ ____ _ ____
72
65
73
4
40
2.0
49
1.25
74
0
49
-0.25
74
0
49
0.25
74
0
49
-0.25
74
0
0
LTYPE
5
274
330
247
100
AcDbSymbolTableRecord
100
AcDbLinetypeTableRecord
2
DASHDOT
70
0
3
Dashdot __ . __ . __ . __ . __ . __ . __ . __
72
65
73
4
40
1.0
49
0.5
74
0
49
-0.25
74
0
49
0.0
74
0
49
-0.25
74
0
0
LTYPE
5
275
330
247
100
AcDbSymbolTableRecord
100
AcDbLinetypeTableRecord
2
DASHED
70
0
3
Dashed __ __ __ __ __ __ __ __ __ __ __ __ __ _
72
65
73
2
40
0.75
49
0.5
74
0
49
-0.25
74
0
0
LTYPE
5
276
330
247
100
AcDbSymbolTableRecord
100
AcDbLinetypeTableRecord
2
HIDDEN
70
0
3
Hidden __ __ __ __ __ __ __ __ __ __ __ __ __ __
72
65
73
2
40
0.375
49
0.25
74
0
49
-0.125
74
0
0
LTYPE
5
277
330
247
100
AcDbSymbolTableRecord
100
AcDbLinetypeTableRecord
2
HIDDEN2
70
0
3
Hidden2 _ _ _ _ _ _ _ _ _ _ _ _ _ _ _ _ _
72
65
73
2
40
0.1875
49
0.125
74
0
49
-0.0625
74
0
0
LTYPE
5
278
330
247
100
AcDbSymbolTableRecord
100
AcDbLinetypeTableRecord
2
BORDER
70
0
3
Border __ __ . __ __ . __ __ . __ __ . __ __ .
72
65
73
6
40
1.75
49
0.5
74
0
49
-0.25
74
0
49
0.5
74
0
49
-0.25
74
0
49
0.0
74
0
49
-0.25
74
0
0
LTYPE
5
279
330
247
100
AcDbSymbolTableRecord
100
AcDbLinetypeTableRecord
2
BORDER2
70
0
3
Border2 __.__.__.__.__.__.__.__.__.__.__.
72
65
73
6
40
0.875
49
0.25
74
0
49
-0.125
74
0
49
0.25
74
0
49
-0.125
74
0
49
0.0
74
0
49
-0.125
74
0
0
LTYPE
5
27A
330
247
100
AcDbSymbolTableRecord
100
AcDbLinetypeTableRecord
2
BORDERX2
70
0
3
Borderx2  ____  ____  .  ____  ____  .  ___
72
65
73
6
40
3.5
49
1.0
74
0
49
-0.5
74
0
49
1.0
74
0
49
-0.5
74
0
49
0.0
74
0
49
-0.5
74
0
0
LTYPE
5
27B
330
247
100
AcDbSymbolTableRecord
100
AcDbLinetypeTableRecord
2
CENTER2
70
0
3
Center2  ___ _ ___ _ ___ _ ___ _ ___ _ ___
72
65
73
4
40
1.125
49
0.75
74
0
49
-0.125
74
0
49
0.125
74
0
49
-0.125
74
0
0
LTYPE
5
27C
330
247
100
AcDbSymbolTableRecord
100
AcDbLinetypeTableRecord
2
CENTERX2
70
0
3
Centerx2  ________  __  ________  __  _____
72
65
73
4
40
4.0
49
2.5
74
0
49
-0.5
74
0
49
0.5
74
0
49
-0.5
74
0
0
LTYPE
5
27D
330
247
100
AcDbSymbolTableRecord
100
AcDbLinetypeTableRecord
2
DASHDOT2
70
0
3
Dashdot2  _._._._._._._._._._._._._._._.
72
65
73
4
40
0.5
49
0.25
74
0
49
-0.125
74
0
49
0.0
74
0
49
-0.125
74
0
0
LTYPE
5
27E
330
247
100
AcDbSymbolTableRecord
100
AcDbLinetypeTableRecord
2
DASHDOTX2
70
0
3
Dashdotx2 ____  .  ____  .  ____  .  ___
72
65
73
4
40
2.0
49
1.0
74
0
49
-0.5
74
0
49
0.0
74
0
49
-0.5
74
0
0
LTYPE
5
27F
330
247
100
AcDbSymbolTableRecord
100
AcDbLinetypeTableRecord
2
DASHED2
70
0
3
Dashed2 _ _ _ _ _ _ _ _ _ _ _ _ _ _ _ _ _
72
65
73
2
40
0.375
49
0.25
74
0
49
-0.125
74
0
0
LTYPE
5
280
330
247
100
AcDbSymbolTableRecord
100
AcDbLinetypeTableRecord
2
DASHEDX2
70
0
3
Dashedx2 ____  ____  ____  ____  ____  ___
72
65
73
2
40
1.5
49
1.0
74
0
49
-0.5
74
0
0
LTYPE
5
281
330
247
100
AcDbSymbolTableRecord
100
AcDbLinetypeTableRecord
2
DIVIDE
70
0
3
Divide ____ . . ____ . . ____ . . ____ . . ____
72
65
73
6
40
1.25
49
0.5
74
0
49
-0.25
74
0
49
0.0
74
0
49
-0.25
74
0
49
0.0
74
0
49
-0.25
74
0
0
LTYPE
5
282
330
247
100
AcDbSymbolTableRecord
100
AcDbLinetypeTableRecord
2
DIVIDE2
70
0
3
Divide2 __..__..__..__..__..__..__..__.._
72
65
73
6
40
0.625
49
0.25
74
0
49
-0.125
74
0
49
0.0
74
0
49
-0.125
74
0
49
0.0
74
0
49
-0.125
74
0
0
LTYPE
5
283
330
247
100
AcDbSymbolTableRecord
100
AcDbLinetypeTableRecord
2
DIVIDEX2
70
0
3
Dividex2 ________  .  .  ________  .  .  _
72
65
73
6
40
2.5
49
1.0
74
0
49
-0.5
74
0
49
0.0
74
0
49
-0.5
74
0
49
0.0
74
0
49
-0.5
74
0
0
LTYPE
5
284
330
247
100
AcDbSymbolTableRecord
100
AcDbLinetypeTableRecord
2
DOT
70
0
3
Dot . . . . . . . . . . . . . . . . . . . . . . . .
72
65
73
2
40
0.25
49
0.0
74
0
49
-0.25
74
0
0
LTYPE
5
285
330
247
100
AcDbSymbolTableRecord
100
AcDbLinetypeTableRecord
2
DOT2
70
0
3
Dot2 ........................................
72
65
73
2
40
0.125
49
0.0
74
0
49
-0.125
74
0
0
LTYPE
5
286
330
247
100
AcDbSymbolTableRecord
100
AcDbLinetypeTableRecord
2
DOTX2
70
0
3
Dotx2 .  .  .  .  .  .  .  .  .  .  .  .  .  .
72
65
73
2
40
0.5
49
0.0
74
0
49
-0.5
74
0
0
LTYPE
5
287
330
247
100
AcDbSymbolTableRecord
100
AcDbLinetypeTableRecord
2
HIDDENX2
70
0
3
Hiddenx2 ____ ____ ____ ____ ____ ____ ____
72
65
73
2
40
0.75
49
0.5
74
0
49
-0.25
74
0
0
LTYPE
5
288
330
247
100
AcDbSymbolTableRecord
100
AcDbLinetypeTableRecord
2
PHANTOM
70
0
3
Phantom ______  __  __  ______  __  __  ______
72
65
73
6
40
2.5
49
1.25
74
0
49
-0.25
74
0
49
0.25
74
0
49
-0.25
74
0
49
0.25
74
0
49
-0.25
74
0
0
LTYPE
5
289
330
247
100
AcDbSymbolTableRecord
100
AcDbLinetypeTableRecord
2
PHANTOM2
70
0
3
Phantom2 ___ _ _ ___ _ _ ___ _ _ ___ _ _
72
65
73
6
40
1.25
49
0.625
74
0
49
-0.125
74
0
49
0.125
74
0
49
-0.125
74
0
49
0.125
74
0
49
-0.125
74
0
0
LTYPE
5
28A
330
247
100
AcDbSymbolTableRecord
100
AcDbLinetypeTableRecord
2
PHANTOMX2
70
0
3
Phantomx2 ____________    ____    ____   _
72
65
73
6
40
5.0
49
2.5
74
0
49
-0.5
74
0
49
0.5
74
0
49
-0.5
74
0
49
0.5
74
0
49
-0.5
74
0
0
ENDTAB
0
TABLE
2
LAYER
5
244
330
0
100
AcDbSymbolTable
70
6
0
LAYER
5
252
330
244
100
AcDbSymbolTableRecord
100
AcDbLayerTableRecord
2
0
70
0
62
7
6
Continuous
370
0
390
251
0
LAYER
5
23F
330
244
100
AcDbSymbolTableRecord
100
AcDbLayerTableRecord
2
Bemassung
70
0
 62
   7
6
Continuous
370
0
390
251
0
LAYER
5
240
330
244
100
AcDbSymbolTableRecord
100
AcDbLayerTableRecord
2
Rahmen
70
0
 62
   7
6
Continuous
370
0
390
251
0
LAYER
5
241
330
244
100
AcDbSymbolTableRecord
100
AcDbLayerTableRecord
2
Geo
70
0
 62
   7
6
Continuous
370
0
390
251
0
LAYER
5
33A
330
244
100
AcDbSymbolTableRecord
100
AcDbLayerTableRecord
2
Defpoints
70
0
62
7
6
Continuous
290
0
370
-3
390
251
0
LAYER
5
57E
330
244
100
AcDbSymbolTableRecord
100
AcDbLayerTableRecord
2
Text
70
0
 62
   7
6
Continuous
370
0
390
251
1001
AcAecLayerStandard
1000

1000

0
ENDTAB
0
TABLE
2
STYLE
5
245
330
0
100
AcDbSymbolTable
70
2
0
STYLE
5
253
330
245
100
AcDbSymbolTableRecord
100
AcDbTextStyleTableRecord
2
Standard
70
0
40
0.0
41
1.0
50
0.0
71
0
42
0.2
3
Arial
4

1001
ACAD
1000
Arial
1071
0
0
STYLE
5
132
330
245
100
AcDbSymbolTableRecord
100
AcDbTextStyleTableRecord
2
Beschriftung
70
0
40
0.0
41
1.0
50
0.0
71
0
42
0.2
3
Arial
4

1001
ACAD
1000
Arial
1071
0
1001
AcadAnnotative
1000
AnnotativeData
1070
1
1070
1
0
ENDTAB
0
TABLE
2
VIEW
5
248
330
0
100
AcDbSymbolTable
70
0
0
ENDTAB
0
TABLE
2
UCS
5
249
330
0
100
AcDbSymbolTable
70
0
0
ENDTAB
0
TABLE
2
APPID
5
24B
330
0
100
AcDbSymbolTable
70
13
0
APPID
5
254
330
24B
100
AcDbSymbolTableRecord
100
AcDbRegAppTableRecord
2
ACAD
70
0
0
APPID
5
26C
330
24B
100
AcDbSymbolTableRecord
100
AcDbRegAppTableRecord
2
VD_INVISIBLE_NOT_FOR_READ
70
0
0
APPID
5
26D
330
24B
100
AcDbSymbolTableRecord
100
AcDbRegAppTableRecord
2
VD_TEMPHATCH
70
0
0
APPID
5
26E
330
24B
100
AcDbSymbolTableRecord
100
AcDbRegAppTableRecord
2
VDEXTRAPARAM
70
0
0
APPID
5
26F
330
24B
100
AcDbSymbolTableRecord
100
AcDbRegAppTableRecord
2
PE_URL
70
0
0
APPID
5
270
330
24B
100
AcDbSymbolTableRecord
100
AcDbRegAppTableRecord
2
VD_UNKNOWN
70
0
0
APPID
5
28F
330
24B
100
AcDbSymbolTableRecord
100
AcDbRegAppTableRecord
2
AcadAnnotative
70
0
0
APPID
5
290
330
24B
100
AcDbSymbolTableRecord
100
AcDbRegAppTableRecord
2
ACAD_DSTYLE_DIMJAG
70
0
0
APPID
5
291
330
24B
100
AcDbSymbolTableRecord
100
AcDbRegAppTableRecord
2
ACAD_DSTYLE_DIMTALN
70
0
0
APPID
5
293
330
24B
100
AcDbSymbolTableRecord
100
AcDbRegAppTableRecord
2
ACAD_PSEXT
70
0
0
APPID
5
42A
330
24B
100
AcDbSymbolTableRecord
100
AcDbRegAppTableRecord
2
ACAD_MLEADERVER
70
0
0
APPID
5
532
330
24B
100
AcDbSymbolTableRecord
100
AcDbRegAppTableRecord
2
ACAD_EXEMPT_FROM_CAD_STANDARDS
70
0
0
APPID
5
57F
330
24B
100
AcDbSymbolTableRecord
100
AcDbRegAppTableRecord
2
AcAecLayerStandard
70
0
0
ENDTAB
0
TABLE
2
DIMSTYLE
5
24C
330
0
100
AcDbSymbolTable
70
3
100
AcDbDimStyleTable
71
2
340
27
340
269
0
DIMSTYLE
105
269
330
24C
100
AcDbSymbolTableRecord
100
AcDbDimStyleTableRecord
2
Standard
70
0
172
1
174
1
288
1
340
253
342
23C
0
DIMSTYLE
105
137
330
24C
100
AcDbSymbolTableRecord
100
AcDbDimStyleTableRecord
2
Beschriftung
70
0
41
2.5
42
0.625
44
1.25
73
0
74
0
77
1
140
2.5
147
0.625
172
1
174
1
271
2
288
1
340
253
342
23C
1001
AcadAnnotative
1000
AnnotativeData
1070
1
1070
1
1001
ACAD_DSTYLE_DIMJAG
1070
388
1040
1.5
1001
ACAD_DSTYLE_DIMTALN
1070
392
1070
0
0
DIMSTYLE
105
27
102
{ACAD_REACTORS
102
}
330
24C
100
AcDbSymbolTableRecord
100
AcDbDimStyleTableRecord
2
BEM-ISBE
70
0
41
2.5
42
0.625
44
1.25
48
0.000000001
71
1
73
0
74
0
77
1
140
2.5
144
1.00000000000000
146
0.5
147
0.625
171
 3
172
 1
179
 3
271
 3
272
 3
274
 3
340
253
342
23C
1001
ACAD_DSTYLE_DIMJAG
1070
388
1040
1.5
1001
ACAD_DSTYLE_DIMTALN
1070
392
1070
1
0
ENDTAB
0
TABLE
2
BLOCK_RECORD
5
243
330
0
100
AcDbSymbolTable
70
5
0
BLOCK_RECORD
5
261
330
243
100
AcDbSymbolTableRecord
100
AcDbBlockTableRecord
2
*Model_Space
340
FD0
0
BLOCK_RECORD
5
25D
330
243
100
AcDbSymbolTableRecord
100
AcDbBlockTableRecord
2
*Paper_Space
340
FD1
0
BLOCK_RECORD
5
265
330
243
100
AcDbSymbolTableRecord
100
AcDbBlockTableRecord
2
*Paper_Space0
340
0
0
BLOCK_RECORD
5
23C
330
243
100
AcDbSymbolTableRecord
100
AcDbBlockTableRecord
2
VDDIM_DEFAULT
340
0
102
{BLKREFS
102
}
0
BLOCK_RECORD
5
23E
330
243
100
AcDbSymbolTableRecord
100
AcDbBlockTableRecord
2
VDDIM_NONE
340
0
0
ENDTAB
0
ENDSEC
0
SECTION
2
BLOCKS
0
BLOCK
5
262
330
261
100
AcDbEntity
8
0
100
AcDbBlockBegin
2
*Model_Space
70
0
10
0.0
20
0.0
30
0.0
3
*Model_Space
1

0
ENDBLK
5
263
330
261
100
AcDbEntity
8
0
100
AcDbBlockEnd
0
BLOCK
5
25E
330
25D
100
AcDbEntity
67
1
8
0
100
AcDbBlockBegin
2
*Paper_Space
70
0
10
0.0
20
0.0
30
0.0
3
*Paper_Space
1

0
ENDBLK
5
25F
330
25D
100
AcDbEntity
67
1
8
0
100
AcDbBlockEnd
0
BLOCK
5
266
330
265
100
AcDbEntity
8
0
100
AcDbBlockBegin
2
*Paper_Space0
70
0
10
0.0
20
0.0
30
0.0
3
*Paper_Space0
1

0
VIEWPORT
5
296
102
{ACAD_XDICTIONARY
360
58E
102
}
330
265
100
AcDbEntity
8
0
60
1
100
AcDbViewport
10
0.0
20
0.0
30
0.0
40
10.0
41
10.0
69
0
12
0.0
22
0.0
13
0.0
23
0.0
14
1.0
24
1.0
15
0.0
25
0.0
16
0.0
26
0.0
36
1.0
17
0.0
27
0.0
37
0.0
42
0.0
43
0.0
44
0.0
45
10.0
50
0.0
51
0.0000000000007958
72
100
90
163872
1

281
0
71
0
74
0
110
0.0
120
0.0
130
0.0
111
1.0
121
0.0
131
0.0
112
0.0
122
1.0
132
0.0
79
0
146
0.0
1001
VD_INVISIBLE_NOT_FOR_READ
1000
VD_INVISIBLE_NOT_FOR_READ
0
VIEWPORT
5
297
102
{ACAD_XDICTIONARY
360
590
102
}
330
265
100
AcDbEntity
8
0
60
1
100
AcDbViewport
10
0.0
20
0.0
30
0.0
40
10.0
41
10.0
69
0
12
0.0
22
0.0
13
0.0
23
0.0
14
1.0
24
1.0
15
0.0
25
0.0
16
0.0
26
0.0
36
1.0
17
0.0
27
0.0
37
0.0
42
0.0
43
0.0
44
0.0
45
10.0
50
0.0
51
0.0000000000007958
72
100
90
163872
1

281
0
71
0
74
0
110
0.0
120
0.0
130
0.0
111
1.0
121
0.0
131
0.0
112
0.0
122
1.0
132
0.0
79
0
146
0.0
1001
VD_INVISIBLE_NOT_FOR_READ
1000
VD_INVISIBLE_NOT_FOR_READ
0
ENDBLK
5
267
330
265
100
AcDbEntity
8
0
100
AcDbBlockEnd
0
BLOCK
5
28B
330
23C
100
AcDbEntity
8
0
100
AcDbBlockBegin
2
VDDIM_DEFAULT
70
0
10
0.0
20
0.0
30
0.0
3
VDDIM_DEFAULT
1

0
LWPOLYLINE
5
23D
330
23C
100
AcDbEntity
8
0
6
Continuous
62
0
100
AcDbPolyline
90
4
70
0
43
0.0
10
0.0
20
0.0
10
-1.0
20
-0.1665
10
-1.0
20
0.1665
10
0.0
20
0.0
1001
VDEXTRAPARAM
1071
1
1071
0
1071
0
1040
1.0
1000

1000

1040
0.0
1040
0.0
0
HATCH
5
292
330
23C
100
AcDbEntity
8
0
6
Continuous
62
0
100
AcDbHatch
10
0.0
20
0.0
30
0.0
210
0.0
220
0.0
230
1.0
2
SOLID
70
1
71
0
91
1
92
2
72
0
73
1
93
3
10
0.0
20
0.0
10
-1.0
20
-0.1665
10
-1.0
20
0.1665
97
0
75
0
76
1
98
1
10
0.0
20
0.0
1001
VDEXTRAPARAM
1071
1
1071
0
1071
0
1040
1.0
1000

1000

1040
0.0
1040
0.0
1001
VD_TEMPHATCH
1000
VD_TEMPHATCH
0
ENDBLK
5
28C
330
23C
100
AcDbEntity
8
0
100
AcDbBlockEnd
0
BLOCK
5
28D
330
23E
100
AcDbEntity
8
0
100
AcDbBlockBegin
2
VDDIM_NONE
70
0
10
0.0
20
0.0
30
0.0
3
VDDIM_NONE
1

0
ENDBLK
5
28E
330
23E
100
AcDbEntity
8
0
100
AcDbBlockEnd
0
ENDSEC
0
SECTION
2
ENTITIES
  0
ARC
  5
F10002
330
F10003
100
AcDbEntity
8
Geo
100
AcDbCircle
10
-59.3501454956937
20
14.4147702573303
30
0.00000000000000
 40
0.750000000000000
100
AcDbArc
 50
90.0000000000000
 51
180.000000000000
  0
LINE
  5
F10004
330
F10005
100
AcDbEntity
8
Geo
100
AcDbLine
10
-59.3501454956937
20
15.1647702573303
30
0.00000000000000
11
-56.1001454956937
21
15.1647702573303
31
0.00000000000000
  0
LINE
  5
F10006
330
F10007
100
AcDbEntity
8
Geo
100
AcDbLine
10
-56.1001454956937
20
15.1647702573303
30
0.00000000000000
11
-56.0992090051548
21
15.1647702573303
31
0.00000000000000
  0
LINE
  5
F10008
330
F10009
100
AcDbEntity
8
Geo
100
AcDbLine
10
-56.0992090051548
20
15.1647702573303
30
0.00000000000000
11
-51.4341454956937
21
16.4147702573303
31
0.00000000000000
  0
LINE
  5
F1000A
330
F1000B
100
AcDbEntity
8
Geo
100
AcDbLine
10
-51.4341454956937
20
16.4147702573303
30
0.00000000000000
11
-10.7001454956937
21
16.4147702573303
31
0.00000000000000
  0
LINE
  5
F1000C
330
F1000D
100
AcDbEntity
8
Geo
100
AcDbLine
10
-10.7001454956937
20
16.4147702573303
30
0.00000000000000
11
-10.1001454956937
21
15.8147702573303
31
0.00000000000000
  0
LINE
  5
F1000E
330
F1000F
100
AcDbEntity
8
Geo
100
AcDbLine
10
-59.9892065879554
20
14.8073271581196
30
0.00000000000000
11
-59.9828121623604
21
14.8169858948758
31
0.00000000000000
  0
LINE
  5
F10010
330
F10011
100
AcDbEntity
8
Geo
100
AcDbLine
10
-59.9828121623604
20
14.8169858948758
30
0.00000000000000
11
-59.9681454956937
21
14.8370448765964
31
0.00000000000000
  0
LINE
  5
F10012
330
F10013
100
AcDbEntity
8
Geo
100
AcDbLine
10
-59.9681454956937
20
14.8370448765964
30
0.00000000000000
11
-59.9534788290270
21
14.8552867804319
31
0.00000000000000
  0
LINE
  5
F10014
330
F10015
100
AcDbEntity
8
Geo
100
AcDbLine
10
-59.9534788290270
20
14.8552867804319
30
0.00000000000000
11
-59.9388121623604
21
14.8722775263242
31
0.00000000000000
  0
LINE
  5
F10016
330
F10017
100
AcDbEntity
8
Geo
100
AcDbLine
10
-59.9388121623604
20
14.8722775263242
30
0.00000000000000
11
-59.9241454956937
21
14.8882820911225
31
0.00000000000000
  0
LINE
  5
F10018
330
F10019
100
AcDbEntity
8
Geo
100
AcDbLine
10
-59.9241454956937
20
14.8882820911225
30
0.00000000000000
11
-59.9094788290270
21
14.9034634556612
31
0.00000000000000
  0
LINE
  5
F1001A
330
F1001B
100
AcDbEntity
8
Geo
100
AcDbLine
10
-59.9094788290270
20
14.9034634556612
30
0.00000000000000
11
-59.8948121623604
21
14.9179230428980
31
0.00000000000000
  0
LINE
  5
F1001C
330
F1001D
100
AcDbEntity
8
Geo
100
AcDbLine
10
-59.8948121623604
20
14.9179230428980
30
0.00000000000000
11
-59.8801454956937
21
14.9317414299592
31
0.00000000000000
  0
LINE
  5
F1001E
330
F1001F
100
AcDbEntity
8
Geo
100
AcDbLine
10
-59.8801454956937
20
14.9317414299592
30
0.00000000000000
11
-59.8654788290270
21
14.9448636007561
31
0.00000000000000
  0
LINE
  5
F10020
330
F10021
100
AcDbEntity
8
Geo
100
AcDbLine
10
-59.8654788290270
20
14.9448636007561
30
0.00000000000000
11
-59.8508121623604
21
14.9571401157223
31
0.00000000000000
  0
LINE
  5
F10022
330
F10023
100
AcDbEntity
8
Geo
100
AcDbLine
10
-59.8508121623604
20
14.9571401157223
30
0.00000000000000
11
-59.8361454956937
21
14.9686132979637
31
0.00000000000000
  0
LINE
  5
F10024
330
F10025
100
AcDbEntity
8
Geo
100
AcDbLine
10
-59.8361454956937
20
14.9686132979637
30
0.00000000000000
11
-59.8214788290270
21
14.9793286562004
31
0.00000000000000
  0
LINE
  5
F10026
330
F10027
100
AcDbEntity
8
Geo
100
AcDbLine
10
-59.8214788290270
20
14.9793286562004
30
0.00000000000000
11
-59.8068121623604
21
14.9893255510970
31
0.00000000000000
  0
LINE
  5
F10028
330
F10029
100
AcDbEntity
8
Geo
100
AcDbLine
10
-59.8068121623604
20
14.9893255510970
30
0.00000000000000
11
-59.7921454956937
21
14.9986383050768
31
0.00000000000000
  0
LINE
  5
F1002A
330
F1002B
100
AcDbEntity
8
Geo
100
AcDbLine
10
-59.7921454956937
20
14.9986383050768
30
0.00000000000000
11
-59.7774788290270
21
15.0072970710500
31
0.00000000000000
  0
LINE
  5
F1002C
330
F1002D
100
AcDbEntity
8
Geo
100
AcDbLine
10
-59.7774788290270
20
15.0072970710500
30
0.00000000000000
11
-59.7628121623604
21
15.0153285210643
31
0.00000000000000
  0
LINE
  5
F1002E
330
F1002F
100
AcDbEntity
8
Geo
100
AcDbLine
10
-59.7628121623604
20
15.0153285210643
30
0.00000000000000
11
-59.7481454956937
21
15.0227563984346
31
0.00000000000000
  0
LINE
  5
F10030
330
F10031
100
AcDbEntity
8
Geo
100
AcDbLine
10
-59.7481454956937
20
15.0227563984346
30
0.00000000000000
11
-59.7334788290270
21
15.0296019649813
31
0.00000000000000
  0
LINE
  5
F10032
330
F10033
100
AcDbEntity
8
Geo
100
AcDbLine
10
-59.7334788290270
20
15.0296019649813
30
0.00000000000000
11
-59.7188121623604
21
15.0358843666904
31
0.00000000000000
  0
LINE
  5
F10034
330
F10035
100
AcDbEntity
8
Geo
100
AcDbLine
10
-59.7188121623604
20
15.0358843666904
30
0.00000000000000
11
-59.7041454956937
21
15.0416209352215
31
0.00000000000000
  0
LINE
  5
F10036
330
F10037
100
AcDbEntity
8
Geo
100
AcDbLine
10
-59.7041454956937
20
15.0416209352215
30
0.00000000000000
11
-59.6894788290270
21
15.0468274384534
31
0.00000000000000
  0
LINE
  5
F10038
330
F10039
100
AcDbEntity
8
Geo
100
AcDbLine
10
-59.6894788290270
20
15.0468274384534
30
0.00000000000000
11
-59.6748121623604
21
15.0515182901636
31
0.00000000000000
  0
LINE
  5
F1003A
330
F1003B
100
AcDbEntity
8
Geo
100
AcDbLine
10
-59.6748121623604
20
15.0515182901636
30
0.00000000000000
11
-59.6601454956937
21
15.0557067266556
31
0.00000000000000
  0
LINE
  5
F1003C
330
F1003D
100
AcDbEntity
8
Geo
100
AcDbLine
10
-59.6601454956937
20
15.0557067266556
30
0.00000000000000
11
-59.6454788290270
21
15.0594049564384
31
0.00000000000000
  0
LINE
  5
F1003E
330
F1003F
100
AcDbEntity
8
Geo
100
AcDbLine
10
-59.6454788290270
20
15.0594049564384
30
0.00000000000000
11
-59.6308121623604
21
15.0626242877719
31
0.00000000000000
  0
LINE
  5
F10040
330
F10041
100
AcDbEntity
8
Geo
100
AcDbLine
10
-59.6308121623604
20
15.0626242877719
30
0.00000000000000
11
-59.6161454956937
21
15.0653752379031
31
0.00000000000000
  0
LINE
  5
F10042
330
F10043
100
AcDbEntity
8
Geo
100
AcDbLine
10
-59.6161454956937
20
15.0653752379031
30
0.00000000000000
11
-59.6014788290270
21
15.0676676270608
31
0.00000000000000
  0
LINE
  5
F10044
330
F10045
100
AcDbEntity
8
Geo
100
AcDbLine
10
-59.6014788290270
20
15.0676676270608
30
0.00000000000000
11
-59.5868121623604
21
15.0695106596807
31
0.00000000000000
  0
LINE
  5
F10046
330
F10047
100
AcDbEntity
8
Geo
100
AcDbLine
10
-59.5868121623604
20
15.0695106596807
30
0.00000000000000
11
-59.5721454956937
21
15.0709129948730
31
0.00000000000000
  0
LINE
  5
F10048
330
F10049
100
AcDbEntity
8
Geo
100
AcDbLine
10
-59.5721454956937
20
15.0709129948730
30
0.00000000000000
11
-59.5574788290270
21
15.0718828077724
31
0.00000000000000
  0
LINE
  5
F1004A
330
F1004B
100
AcDbEntity
8
Geo
100
AcDbLine
10
-59.5574788290270
20
15.0718828077724
30
0.00000000000000
11
-59.5428121623604
21
15.0724278431243
31
0.00000000000000
  0
LINE
  5
F1004C
330
F1004D
100
AcDbEntity
8
Geo
100
AcDbLine
10
-59.5428121623604
20
15.0724278431243
30
0.00000000000000
11
-59.5281454956937
21
15.0725554622214
31
0.00000000000000
  0
LINE
  5
F1004E
330
F1004F
100
AcDbEntity
8
Geo
100
AcDbLine
10
-59.5281454956937
20
15.0725554622214
30
0.00000000000000
11
-59.5134788290270
21
15.0722726841190
31
0.00000000000000
  0
LINE
  5
F10050
330
F10051
100
AcDbEntity
8
Geo
100
AcDbLine
10
-59.5134788290270
20
15.0722726841190
30
0.00000000000000
11
-59.4988121623604
21
15.0715862219015
31
0.00000000000000
  0
LINE
  5
F10052
330
F10053
100
AcDbEntity
8
Geo
100
AcDbLine
10
-59.4988121623604
20
15.0715862219015
30
0.00000000000000
11
-59.4841454956937
21
15.0705025146497
31
0.00000000000000
  0
LINE
  5
F10054
330
F10055
100
AcDbEntity
8
Geo
100
AcDbLine
10
-59.4841454956937
20
15.0705025146497
30
0.00000000000000
11
-59.4694788290270
21
15.0690277556514
31
0.00000000000000
  0
LINE
  5
F10056
330
F10057
100
AcDbEntity
8
Geo
100
AcDbLine
10
-59.4694788290270
20
15.0690277556514
30
0.00000000000000
11
-59.4548121623604
21
15.0671679173158
31
0.00000000000000
  0
LINE
  5
F10058
330
F10059
100
AcDbEntity
8
Geo
100
AcDbLine
10
-59.4548121623604
20
15.0671679173158
30
0.00000000000000
11
-59.4401454956937
21
15.0649287731786
31
0.00000000000000
  0
LINE
  5
F1005A
330
F1005B
100
AcDbEntity
8
Geo
100
AcDbLine
10
-59.4401454956937
20
15.0649287731786
30
0.00000000000000
11
-59.4254788290270
21
15.0623159173268
31
0.00000000000000
  0
LINE
  5
F1005C
330
F1005D
100
AcDbEntity
8
Geo
100
AcDbLine
10
-59.4254788290270
20
15.0623159173268
30
0.00000000000000
11
-59.4108121623604
21
15.0593347815194
31
0.00000000000000
  0
LINE
  5
F1005E
330
F1005F
100
AcDbEntity
8
Geo
100
AcDbLine
10
-59.4108121623604
20
15.0593347815194
30
0.00000000000000
11
-59.3961454956937
21
15.0559906502403
31
0.00000000000000
  0
LINE
  5
F10060
330
F10061
100
AcDbEntity
8
Geo
100
AcDbLine
10
-59.3961454956937
20
15.0559906502403
30
0.00000000000000
11
-59.3814788290270
21
15.0522886738809
31
0.00000000000000
  0
LINE
  5
F10062
330
F10063
100
AcDbEntity
8
Geo
100
AcDbLine
10
-59.3814788290270
20
15.0522886738809
30
0.00000000000000
11
-59.3668121623604
21
15.0482338802194
31
0.00000000000000
  0
LINE
  5
F10064
330
F10065
100
AcDbEntity
8
Geo
100
AcDbLine
10
-59.3668121623604
20
15.0482338802194
30
0.00000000000000
11
-59.3521454956937
21
15.0438311843342
31
0.00000000000000
  0
LINE
  5
F10066
330
F10067
100
AcDbEntity
8
Geo
100
AcDbLine
10
-59.3521454956937
20
15.0438311843342
30
0.00000000000000
11
-59.3374788290270
21
15.0391827835102
31
0.00000000000000
  0
LINE
  5
F10068
330
F10069
100
AcDbEntity
8
Geo
100
AcDbLine
10
-59.3374788290270
20
15.0391827835102
30
0.00000000000000
11
-59.3228121623604
21
15.0344523468920
31
0.00000000000000
  0
LINE
  5
F1006A
330
F1006B
100
AcDbEntity
8
Geo
100
AcDbLine
10
-59.3228121623604
20
15.0344523468920
30
0.00000000000000
11
-59.3081454956937
21
15.0296429182224
31
0.00000000000000
  0
LINE
  5
F1006C
330
F1006D
100
AcDbEntity
8
Geo
100
AcDbLine
10
-59.3081454956937
20
15.0296429182224
30
0.00000000000000
11
-59.2934788290270
21
15.0247551105682
31
0.00000000000000
  0
LINE
  5
F1006E
330
F1006F
100
AcDbEntity
8
Geo
100
AcDbLine
10
-59.2934788290270
20
15.0247551105682
30
0.00000000000000
11
-59.2788121623604
21
15.0197895469878
31
0.00000000000000
  0
LINE
  5
F10070
330
F10071
100
AcDbEntity
8
Geo
100
AcDbLine
10
-59.2788121623604
20
15.0197895469878
30
0.00000000000000
11
-59.2641454956937
21
15.0147468604508
31
0.00000000000000
  0
LINE
  5
F10072
330
F10073
100
AcDbEntity
8
Geo
100
AcDbLine
10
-59.2641454956937
20
15.0147468604508
30
0.00000000000000
11
-59.2494788290270
21
15.0096276937582
31
0.00000000000000
  0
LINE
  5
F10074
330
F10075
100
AcDbEntity
8
Geo
100
AcDbLine
10
-59.2494788290270
20
15.0096276937582
30
0.00000000000000
11
-59.2348121623604
21
15.0044326994597
31
0.00000000000000
  0
LINE
  5
F10076
330
F10077
100
AcDbEntity
8
Geo
100
AcDbLine
10
-59.2348121623604
20
15.0044326994597
30
0.00000000000000
11
-59.2201454956937
21
14.9991625397712
31
0.00000000000000
  0
LINE
  5
F10078
330
F10079
100
AcDbEntity
8
Geo
100
AcDbLine
10
-59.2201454956937
20
14.9991625397712
30
0.00000000000000
11
-59.2054788290270
21
14.9938178864898
31
0.00000000000000
  0
LINE
  5
F1007A
330
F1007B
100
AcDbEntity
8
Geo
100
AcDbLine
10
-59.2054788290270
20
14.9938178864898
30
0.00000000000000
11
-59.1908121623604
21
14.9883994209088
31
0.00000000000000
  0
LINE
  5
F1007C
330
F1007D
100
AcDbEntity
8
Geo
100
AcDbLine
10
-59.1908121623604
20
14.9883994209088
30
0.00000000000000
11
-59.1761454956937
21
14.9829078337302
31
0.00000000000000
  0
LINE
  5
F1007E
330
F1007F
100
AcDbEntity
8
Geo
100
AcDbLine
10
-59.1761454956937
20
14.9829078337302
30
0.00000000000000
11
-59.1614788290270
21
14.9773438249770
31
0.00000000000000
  0
LINE
  5
F10080
330
F10081
100
AcDbEntity
8
Geo
100
AcDbLine
10
-59.1614788290270
20
14.9773438249770
30
0.00000000000000
11
-59.1468121623604
21
14.9717081039040
31
0.00000000000000
  0
LINE
  5
F10082
330
F10083
100
AcDbEntity
8
Geo
100
AcDbLine
10
-59.1468121623604
20
14.9717081039040
30
0.00000000000000
11
-59.1321454956937
21
14.9660013889073
31
0.00000000000000
  0
LINE
  5
F10084
330
F10085
100
AcDbEntity
8
Geo
100
AcDbLine
10
-59.1321454956937
20
14.9660013889073
30
0.00000000000000
11
-59.1174788290270
21
14.9602244074325
31
0.00000000000000
  0
LINE
  5
F10086
330
F10087
100
AcDbEntity
8
Geo
100
AcDbLine
10
-59.1174788290270
20
14.9602244074325
30
0.00000000000000
11
-59.1028121623604
21
14.9543778958826
31
0.00000000000000
  0
LINE
  5
F10088
330
F10089
100
AcDbEntity
8
Geo
100
AcDbLine
10
-59.1028121623604
20
14.9543778958826
30
0.00000000000000
11
-59.0881454956937
21
14.9484625995233
31
0.00000000000000
  0
LINE
  5
F1008A
330
F1008B
100
AcDbEntity
8
Geo
100
AcDbLine
10
-59.0881454956937
20
14.9484625995233
30
0.00000000000000
11
-59.0734788290270
21
14.9424792723889
31
0.00000000000000
  0
LINE
  5
F1008C
330
F1008D
100
AcDbEntity
8
Geo
100
AcDbLine
10
-59.0734788290270
20
14.9424792723889
30
0.00000000000000
11
-59.0588121623604
21
14.9364286771853
31
0.00000000000000
  0
LINE
  5
F1008E
330
F1008F
100
AcDbEntity
8
Geo
100
AcDbLine
10
-59.0588121623604
20
14.9364286771853
30
0.00000000000000
11
-59.0441454956937
21
14.9303115851933
31
0.00000000000000
  0
LINE
  5
F10090
330
F10091
100
AcDbEntity
8
Geo
100
AcDbLine
10
-59.0441454956937
20
14.9303115851933
30
0.00000000000000
11
-59.0294788290270
21
14.9241287761704
31
0.00000000000000
  0
LINE
  5
F10092
330
F10093
100
AcDbEntity
8
Geo
100
AcDbLine
10
-59.0294788290270
20
14.9241287761704
30
0.00000000000000
11
-59.0148121623604
21
14.9178810382508
31
0.00000000000000
  0
LINE
  5
F10094
330
F10095
100
AcDbEntity
8
Geo
100
AcDbLine
10
-59.0148121623604
20
14.9178810382508
30
0.00000000000000
11
-59.0001454956937
21
14.9115691678457
31
0.00000000000000
  0
LINE
  5
F10096
330
F10097
100
AcDbEntity
8
Geo
100
AcDbLine
10
-59.0001454956937
20
14.9115691678457
30
0.00000000000000
11
-58.9854788290270
21
14.9051939695410
31
0.00000000000000
  0
LINE
  5
F10098
330
F10099
100
AcDbEntity
8
Geo
100
AcDbLine
10
-58.9854788290270
20
14.9051939695410
30
0.00000000000000
11
-58.9708121623604
21
14.8987562559955
31
0.00000000000000
  0
LINE
  5
F1009A
330
F1009B
100
AcDbEntity
8
Geo
100
AcDbLine
10
-58.9708121623604
20
14.8987562559955
30
0.00000000000000
11
-58.9561454956937
21
14.8922568478366
31
0.00000000000000
  0
LINE
  5
F1009C
330
F1009D
100
AcDbEntity
8
Geo
100
AcDbLine
10
-58.9561454956937
20
14.8922568478366
30
0.00000000000000
11
-58.9414788290270
21
14.8856965735563
31
0.00000000000000
  0
LINE
  5
F1009E
330
F1009F
100
AcDbEntity
8
Geo
100
AcDbLine
10
-58.9414788290270
20
14.8856965735563
30
0.00000000000000
11
-58.9268121623604
21
14.8790762694051
31
0.00000000000000
  0
LINE
  5
F100A0
330
F100A1
100
AcDbEntity
8
Geo
100
AcDbLine
10
-58.9268121623604
20
14.8790762694051
30
0.00000000000000
11
-58.9121454956937
21
14.8723967792859
31
0.00000000000000
  0
LINE
  5
F100A2
330
F100A3
100
AcDbEntity
8
Geo
100
AcDbLine
10
-58.9121454956937
20
14.8723967792859
30
0.00000000000000
11
-58.8974788290270
21
14.8656589546458
31
0.00000000000000
  0
LINE
  5
F100A4
330
F100A5
100
AcDbEntity
8
Geo
100
AcDbLine
10
-58.8974788290270
20
14.8656589546458
30
0.00000000000000
11
-58.8828121623604
21
14.8588636543681
31
0.00000000000000
  0
LINE
  5
F100A6
330
F100A7
100
AcDbEntity
8
Geo
100
AcDbLine
10
-58.8828121623604
20
14.8588636543681
30
0.00000000000000
11
-58.8681454956937
21
14.8520117446627
31
0.00000000000000
  0
LINE
  5
F100A8
330
F100A9
100
AcDbEntity
8
Geo
100
AcDbLine
10
-58.8681454956937
20
14.8520117446627
30
0.00000000000000
11
-58.8534788290270
21
14.8451040989556
31
0.00000000000000
  0
LINE
  5
F100AA
330
F100AB
100
AcDbEntity
8
Geo
100
AcDbLine
10
-58.8534788290270
20
14.8451040989556
30
0.00000000000000
11
-58.8388121623604
21
14.8381415977773
31
0.00000000000000
  0
LINE
  5
F100AC
330
F100AD
100
AcDbEntity
8
Geo
100
AcDbLine
10
-58.8388121623604
20
14.8381415977773
30
0.00000000000000
11
-58.8241454956937
21
14.8311251286512
31
0.00000000000000
  0
LINE
  5
F100AE
330
F100AF
100
AcDbEntity
8
Geo
100
AcDbLine
10
-58.8241454956937
20
14.8311251286512
30
0.00000000000000
11
-58.8094788290270
21
14.8240555859798
31
0.00000000000000
  0
LINE
  5
F100B0
330
F100B1
100
AcDbEntity
8
Geo
100
AcDbLine
10
-58.8094788290270
20
14.8240555859798
30
0.00000000000000
11
-58.7948121623604
21
14.8169338709312
31
0.00000000000000
  0
LINE
  5
F100B2
330
F100B3
100
AcDbEntity
8
Geo
100
AcDbLine
10
-58.7948121623604
20
14.8169338709312
30
0.00000000000000
11
-58.7801454956937
21
14.8097608913239
31
0.00000000000000
  0
LINE
  5
F100B4
330
F100B5
100
AcDbEntity
8
Geo
100
AcDbLine
10
-58.7801454956937
20
14.8097608913239
30
0.00000000000000
11
-58.7654788290270
21
14.8025375615112
31
0.00000000000000
  0
LINE
  5
F100B6
330
F100B7
100
AcDbEntity
8
Geo
100
AcDbLine
10
-58.7654788290270
20
14.8025375615112
30
0.00000000000000
11
-58.7508121623604
21
14.7952648022647
31
0.00000000000000
  0
LINE
  5
F100B8
330
F100B9
100
AcDbEntity
8
Geo
100
AcDbLine
10
-58.7508121623604
20
14.7952648022647
30
0.00000000000000
11
-58.7361454956937
21
14.7879435406568
31
0.00000000000000
  0
LINE
  5
F100BA
330
F100BB
100
AcDbEntity
8
Geo
100
AcDbLine
10
-58.7361454956937
20
14.7879435406568
30
0.00000000000000
11
-58.7214788290270
21
14.7805747099426
31
0.00000000000000
  0
LINE
  5
F100BC
330
F100BD
100
AcDbEntity
8
Geo
100
AcDbLine
10
-58.7214788290270
20
14.7805747099426
30
0.00000000000000
11
-58.7068121623604
21
14.7731592494409
31
0.00000000000000
  0
LINE
  5
F100BE
330
F100BF
100
AcDbEntity
8
Geo
100
AcDbLine
10
-58.7068121623604
20
14.7731592494409
30
0.00000000000000
11
-58.6921454956937
21
14.7656981044146
31
0.00000000000000
  0
LINE
  5
F100C0
330
F100C1
100
AcDbEntity
8
Geo
100
AcDbLine
10
-58.6921454956937
20
14.7656981044146
30
0.00000000000000
11
-58.6774788290270
21
14.7581922259499
31
0.00000000000000
  0
LINE
  5
F100C2
330
F100C3
100
AcDbEntity
8
Geo
100
AcDbLine
10
-58.6774788290270
20
14.7581922259499
30
0.00000000000000
11
-58.6628121623604
21
14.7506425708354
31
0.00000000000000
  0
LINE
  5
F100C4
330
F100C5
100
AcDbEntity
8
Geo
100
AcDbLine
10
-58.6628121623604
20
14.7506425708354
30
0.00000000000000
11
-58.6481454956937
21
14.7430501014400
31
0.00000000000000
  0
LINE
  5
F100C6
330
F100C7
100
AcDbEntity
8
Geo
100
AcDbLine
10
-58.6481454956937
20
14.7430501014400
30
0.00000000000000
11
-58.6334788290270
21
14.7354157855902
31
0.00000000000000
  0
LINE
  5
F100C8
330
F100C9
100
AcDbEntity
8
Geo
100
AcDbLine
10
-58.6334788290270
20
14.7354157855902
30
0.00000000000000
11
-58.6188121623604
21
14.7277405964466
31
0.00000000000000
  0
LINE
  5
F100CA
330
F100CB
100
AcDbEntity
8
Geo
100
AcDbLine
10
-58.6188121623604
20
14.7277405964466
30
0.00000000000000
11
-58.6041454956937
21
14.7200255123802
31
0.00000000000000
  0
LINE
  5
F100CC
330
F100CD
100
AcDbEntity
8
Geo
100
AcDbLine
10
-58.6041454956937
20
14.7200255123802
30
0.00000000000000
11
-58.5894788290270
21
14.7122715168474
31
0.00000000000000
  0
LINE
  5
F100CE
330
F100CF
100
AcDbEntity
8
Geo
100
AcDbLine
10
-58.5894788290270
20
14.7122715168474
30
0.00000000000000
11
-58.5748121623604
21
14.7044795982648
31
0.00000000000000
  0
LINE
  5
F100D0
330
F100D1
100
AcDbEntity
8
Geo
100
AcDbLine
10
-58.5748121623604
20
14.7044795982648
30
0.00000000000000
11
-58.5601454956937
21
14.6966507498829
31
0.00000000000000
  0
LINE
  5
F100D2
330
F100D3
100
AcDbEntity
8
Geo
100
AcDbLine
10
-58.5601454956937
20
14.6966507498829
30
0.00000000000000
11
-58.5454788290270
21
14.6887859696599
31
0.00000000000000
  0
LINE
  5
F100D4
330
F100D5
100
AcDbEntity
8
Geo
100
AcDbLine
10
-58.5454788290270
20
14.6887859696599
30
0.00000000000000
11
-58.5308121623604
21
14.6808862601342
31
0.00000000000000
  0
LINE
  5
F100D6
330
F100D7
100
AcDbEntity
8
Geo
100
AcDbLine
10
-58.5308121623604
20
14.6808862601342
30
0.00000000000000
11
-58.5161454956937
21
14.6729526282969
31
0.00000000000000
  0
LINE
  5
F100D8
330
F100D9
100
AcDbEntity
8
Geo
100
AcDbLine
10
-58.5161454956937
20
14.6729526282969
30
0.00000000000000
11
-58.5014788290270
21
14.6649860854630
31
0.00000000000000
  0
LINE
  5
F100DA
330
F100DB
100
AcDbEntity
8
Geo
100
AcDbLine
10
-58.5014788290270
20
14.6649860854630
30
0.00000000000000
11
-58.4868121623604
21
14.6569876471429
31
0.00000000000000
  0
LINE
  5
F100DC
330
F100DD
100
AcDbEntity
8
Geo
100
AcDbLine
10
-58.4868121623604
20
14.6569876471429
30
0.00000000000000
11
-58.4721454956937
21
14.6489583329126
31
0.00000000000000
  0
LINE
  5
F100DE
330
F100DF
100
AcDbEntity
8
Geo
100
AcDbLine
10
-58.4721454956937
20
14.6489583329126
30
0.00000000000000
11
-58.4574788290270
21
14.6408991662841
31
0.00000000000000
  0
LINE
  5
F100E0
330
F100E1
100
AcDbEntity
8
Geo
100
AcDbLine
10
-58.4574788290270
20
14.6408991662841
30
0.00000000000000
11
-58.4428121623604
21
14.6328111745746
31
0.00000000000000
  0
LINE
  5
F100E2
330
F100E3
100
AcDbEntity
8
Geo
100
AcDbLine
10
-58.4428121623604
20
14.6328111745746
30
0.00000000000000
11
-58.4281454956937
21
14.6246953887758
31
0.00000000000000
  0
LINE
  5
F100E4
330
F100E5
100
AcDbEntity
8
Geo
100
AcDbLine
10
-58.4281454956937
20
14.6246953887758
30
0.00000000000000
11
-58.4134788290270
21
14.6165528434223
31
0.00000000000000
  0
LINE
  5
F100E6
330
F100E7
100
AcDbEntity
8
Geo
100
AcDbLine
10
-58.4134788290270
20
14.6165528434223
30
0.00000000000000
11
-58.3988121623604
21
14.6083845764597
31
0.00000000000000
  0
LINE
  5
F100E8
330
F100E9
100
AcDbEntity
8
Geo
100
AcDbLine
10
-58.3988121623604
20
14.6083845764597
30
0.00000000000000
11
-58.3841454956937
21
14.6001916291127
31
0.00000000000000
  0
LINE
  5
F100EA
330
F100EB
100
AcDbEntity
8
Geo
100
AcDbLine
10
-58.3841454956937
20
14.6001916291127
30
0.00000000000000
11
-58.3694788290270
21
14.5919750457516
31
0.00000000000000
  0
LINE
  5
F100EC
330
F100ED
100
AcDbEntity
8
Geo
100
AcDbLine
10
-58.3694788290270
20
14.5919750457516
30
0.00000000000000
11
-58.3548121623604
21
14.5837358737600
31
0.00000000000000
  0
LINE
  5
F100EE
330
F100EF
100
AcDbEntity
8
Geo
100
AcDbLine
10
-58.3548121623604
20
14.5837358737600
30
0.00000000000000
11
-58.3401454956937
21
14.5754751634008
31
0.00000000000000
  0
LINE
  5
F100F0
330
F100F1
100
AcDbEntity
8
Geo
100
AcDbLine
10
-58.3401454956937
20
14.5754751634008
30
0.00000000000000
11
-58.3254788290270
21
14.5671939676824
31
0.00000000000000
  0
LINE
  5
F100F2
330
F100F3
100
AcDbEntity
8
Geo
100
AcDbLine
10
-58.3254788290270
20
14.5671939676824
30
0.00000000000000
11
-58.3108121623604
21
14.5588933422244
31
0.00000000000000
  0
LINE
  5
F100F4
330
F100F5
100
AcDbEntity
8
Geo
100
AcDbLine
10
-58.3108121623604
20
14.5588933422244
30
0.00000000000000
11
-58.2961454956937
21
14.5505743451235
31
0.00000000000000
  0
LINE
  5
F100F6
330
F100F7
100
AcDbEntity
8
Geo
100
AcDbLine
10
-58.2961454956937
20
14.5505743451235
30
0.00000000000000
11
-58.2814788290270
21
14.5422380368178
31
0.00000000000000
  0
LINE
  5
F100F8
330
F100F9
100
AcDbEntity
8
Geo
100
AcDbLine
10
-58.2814788290270
20
14.5422380368178
30
0.00000000000000
11
-58.2668121623604
21
14.5338854799526
31
0.00000000000000
  0
LINE
  5
F100FA
330
F100FB
100
AcDbEntity
8
Geo
100
AcDbLine
10
-58.2668121623604
20
14.5338854799526
30
0.00000000000000
11
-58.2521454956937
21
14.5255177392439
31
0.00000000000000
  0
LINE
  5
F100FC
330
F100FD
100
AcDbEntity
8
Geo
100
AcDbLine
10
-58.2521454956937
20
14.5255177392439
30
0.00000000000000
11
-58.2374788290270
21
14.5171358813436
31
0.00000000000000
  0
LINE
  5
F100FE
330
F100FF
100
AcDbEntity
8
Geo
100
AcDbLine
10
-58.2374788290270
20
14.5171358813436
30
0.00000000000000
11
-58.2228121623604
21
14.5087409747031
31
0.00000000000000
  0
LINE
  5
F10100
330
F10101
100
AcDbEntity
8
Geo
100
AcDbLine
10
-58.2228121623604
20
14.5087409747031
30
0.00000000000000
11
-58.2081454956937
21
14.5003340894370
31
0.00000000000000
  0
LINE
  5
F10102
330
F10103
100
AcDbEntity
8
Geo
100
AcDbLine
10
-58.2081454956937
20
14.5003340894370
30
0.00000000000000
11
-58.1934788290270
21
14.4919162971869
31
0.00000000000000
  0
LINE
  5
F10104
330
F10105
100
AcDbEntity
8
Geo
100
AcDbLine
10
-58.1934788290270
20
14.4919162971869
30
0.00000000000000
11
-58.1788121623604
21
14.4834886709847
31
0.00000000000000
  0
LINE
  5
F10106
330
F10107
100
AcDbEntity
8
Geo
100
AcDbLine
10
-58.1788121623604
20
14.4834886709847
30
0.00000000000000
11
-58.1641454956937
21
14.4750522851160
31
0.00000000000000
  0
LINE
  5
F10108
330
F10109
100
AcDbEntity
8
Geo
100
AcDbLine
10
-58.1641454956937
20
14.4750522851160
30
0.00000000000000
11
-58.1494788290270
21
14.4666082149829
31
0.00000000000000
  0
LINE
  5
F1010A
330
F1010B
100
AcDbEntity
8
Geo
100
AcDbLine
10
-58.1494788290270
20
14.4666082149829
30
0.00000000000000
11
-58.1348121623604
21
14.4581575369669
31
0.00000000000000
  0
LINE
  5
F1010C
330
F1010D
100
AcDbEntity
8
Geo
100
AcDbLine
10
-58.1348121623604
20
14.4581575369669
30
0.00000000000000
11
-58.1201454956937
21
14.4497013282922
31
0.00000000000000
  0
LINE
  5
F1010E
330
F1010F
100
AcDbEntity
8
Geo
100
AcDbLine
10
-58.1201454956937
20
14.4497013282922
30
0.00000000000000
11
-58.1054788290270
21
14.4412406668875
31
0.00000000000000
  0
LINE
  5
F10110
330
F10111
100
AcDbEntity
8
Geo
100
AcDbLine
10
-58.1054788290270
20
14.4412406668875
30
0.00000000000000
11
-58.0908121623604
21
14.4327766312496
31
0.00000000000000
  0
LINE
  5
F10112
330
F10113
100
AcDbEntity
8
Geo
100
AcDbLine
10
-58.0908121623604
20
14.4327766312496
30
0.00000000000000
11
-58.0761454956937
21
14.4243103003050
31
0.00000000000000
  0
LINE
  5
F10114
330
F10115
100
AcDbEntity
8
Geo
100
AcDbLine
10
-58.0761454956937
20
14.4243103003050
30
0.00000000000000
11
-58.0614788290270
21
14.4158427532730
31
0.00000000000000
  0
LINE
  5
F10116
330
F10117
100
AcDbEntity
8
Geo
100
AcDbLine
10
-58.0614788290270
20
14.4158427532730
30
0.00000000000000
11
-58.0468121623604
21
14.4073750695280
31
0.00000000000000
  0
LINE
  5
F10118
330
F10119
100
AcDbEntity
8
Geo
100
AcDbLine
10
-58.0468121623604
20
14.4073750695280
30
0.00000000000000
11
-58.0321454956937
21
14.3989083284615
31
0.00000000000000
  0
LINE
  5
F1011A
330
F1011B
100
AcDbEntity
8
Geo
100
AcDbLine
10
-58.0321454956937
20
14.3989083284615
30
0.00000000000000
11
-58.0174788290270
21
14.3904436093452
31
0.00000000000000
  0
LINE
  5
F1011C
330
F1011D
100
AcDbEntity
8
Geo
100
AcDbLine
10
-58.0174788290270
20
14.3904436093452
30
0.00000000000000
11
-58.0028121623604
21
14.3819819911929
31
0.00000000000000
  0
LINE
  5
F1011E
330
F1011F
100
AcDbEntity
8
Geo
100
AcDbLine
10
-58.0028121623604
20
14.3819819911929
30
0.00000000000000
11
-57.9881454956937
21
14.3735245526231
31
0.00000000000000
  0
LINE
  5
F10120
330
F10121
100
AcDbEntity
8
Geo
100
AcDbLine
10
-57.9881454956937
20
14.3735245526231
30
0.00000000000000
11
-57.9734788290270
21
14.3650723717214
31
0.00000000000000
  0
LINE
  5
F10122
330
F10123
100
AcDbEntity
8
Geo
100
AcDbLine
10
-57.9734788290270
20
14.3650723717214
30
0.00000000000000
11
-57.9588121623604
21
14.3566265259036
31
0.00000000000000
  0
LINE
  5
F10124
330
F10125
100
AcDbEntity
8
Geo
100
AcDbLine
10
-57.9588121623604
20
14.3566265259036
30
0.00000000000000
11
-57.9441454956937
21
14.3481880917775
31
0.00000000000000
  0
LINE
  5
F10126
330
F10127
100
AcDbEntity
8
Geo
100
AcDbLine
10
-57.9441454956937
20
14.3481880917775
30
0.00000000000000
11
-57.9294788290270
21
14.3397581450063
31
0.00000000000000
  0
LINE
  5
F10128
330
F10129
100
AcDbEntity
8
Geo
100
AcDbLine
10
-57.9294788290270
20
14.3397581450063
30
0.00000000000000
11
-57.9148121623604
21
14.3313377601713
31
0.00000000000000
  0
LINE
  5
F1012A
330
F1012B
100
AcDbEntity
8
Geo
100
AcDbLine
10
-57.9148121623604
20
14.3313377601713
30
0.00000000000000
11
-57.9001454956937
21
14.3229280106351
31
0.00000000000000
  0
LINE
  5
F1012C
330
F1012D
100
AcDbEntity
8
Geo
100
AcDbLine
10
-57.9001454956937
20
14.3229280106351
30
0.00000000000000
11
-57.8854788290270
21
14.3145299684042
31
0.00000000000000
  0
LINE
  5
F1012E
330
F1012F
100
AcDbEntity
8
Geo
100
AcDbLine
10
-57.8854788290270
20
14.3145299684042
30
0.00000000000000
11
-57.8708121623604
21
14.3061447039931
31
0.00000000000000
  0
LINE
  5
F10130
330
F10131
100
AcDbEntity
8
Geo
100
AcDbLine
10
-57.8708121623604
20
14.3061447039931
30
0.00000000000000
11
-57.8561454956937
21
14.2977732862874
31
0.00000000000000
  0
LINE
  5
F10132
330
F10133
100
AcDbEntity
8
Geo
100
AcDbLine
10
-57.8561454956937
20
14.2977732862874
30
0.00000000000000
11
-57.8414788290270
21
14.2894167824075
31
0.00000000000000
  0
LINE
  5
F10134
330
F10135
100
AcDbEntity
8
Geo
100
AcDbLine
10
-57.8414788290270
20
14.2894167824075
30
0.00000000000000
11
-57.8268121623604
21
14.2810762575728
31
0.00000000000000
  0
LINE
  5
F10136
330
F10137
100
AcDbEntity
8
Geo
100
AcDbLine
10
-57.8268121623604
20
14.2810762575728
30
0.00000000000000
11
-57.8121454956937
21
14.2727527749659
31
0.00000000000000
  0
LINE
  5
F10138
330
F10139
100
AcDbEntity
8
Geo
100
AcDbLine
10
-57.8121454956937
20
14.2727527749659
30
0.00000000000000
11
-57.7974788290270
21
14.2644473955968
31
0.00000000000000
  0
LINE
  5
F1013A
330
F1013B
100
AcDbEntity
8
Geo
100
AcDbLine
10
-57.7974788290270
20
14.2644473955968
30
0.00000000000000
11
-57.7828121623604
21
14.2561611781681
31
0.00000000000000
  0
LINE
  5
F1013C
330
F1013D
100
AcDbEntity
8
Geo
100
AcDbLine
10
-57.7828121623604
20
14.2561611781681
30
0.00000000000000
11
-57.7681454956937
21
14.2478951789396
31
0.00000000000000
  0
LINE
  5
F1013E
330
F1013F
100
AcDbEntity
8
Geo
100
AcDbLine
10
-57.7681454956937
20
14.2478951789396
30
0.00000000000000
11
-57.7534788290270
21
14.2396504515939
31
0.00000000000000
  0
LINE
  5
F10140
330
F10141
100
AcDbEntity
8
Geo
100
AcDbLine
10
-57.7534788290270
20
14.2396504515939
30
0.00000000000000
11
-57.7388121623604
21
14.2314280471019
31
0.00000000000000
  0
LINE
  5
F10142
330
F10143
100
AcDbEntity
8
Geo
100
AcDbLine
10
-57.7388121623604
20
14.2314280471019
30
0.00000000000000
11
-57.7241454956937
21
14.2232290135894
31
0.00000000000000
  0
LINE
  5
F10144
330
F10145
100
AcDbEntity
8
Geo
100
AcDbLine
10
-57.7241454956937
20
14.2232290135894
30
0.00000000000000
11
-57.7094788290270
21
14.2150543962024
31
0.00000000000000
  0
LINE
  5
F10146
330
F10147
100
AcDbEntity
8
Geo
100
AcDbLine
10
-57.7094788290270
20
14.2150543962024
30
0.00000000000000
11
-57.6948121623604
21
14.2069052369752
31
0.00000000000000
  0
LINE
  5
F10148
330
F10149
100
AcDbEntity
8
Geo
100
AcDbLine
10
-57.6948121623604
20
14.2069052369752
30
0.00000000000000
11
-57.6801454956937
21
14.1987825746964
31
0.00000000000000
  0
LINE
  5
F1014A
330
F1014B
100
AcDbEntity
8
Geo
100
AcDbLine
10
-57.6801454956937
20
14.1987825746964
30
0.00000000000000
11
-57.6654788290270
21
14.1906874447772
31
0.00000000000000
  0
LINE
  5
F1014C
330
F1014D
100
AcDbEntity
8
Geo
100
AcDbLine
10
-57.6654788290270
20
14.1906874447772
30
0.00000000000000
11
-57.6508121623604
21
14.1826208791192
31
0.00000000000000
  0
LINE
  5
F1014E
330
F1014F
100
AcDbEntity
8
Geo
100
AcDbLine
10
-57.6508121623604
20
14.1826208791192
30
0.00000000000000
11
-57.6361454956937
21
14.1745839059828
31
0.00000000000000
  0
LINE
  5
F10150
330
F10151
100
AcDbEntity
8
Geo
100
AcDbLine
10
-57.6361454956937
20
14.1745839059828
30
0.00000000000000
11
-57.6214788290270
21
14.1665775498562
31
0.00000000000000
  0
LINE
  5
F10152
330
F10153
100
AcDbEntity
8
Geo
100
AcDbLine
10
-57.6214788290270
20
14.1665775498562
30
0.00000000000000
11
-57.6068121623604
21
14.1586028313249
31
0.00000000000000
  0
LINE
  5
F10154
330
F10155
100
AcDbEntity
8
Geo
100
AcDbLine
10
-57.6068121623604
20
14.1586028313249
30
0.00000000000000
11
-57.5921454956937
21
14.1506607669412
31
0.00000000000000
  0
LINE
  5
F10156
330
F10157
100
AcDbEntity
8
Geo
100
AcDbLine
10
-57.5921454956937
20
14.1506607669412
30
0.00000000000000
11
-57.5774788290270
21
14.1427523690953
31
0.00000000000000
  0
LINE
  5
F10158
330
F10159
100
AcDbEntity
8
Geo
100
AcDbLine
10
-57.5774788290270
20
14.1427523690953
30
0.00000000000000
11
-57.5628121623604
21
14.1348786458857
31
0.00000000000000
  0
LINE
  5
F1015A
330
F1015B
100
AcDbEntity
8
Geo
100
AcDbLine
10
-57.5628121623604
20
14.1348786458857
30
0.00000000000000
11
-57.5481454956937
21
14.1270406009906
31
0.00000000000000
  0
LINE
  5
F1015C
330
F1015D
100
AcDbEntity
8
Geo
100
AcDbLine
10
-57.5481454956937
20
14.1270406009906
30
0.00000000000000
11
-57.5334788290270
21
14.1192392335406
31
0.00000000000000
  0
LINE
  5
F1015E
330
F1015F
100
AcDbEntity
8
Geo
100
AcDbLine
10
-57.5334788290270
20
14.1192392335406
30
0.00000000000000
11
-57.5188121623604
21
14.1114755379909
31
0.00000000000000
  0
LINE
  5
F10160
330
F10161
100
AcDbEntity
8
Geo
100
AcDbLine
10
-57.5188121623604
20
14.1114755379909
30
0.00000000000000
11
-57.5041454956937
21
14.1037505039943
31
0.00000000000000
  0
LINE
  5
F10162
330
F10163
100
AcDbEntity
8
Geo
100
AcDbLine
10
-57.5041454956937
20
14.1037505039943
30
0.00000000000000
11
-57.4894788290270
21
14.0960651162757
31
0.00000000000000
  0
LINE
  5
F10164
330
F10165
100
AcDbEntity
8
Geo
100
AcDbLine
10
-57.4894788290270
20
14.0960651162757
30
0.00000000000000
11
-57.4748121623604
21
14.0884203545060
31
0.00000000000000
  0
LINE
  5
F10166
330
F10167
100
AcDbEntity
8
Geo
100
AcDbLine
10
-57.4748121623604
20
14.0884203545060
30
0.00000000000000
11
-57.4601454956937
21
14.0808171931774
31
0.00000000000000
  0
LINE
  5
F10168
330
F10169
100
AcDbEntity
8
Geo
100
AcDbLine
10
-57.4601454956937
20
14.0808171931774
30
0.00000000000000
11
-57.4454788290270
21
14.0732566014794
31
0.00000000000000
  0
LINE
  5
F1016A
330
F1016B
100
AcDbEntity
8
Geo
100
AcDbLine
10
-57.4454788290270
20
14.0732566014794
30
0.00000000000000
11
-57.4308121623604
21
14.0657395431749
31
0.00000000000000
  0
LINE
  5
F1016C
330
F1016D
100
AcDbEntity
8
Geo
100
AcDbLine
10
-57.4308121623604
20
14.0657395431749
30
0.00000000000000
11
-57.4161454956937
21
14.0582669764777
31
0.00000000000000
  0
LINE
  5
F1016E
330
F1016F
100
AcDbEntity
8
Geo
100
AcDbLine
10
-57.4161454956937
20
14.0582669764777
30
0.00000000000000
11
-57.4014788290270
21
14.0508398539299
31
0.00000000000000
  0
LINE
  5
F10170
330
F10171
100
AcDbEntity
8
Geo
100
AcDbLine
10
-57.4014788290270
20
14.0508398539299
30
0.00000000000000
11
-57.3868121623604
21
14.0434591222810
31
0.00000000000000
  0
LINE
  5
F10172
330
F10173
100
AcDbEntity
8
Geo
100
AcDbLine
10
-57.3868121623604
20
14.0434591222810
30
0.00000000000000
11
-57.3721454956937
21
14.0361257223668
31
0.00000000000000
  0
LINE
  5
F10174
330
F10175
100
AcDbEntity
8
Geo
100
AcDbLine
10
-57.3721454956937
20
14.0361257223668
30
0.00000000000000
11
-57.3574788290270
21
14.0288405889898
31
0.00000000000000
  0
LINE
  5
F10176
330
F10177
100
AcDbEntity
8
Geo
100
AcDbLine
10
-57.3574788290270
20
14.0288405889898
30
0.00000000000000
11
-57.3428121623604
21
14.0216046507996
31
0.00000000000000
  0
LINE
  5
F10178
330
F10179
100
AcDbEntity
8
Geo
100
AcDbLine
10
-57.3428121623604
20
14.0216046507996
30
0.00000000000000
11
-57.3281454956937
21
14.0144188301751
31
0.00000000000000
  0
LINE
  5
F1017A
330
F1017B
100
AcDbEntity
8
Geo
100
AcDbLine
10
-57.3281454956937
20
14.0144188301751
30
0.00000000000000
11
-57.3134788290270
21
14.0072840431065
31
0.00000000000000
  0
LINE
  5
F1017C
330
F1017D
100
AcDbEntity
8
Geo
100
AcDbLine
10
-57.3134788290270
20
14.0072840431065
30
0.00000000000000
11
-57.2988121623604
21
14.0002011990785
31
0.00000000000000
  0
LINE
  5
F1017E
330
F1017F
100
AcDbEntity
8
Geo
100
AcDbLine
10
-57.2988121623604
20
14.0002011990785
30
0.00000000000000
11
-57.2841454956937
21
13.9931712009549
31
0.00000000000000
  0
LINE
  5
F10180
330
F10181
100
AcDbEntity
8
Geo
100
AcDbLine
10
-57.2841454956937
20
13.9931712009549
30
0.00000000000000
11
-57.2694788290270
21
13.9861949448626
31
0.00000000000000
  0
LINE
  5
F10182
330
F10183
100
AcDbEntity
8
Geo
100
AcDbLine
10
-57.2694788290270
20
13.9861949448626
30
0.00000000000000
11
-57.2548121623604
21
13.9792733200784
31
0.00000000000000
  0
LINE
  5
F10184
330
F10185
100
AcDbEntity
8
Geo
100
AcDbLine
10
-57.2548121623604
20
13.9792733200784
30
0.00000000000000
11
-57.2401454956937
21
13.9724072089150
31
0.00000000000000
  0
LINE
  5
F10186
330
F10187
100
AcDbEntity
8
Geo
100
AcDbLine
10
-57.2401454956937
20
13.9724072089150
30
0.00000000000000
11
-57.2254788290270
21
13.9655974866084
31
0.00000000000000
  0
LINE
  5
F10188
330
F10189
100
AcDbEntity
8
Geo
100
AcDbLine
10
-57.2254788290270
20
13.9655974866084
30
0.00000000000000
11
-57.2108121623604
21
13.9588450212069
31
0.00000000000000
  0
LINE
  5
F1018A
330
F1018B
100
AcDbEntity
8
Geo
100
AcDbLine
10
-57.2108121623604
20
13.9588450212069
30
0.00000000000000
11
-57.1961454956937
21
13.9521506734602
31
0.00000000000000
  0
LINE
  5
F1018C
330
F1018D
100
AcDbEntity
8
Geo
100
AcDbLine
10
-57.1961454956937
20
13.9521506734602
30
0.00000000000000
11
-57.1814788290270
21
13.9455152967093
31
0.00000000000000
  0
LINE
  5
F1018E
330
F1018F
100
AcDbEntity
8
Geo
100
AcDbLine
10
-57.1814788290270
20
13.9455152967093
30
0.00000000000000
11
-57.1668121623604
21
13.9389397367784
31
0.00000000000000
  0
LINE
  5
F10190
330
F10191
100
AcDbEntity
8
Geo
100
AcDbLine
10
-57.1668121623604
20
13.9389397367784
30
0.00000000000000
11
-57.1521454956937
21
13.9324248318666
31
0.00000000000000
  0
LINE
  5
F10192
330
F10193
100
AcDbEntity
8
Geo
100
AcDbLine
10
-57.1521454956937
20
13.9324248318666
30
0.00000000000000
11
-57.1374788290270
21
13.9259714124412
31
0.00000000000000
  0
LINE
  5
F10194
330
F10195
100
AcDbEntity
8
Geo
100
AcDbLine
10
-57.1374788290270
20
13.9259714124412
30
0.00000000000000
11
-57.1228121623604
21
13.9195803011317
31
0.00000000000000
  0
LINE
  5
F10196
330
F10197
100
AcDbEntity
8
Geo
100
AcDbLine
10
-57.1228121623604
20
13.9195803011317
30
0.00000000000000
11
-57.1081454956937
21
13.9132523126252
31
0.00000000000000
  0
LINE
  5
F10198
330
F10199
100
AcDbEntity
8
Geo
100
AcDbLine
10
-57.1081454956937
20
13.9132523126252
30
0.00000000000000
11
-57.0934788290270
21
13.9069882535625
31
0.00000000000000
  0
LINE
  5
F1019A
330
F1019B
100
AcDbEntity
8
Geo
100
AcDbLine
10
-57.0934788290270
20
13.9069882535625
30
0.00000000000000
11
-57.0788121623604
21
13.9007889224351
31
0.00000000000000
  0
LINE
  5
F1019C
330
F1019D
100
AcDbEntity
8
Geo
100
AcDbLine
10
-57.0788121623604
20
13.9007889224351
30
0.00000000000000
11
-57.0641454956937
21
13.8946551094833
31
0.00000000000000
  0
LINE
  5
F1019E
330
F1019F
100
AcDbEntity
8
Geo
100
AcDbLine
10
-57.0641454956937
20
13.8946551094833
30
0.00000000000000
11
-57.0494788290270
21
13.8885875965961
31
0.00000000000000
  0
LINE
  5
F101A0
330
F101A1
100
AcDbEntity
8
Geo
100
AcDbLine
10
-57.0494788290270
20
13.8885875965961
30
0.00000000000000
11
-57.0348121623604
21
13.8825871572108
31
0.00000000000000
  0
LINE
  5
F101A2
330
F101A3
100
AcDbEntity
8
Geo
100
AcDbLine
10
-57.0348121623604
20
13.8825871572108
30
0.00000000000000
11
-57.0201454956937
21
13.8766545562148
31
0.00000000000000
  0
LINE
  5
F101A4
330
F101A5
100
AcDbEntity
8
Geo
100
AcDbLine
10
-57.0201454956937
20
13.8766545562148
30
0.00000000000000
11
-57.0054788290270
21
13.8707905498479
31
0.00000000000000
  0
LINE
  5
F101A6
330
F101A7
100
AcDbEntity
8
Geo
100
AcDbLine
10
-57.0054788290270
20
13.8707905498479
30
0.00000000000000
11
-56.9908121623603
21
13.8649958856062
31
0.00000000000000
  0
LINE
  5
F101A8
330
F101A9
100
AcDbEntity
8
Geo
100
AcDbLine
10
-56.9908121623603
20
13.8649958856062
30
0.00000000000000
11
-56.9761454956937
21
13.8592713021466
31
0.00000000000000
  0
LINE
  5
F101AA
330
F101AB
100
AcDbEntity
8
Geo
100
AcDbLine
10
-56.9761454956937
20
13.8592713021466
30
0.00000000000000
11
-56.9614788290270
21
13.8536175291925
31
0.00000000000000
  0
LINE
  5
F101AC
330
F101AD
100
AcDbEntity
8
Geo
100
AcDbLine
10
-56.9614788290270
20
13.8536175291925
30
0.00000000000000
11
-56.9468121623604
21
13.8480352874412
31
0.00000000000000
  0
LINE
  5
F101AE
330
F101AF
100
AcDbEntity
8
Geo
100
AcDbLine
10
-56.9468121623604
20
13.8480352874412
30
0.00000000000000
11
-56.9321454956937
21
13.8425252884715
31
0.00000000000000
  0
LINE
  5
F101B0
330
F101B1
100
AcDbEntity
8
Geo
100
AcDbLine
10
-56.9321454956937
20
13.8425252884715
30
0.00000000000000
11
-56.9174788290270
21
13.8370882346535
31
0.00000000000000
  0
LINE
  5
F101B2
330
F101B3
100
AcDbEntity
8
Geo
100
AcDbLine
10
-56.9174788290270
20
13.8370882346535
30
0.00000000000000
11
-56.9028121623603
21
13.8317248190587
31
0.00000000000000
  0
LINE
  5
F101B4
330
F101B5
100
AcDbEntity
8
Geo
100
AcDbLine
10
-56.9028121623603
20
13.8317248190587
30
0.00000000000000
11
-56.8881454956937
21
13.8264357253719
31
0.00000000000000
  0
LINE
  5
F101B6
330
F101B7
100
AcDbEntity
8
Geo
100
AcDbLine
10
-56.8881454956937
20
13.8264357253719
30
0.00000000000000
11
-56.8734788290270
21
13.8212216278040
31
0.00000000000000
  0
LINE
  5
F101B8
330
F101B9
100
AcDbEntity
8
Geo
100
AcDbLine
10
-56.8734788290270
20
13.8212216278040
30
0.00000000000000
11
-56.8588121623604
21
13.8160831910057
31
0.00000000000000
  0
LINE
  5
F101BA
330
F101BB
100
AcDbEntity
8
Geo
100
AcDbLine
10
-56.8588121623604
20
13.8160831910057
30
0.00000000000000
11
-56.8441454956937
21
13.8110210699835
31
0.00000000000000
  0
LINE
  5
F101BC
330
F101BD
100
AcDbEntity
8
Geo
100
AcDbLine
10
-56.8441454956937
20
13.8110210699835
30
0.00000000000000
11
-56.8294788290270
21
13.8060359100154
31
0.00000000000000
  0
LINE
  5
F101BE
330
F101BF
100
AcDbEntity
8
Geo
100
AcDbLine
10
-56.8294788290270
20
13.8060359100154
30
0.00000000000000
11
-56.8148121623603
21
13.8011283465693
31
0.00000000000000
  0
LINE
  5
F101C0
330
F101C1
100
AcDbEntity
8
Geo
100
AcDbLine
10
-56.8148121623603
20
13.8011283465693
30
0.00000000000000
11
-56.8001454956937
21
13.7962990052216
31
0.00000000000000
  0
LINE
  5
F101C2
330
F101C3
100
AcDbEntity
8
Geo
100
AcDbLine
10
-56.8001454956937
20
13.7962990052216
30
0.00000000000000
11
-56.7854788290270
21
13.7915485015776
31
0.00000000000000
  0
LINE
  5
F101C4
330
F101C5
100
AcDbEntity
8
Geo
100
AcDbLine
10
-56.7854788290270
20
13.7915485015776
30
0.00000000000000
11
-56.7708121623604
21
13.7868774411930
31
0.00000000000000
  0
LINE
  5
F101C6
330
F101C7
100
AcDbEntity
8
Geo
100
AcDbLine
10
-56.7708121623604
20
13.7868774411930
30
0.00000000000000
11
-56.7561454956937
21
13.7822864194967
31
0.00000000000000
  0
LINE
  5
F101C8
330
F101C9
100
AcDbEntity
8
Geo
100
AcDbLine
10
-56.7561454956937
20
13.7822864194967
30
0.00000000000000
11
-56.7414788290270
21
13.7777760217150
31
0.00000000000000
  0
LINE
  5
F101CA
330
F101CB
100
AcDbEntity
8
Geo
100
AcDbLine
10
-56.7414788290270
20
13.7777760217150
30
0.00000000000000
11
-56.7268121623603
21
13.7733468227969
31
0.00000000000000
  0
LINE
  5
F101CC
330
F101CD
100
AcDbEntity
8
Geo
100
AcDbLine
10
-56.7268121623603
20
13.7733468227969
30
0.00000000000000
11
-56.7121454956937
21
13.7689993873406
31
0.00000000000000
  0
LINE
  5
F101CE
330
F101CF
100
AcDbEntity
8
Geo
100
AcDbLine
10
-56.7121454956937
20
13.7689993873406
30
0.00000000000000
11
-56.6974788290270
21
13.7647342695222
31
0.00000000000000
  0
LINE
  5
F101D0
330
F101D1
100
AcDbEntity
8
Geo
100
AcDbLine
10
-56.6974788290270
20
13.7647342695222
30
0.00000000000000
11
-56.6828121623603
21
13.7605520130241
31
0.00000000000000
  0
LINE
  5
F101D2
330
F101D3
100
AcDbEntity
8
Geo
100
AcDbLine
10
-56.6828121623603
20
13.7605520130241
30
0.00000000000000
11
-56.6681454956937
21
13.7564531509667
31
0.00000000000000
  0
LINE
  5
F101D4
330
F101D5
100
AcDbEntity
8
Geo
100
AcDbLine
10
-56.6681454956937
20
13.7564531509667
30
0.00000000000000
11
-56.6534788290270
21
13.7524382058396
31
0.00000000000000
  0
LINE
  5
F101D6
330
F101D7
100
AcDbEntity
8
Geo
100
AcDbLine
10
-56.6534788290270
20
13.7524382058396
30
0.00000000000000
11
-56.6388121623603
21
13.7485076894355
31
0.00000000000000
  0
LINE
  5
F101D8
330
F101D9
100
AcDbEntity
8
Geo
100
AcDbLine
10
-56.6388121623603
20
13.7485076894355
30
0.00000000000000
11
-56.6241454956937
21
13.7446621027847
31
0.00000000000000
  0
LINE
  5
F101DA
330
F101DB
100
AcDbEntity
8
Geo
100
AcDbLine
10
-56.6241454956937
20
13.7446621027847
30
0.00000000000000
11
-56.6094788290270
21
13.7409019360916
31
0.00000000000000
  0
LINE
  5
F101DC
330
F101DD
100
AcDbEntity
8
Geo
100
AcDbLine
10
-56.6094788290270
20
13.7409019360916
30
0.00000000000000
11
-56.5948121623603
21
13.7372276686716
31
0.00000000000000
  0
LINE
  5
F101DE
330
F101DF
100
AcDbEntity
8
Geo
100
AcDbLine
10
-56.5948121623603
20
13.7372276686716
30
0.00000000000000
11
-56.5801454956937
21
13.7336397688906
31
0.00000000000000
  0
LINE
  5
F101E0
330
F101E1
100
AcDbEntity
8
Geo
100
AcDbLine
10
-56.5801454956937
20
13.7336397688906
30
0.00000000000000
11
-56.5654788290270
21
13.7301386941051
31
0.00000000000000
  0
LINE
  5
F101E2
330
F101E3
100
AcDbEntity
8
Geo
100
AcDbLine
10
-56.5654788290270
20
13.7301386941051
30
0.00000000000000
11
-56.5508121623603
21
13.7267248906036
31
0.00000000000000
  0
LINE
  5
F101E4
330
F101E5
100
AcDbEntity
8
Geo
100
AcDbLine
10
-56.5508121623603
20
13.7267248906036
30
0.00000000000000
11
-56.5361454956937
21
13.7233987935502
31
0.00000000000000
  0
LINE
  5
F101E6
330
F101E7
100
AcDbEntity
8
Geo
100
AcDbLine
10
-56.5361454956937
20
13.7233987935502
30
0.00000000000000
11
-56.5214788290270
21
13.7201608269287
31
0.00000000000000
  0
LINE
  5
F101E8
330
F101E9
100
AcDbEntity
8
Geo
100
AcDbLine
10
-56.5214788290270
20
13.7201608269287
30
0.00000000000000
11
-56.5068121623603
21
13.7170114034889
31
0.00000000000000
  0
LINE
  5
F101EA
330
F101EB
100
AcDbEntity
8
Geo
100
AcDbLine
10
-56.5068121623603
20
13.7170114034889
30
0.00000000000000
11
-56.4921454956937
21
13.7139509246939
31
0.00000000000000
  0
LINE
  5
F101EC
330
F101ED
100
AcDbEntity
8
Geo
100
AcDbLine
10
-56.4921454956937
20
13.7139509246939
30
0.00000000000000
11
-56.4774788290270
21
13.7109797806685
31
0.00000000000000
  0
LINE
  5
F101EE
330
F101EF
100
AcDbEntity
8
Geo
100
AcDbLine
10
-56.4774788290270
20
13.7109797806685
30
0.00000000000000
11
-56.4628121623603
21
13.7080983501502
31
0.00000000000000
  0
LINE
  5
F101F0
330
F101F1
100
AcDbEntity
8
Geo
100
AcDbLine
10
-56.4628121623603
20
13.7080983501502
30
0.00000000000000
11
-56.4481454956937
21
13.7053070004405
31
0.00000000000000
  0
LINE
  5
F101F2
330
F101F3
100
AcDbEntity
8
Geo
100
AcDbLine
10
-56.4481454956937
20
13.7053070004405
30
0.00000000000000
11
-56.4334788290270
21
13.7026060873579
31
0.00000000000000
  0
LINE
  5
F101F4
330
F101F5
100
AcDbEntity
8
Geo
100
AcDbLine
10
-56.4334788290270
20
13.7026060873579
30
0.00000000000000
11
-56.4188121623603
21
13.6999959551929
31
0.00000000000000
  0
LINE
  5
F101F6
330
F101F7
100
AcDbEntity
8
Geo
100
AcDbLine
10
-56.4188121623603
20
13.6999959551929
30
0.00000000000000
11
-56.4041454956937
21
13.6974769366642
31
0.00000000000000
  0
LINE
  5
F101F8
330
F101F9
100
AcDbEntity
8
Geo
100
AcDbLine
10
-56.4041454956937
20
13.6974769366642
30
0.00000000000000
11
-56.3894788290270
21
13.6950493528756
31
0.00000000000000
  0
LINE
  5
F101FA
330
F101FB
100
AcDbEntity
8
Geo
100
AcDbLine
10
-56.3894788290270
20
13.6950493528756
30
0.00000000000000
11
-56.3748121623603
21
13.6927135132760
31
0.00000000000000
  0
LINE
  5
F101FC
330
F101FD
100
AcDbEntity
8
Geo
100
AcDbLine
10
-56.3748121623603
20
13.6927135132760
30
0.00000000000000
11
-56.3601454956937
21
13.6904697156192
31
0.00000000000000
  0
LINE
  5
F101FE
330
F101FF
100
AcDbEntity
8
Geo
100
AcDbLine
10
-56.3601454956937
20
13.6904697156192
30
0.00000000000000
11
-56.3454788290270
21
13.6883182459264
31
0.00000000000000
  0
LINE
  5
F10200
330
F10201
100
AcDbEntity
8
Geo
100
AcDbLine
10
-56.3454788290270
20
13.6883182459264
30
0.00000000000000
11
-56.3308121623603
21
13.6862593784496
31
0.00000000000000
  0
LINE
  5
F10202
330
F10203
100
AcDbEntity
8
Geo
100
AcDbLine
10
-56.3308121623603
20
13.6862593784496
30
0.00000000000000
11
-56.3161454956937
21
13.6842933756364
31
0.00000000000000
  0
LINE
  5
F10204
330
F10205
100
AcDbEntity
8
Geo
100
AcDbLine
10
-56.3161454956937
20
13.6842933756364
30
0.00000000000000
11
-56.3014788290270
21
13.6824204880969
31
0.00000000000000
  0
LINE
  5
F10206
330
F10207
100
AcDbEntity
8
Geo
100
AcDbLine
10
-56.3014788290270
20
13.6824204880969
30
0.00000000000000
11
-56.2868121623603
21
13.6806409545718
31
0.00000000000000
  0
LINE
  5
F10208
330
F10209
100
AcDbEntity
8
Geo
100
AcDbLine
10
-56.2868121623603
20
13.6806409545718
30
0.00000000000000
11
-56.2721454956937
21
13.6789550019014
31
0.00000000000000
  0
LINE
  5
F1020A
330
F1020B
100
AcDbEntity
8
Geo
100
AcDbLine
10
-56.2721454956937
20
13.6789550019014
30
0.00000000000000
11
-56.2574788290270
21
13.6773628449974
31
0.00000000000000
  0
LINE
  5
F1020C
330
F1020D
100
AcDbEntity
8
Geo
100
AcDbLine
10
-56.2574788290270
20
13.6773628449974
30
0.00000000000000
11
-56.2428121623603
21
13.6758646868151
31
0.00000000000000
  0
LINE
  5
F1020E
330
F1020F
100
AcDbEntity
8
Geo
100
AcDbLine
10
-56.2428121623603
20
13.6758646868151
30
0.00000000000000
11
-56.2281454956937
21
13.6744607183275
31
0.00000000000000
  0
LINE
  5
F10210
330
F10211
100
AcDbEntity
8
Geo
100
AcDbLine
10
-56.2281454956937
20
13.6744607183275
30
0.00000000000000
11
-56.2134788290270
21
13.6731511185011
31
0.00000000000000
  0
LINE
  5
F10212
330
F10213
100
AcDbEntity
8
Geo
100
AcDbLine
10
-56.2134788290270
20
13.6731511185011
30
0.00000000000000
11
-56.1988121623603
21
13.6719360542732
31
0.00000000000000
  0
LINE
  5
F10214
330
F10215
100
AcDbEntity
8
Geo
100
AcDbLine
10
-56.1988121623603
20
13.6719360542732
30
0.00000000000000
11
-56.1841454956937
21
13.6708156805302
31
0.00000000000000
  0
LINE
  5
F10216
330
F10217
100
AcDbEntity
8
Geo
100
AcDbLine
10
-56.1841454956937
20
13.6708156805302
30
0.00000000000000
11
-56.1694788290270
21
13.6697901400883
31
0.00000000000000
  0
LINE
  5
F10218
330
F10219
100
AcDbEntity
8
Geo
100
AcDbLine
10
-56.1694788290270
20
13.6697901400883
30
0.00000000000000
11
-56.1548121623603
21
13.6688595636752
31
0.00000000000000
  0
LINE
  5
F1021A
330
F1021B
100
AcDbEntity
8
Geo
100
AcDbLine
10
-56.1548121623603
20
13.6688595636752
30
0.00000000000000
11
-56.1401454956937
21
13.6680240699131
31
0.00000000000000
  0
LINE
  5
F1021C
330
F1021D
100
AcDbEntity
8
Geo
100
AcDbLine
10
-56.1401454956937
20
13.6680240699131
30
0.00000000000000
11
-56.1254788290270
21
13.6672837653040
31
0.00000000000000
  0
LINE
  5
F1021E
330
F1021F
100
AcDbEntity
8
Geo
100
AcDbLine
10
-56.1254788290270
20
13.6672837653040
30
0.00000000000000
11
-56.1108121623603
21
13.6666387442160
31
0.00000000000000
  0
LINE
  5
F10220
330
F10221
100
AcDbEntity
8
Geo
100
AcDbLine
10
-59.9974788290270
20
14.5035263233988
30
0.00000000000000
11
-59.9974788290270
21
14.0370173010203
31
0.00000000000000
  0
LINE
  5
F10222
330
F10223
100
AcDbEntity
8
Geo
100
AcDbLine
10
-59.9974788290270
20
14.0370173010203
30
0.00000000000000
11
-59.9892065879554
21
14.0222133565409
31
0.00000000000000
  0
LINE
  5
F10224
330
F10225
100
AcDbEntity
8
Geo
100
AcDbLine
10
-56.4725467444520
20
15.1647702573303
30
0.00000000000000
11
-56.4628121623603
21
15.1647491990884
31
0.00000000000000
  0
LINE
  5
F10226
330
F10227
100
AcDbEntity
8
Geo
100
AcDbLine
10
-56.4628121623603
20
15.1647491990884
30
0.00000000000000
11
-56.4481454956937
21
15.1646379452092
31
0.00000000000000
  0
LINE
  5
F10228
330
F10229
100
AcDbEntity
8
Geo
100
AcDbLine
10
-56.4481454956937
20
15.1646379452092
30
0.00000000000000
11
-56.4334788290270
21
15.1644311042733
31
0.00000000000000
  0
LINE
  5
F1022A
330
F1022B
100
AcDbEntity
8
Geo
100
AcDbLine
10
-56.4334788290270
20
15.1644311042733
30
0.00000000000000
11
-56.4188121623603
21
15.1641287026473
31
0.00000000000000
  0
LINE
  5
F1022C
330
F1022D
100
AcDbEntity
8
Geo
100
AcDbLine
10
-56.4188121623603
20
15.1641287026473
30
0.00000000000000
11
-56.4041454956937
21
15.1637307788787
31
0.00000000000000
  0
LINE
  5
F1022E
330
F1022F
100
AcDbEntity
8
Geo
100
AcDbLine
10
-56.4041454956937
20
15.1637307788787
30
0.00000000000000
11
-56.3894788290270
21
15.1632373836917
31
0.00000000000000
  0
LINE
  5
F10230
330
F10231
100
AcDbEntity
8
Geo
100
AcDbLine
10
-56.3894788290270
20
15.1632373836917
30
0.00000000000000
11
-56.3748121623603
21
15.1626485799804
31
0.00000000000000
  0
LINE
  5
F10232
330
F10233
100
AcDbEntity
8
Geo
100
AcDbLine
10
-56.3748121623603
20
15.1626485799804
30
0.00000000000000
11
-56.3601454956937
21
15.1619644428006
31
0.00000000000000
  0
LINE
  5
F10234
330
F10235
100
AcDbEntity
8
Geo
100
AcDbLine
10
-56.3601454956937
20
15.1619644428006
30
0.00000000000000
11
-56.3454788290270
21
15.1611850593607
31
0.00000000000000
  0
LINE
  5
F10236
330
F10237
100
AcDbEntity
8
Geo
100
AcDbLine
10
-56.3454788290270
20
15.1611850593607
30
0.00000000000000
11
-56.3308121623603
21
15.1603105290100
31
0.00000000000000
  0
LINE
  5
F10238
330
F10239
100
AcDbEntity
8
Geo
100
AcDbLine
10
-56.3308121623603
20
15.1603105290100
30
0.00000000000000
11
-56.3161454956937
21
15.1593409632267
31
0.00000000000000
  0
LINE
  5
F1023A
330
F1023B
100
AcDbEntity
8
Geo
100
AcDbLine
10
-56.3161454956937
20
15.1593409632267
30
0.00000000000000
11
-56.3014788290270
21
15.1582764856031
31
0.00000000000000
  0
LINE
  5
F1023C
330
F1023D
100
AcDbEntity
8
Geo
100
AcDbLine
10
-56.3014788290270
20
15.1582764856031
30
0.00000000000000
11
-56.2868121623603
21
15.1571172318302
31
0.00000000000000
  0
LINE
  5
F1023E
330
F1023F
100
AcDbEntity
8
Geo
100
AcDbLine
10
-56.2868121623603
20
15.1571172318302
30
0.00000000000000
11
-56.2721454956937
21
15.1558633496803
31
0.00000000000000
  0
LINE
  5
F10240
330
F10241
100
AcDbEntity
8
Geo
100
AcDbLine
10
-56.2721454956937
20
15.1558633496803
30
0.00000000000000
11
-56.2574788290270
21
15.1545149989882
31
0.00000000000000
  0
LINE
  5
F10242
330
F10243
100
AcDbEntity
8
Geo
100
AcDbLine
10
-56.2574788290270
20
15.1545149989882
30
0.00000000000000
11
-56.2428121623603
21
15.1530723516306
31
0.00000000000000
  0
LINE
  5
F10244
330
F10245
100
AcDbEntity
8
Geo
100
AcDbLine
10
-56.2428121623603
20
15.1530723516306
30
0.00000000000000
11
-56.2281454956937
21
15.1515355915045
31
0.00000000000000
  0
LINE
  5
F10246
330
F10247
100
AcDbEntity
8
Geo
100
AcDbLine
10
-56.2281454956937
20
15.1515355915045
30
0.00000000000000
11
-56.2134788290270
21
15.1499049145037
31
0.00000000000000
  0
LINE
  5
F10248
330
F10249
100
AcDbEntity
8
Geo
100
AcDbLine
10
-56.2134788290270
20
15.1499049145037
30
0.00000000000000
11
-56.1988121623603
21
15.1481805284937
31
0.00000000000000
  0
LINE
  5
F1024A
330
F1024B
100
AcDbEntity
8
Geo
100
AcDbLine
10
-56.1988121623603
20
15.1481805284937
30
0.00000000000000
11
-56.1841454956937
21
15.1463626532852
31
0.00000000000000
  0
LINE
  5
F1024C
330
F1024D
100
AcDbEntity
8
Geo
100
AcDbLine
10
-56.1841454956937
20
15.1463626532852
30
0.00000000000000
11
-56.1694788290270
21
15.1444515206062
31
0.00000000000000
  0
LINE
  5
F1024E
330
F1024F
100
AcDbEntity
8
Geo
100
AcDbLine
10
-56.1694788290270
20
15.1444515206062
30
0.00000000000000
11
-56.1548121623603
21
15.1424473740724
31
0.00000000000000
  0
LINE
  5
F10250
330
F10251
100
AcDbEntity
8
Geo
100
AcDbLine
10
-56.1548121623603
20
15.1424473740724
30
0.00000000000000
11
-56.1401454956937
21
15.1403504691562
31
0.00000000000000
  0
LINE
  5
F10252
330
F10253
100
AcDbEntity
8
Geo
100
AcDbLine
10
-56.1401454956937
20
15.1403504691562
30
0.00000000000000
11
-56.1254788290270
21
15.1381610731541
31
0.00000000000000
  0
LINE
  5
F10254
330
F10255
100
AcDbEntity
8
Geo
100
AcDbLine
10
-56.1254788290270
20
15.1381610731541
30
0.00000000000000
11
-56.1108121623603
21
15.1358794651524
31
0.00000000000000
  0
LINE
  5
F10256
330
F10257
100
AcDbEntity
8
Geo
100
AcDbLine
10
-59.9974788290270
20
14.0370173010203
30
0.00000000000000
11
-59.9974788290270
21
14.5035263233988
31
0.00000000000000
  0
LINE
  5
F10258
330
F10259
100
AcDbEntity
8
Geo
100
AcDbLine
10
-59.9974788290270
20
14.5035263233988
30
0.00000000000000
11
-59.9828121623604
21
14.5927869132002
31
0.00000000000000
  0
LINE
  5
F1025A
330
F1025B
100
AcDbEntity
8
Geo
100
AcDbLine
10
-59.9828121623604
20
14.5927869132002
30
0.00000000000000
11
-59.9681454956937
21
14.6414370615144
31
0.00000000000000
  0
LINE
  5
F1025C
330
F1025D
100
AcDbEntity
8
Geo
100
AcDbLine
10
-59.9681454956937
20
14.6414370615144
30
0.00000000000000
11
-59.9534788290270
21
14.6779589255555
31
0.00000000000000
  0
LINE
  5
F1025E
330
F1025F
100
AcDbEntity
8
Geo
100
AcDbLine
10
-59.9534788290270
20
14.6779589255555
30
0.00000000000000
11
-59.9388121623604
21
14.7077847776239
31
0.00000000000000
  0
LINE
  5
F10260
330
F10261
100
AcDbEntity
8
Geo
100
AcDbLine
10
-59.9388121623604
20
14.7077847776239
30
0.00000000000000
11
-59.9241454956937
21
14.7331498864887
31
0.00000000000000
  0
LINE
  5
F10262
330
F10263
100
AcDbEntity
8
Geo
100
AcDbLine
10
-59.9241454956937
20
14.7331498864887
30
0.00000000000000
11
-59.9094788290270
21
14.7552344679248
31
0.00000000000000
  0
LINE
  5
F10264
330
F10265
100
AcDbEntity
8
Geo
100
AcDbLine
10
-59.9094788290270
20
14.7552344679248
30
0.00000000000000
11
-59.8948121623604
21
14.7747520250429
31
0.00000000000000
  0
LINE
  5
F10266
330
F10267
100
AcDbEntity
8
Geo
100
AcDbLine
10
-59.8948121623604
20
14.7747520250429
30
0.00000000000000
11
-59.8801454956937
21
14.7921729114664
31
0.00000000000000
  0
LINE
  5
F10268
330
F10269
100
AcDbEntity
8
Geo
100
AcDbLine
10
-59.8801454956937
20
14.7921729114664
30
0.00000000000000
11
-59.8654788290270
21
14.8078265374570
31
0.00000000000000
  0
LINE
  5
F1026A
330
F1026B
100
AcDbEntity
8
Geo
100
AcDbLine
10
-59.8654788290270
20
14.8078265374570
30
0.00000000000000
11
-59.8508121623604
21
14.8219541866084
31
0.00000000000000
  0
LINE
  5
F1026C
330
F1026D
100
AcDbEntity
8
Geo
100
AcDbLine
10
-59.8508121623604
20
14.8219541866084
30
0.00000000000000
11
-59.8361454956937
21
14.8347388229837
31
0.00000000000000
  0
LINE
  5
F1026E
330
F1026F
100
AcDbEntity
8
Geo
100
AcDbLine
10
-59.8361454956937
20
14.8347388229837
30
0.00000000000000
11
-59.8214788290270
21
14.8463230733721
31
0.00000000000000
  0
LINE
  5
F10270
330
F10271
100
AcDbEntity
8
Geo
100
AcDbLine
10
-59.8214788290270
20
14.8463230733721
30
0.00000000000000
11
-59.8068121623604
21
14.8568206597652
31
0.00000000000000
  0
LINE
  5
F10272
330
F10273
100
AcDbEntity
8
Geo
100
AcDbLine
10
-59.8068121623604
20
14.8568206597652
30
0.00000000000000
11
-59.7921454956937
21
14.8663239822740
31
0.00000000000000
  0
LINE
  5
F10274
330
F10275
100
AcDbEntity
8
Geo
100
AcDbLine
10
-59.7921454956937
20
14.8663239822740
30
0.00000000000000
11
-59.7774788290270
21
14.8749093277765
31
0.00000000000000
  0
LINE
  5
F10276
330
F10277
100
AcDbEntity
8
Geo
100
AcDbLine
10
-59.7774788290270
20
14.8749093277765
30
0.00000000000000
11
-59.7628121623604
21
14.8826405544131
31
0.00000000000000
  0
LINE
  5
F10278
330
F10279
100
AcDbEntity
8
Geo
100
AcDbLine
10
-59.7628121623604
20
14.8826405544131
30
0.00000000000000
11
-59.7481454956937
21
14.8895717640399
31
0.00000000000000
  0
LINE
  5
F1027A
330
F1027B
100
AcDbEntity
8
Geo
100
AcDbLine
10
-59.7481454956937
20
14.8895717640399
30
0.00000000000000
11
-59.7334788290270
21
14.8957492829604
31
0.00000000000000
  0
LINE
  5
F1027C
330
F1027D
100
AcDbEntity
8
Geo
100
AcDbLine
10
-59.7334788290270
20
14.8957492829604
30
0.00000000000000
11
-59.7188121623604
21
14.9012131578778
31
0.00000000000000
  0
LINE
  5
F1027E
330
F1027F
100
AcDbEntity
8
Geo
100
AcDbLine
10
-59.7188121623604
20
14.9012131578778
30
0.00000000000000
11
-59.7041454956937
21
14.9059983045631
31
0.00000000000000
  0
LINE
  5
F10280
330
F10281
100
AcDbEntity
8
Geo
100
AcDbLine
10
-59.7041454956937
20
14.9059983045631
30
0.00000000000000
11
-59.6894788290270
21
14.9101354028777
31
0.00000000000000
  0
LINE
  5
F10282
330
F10283
100
AcDbEntity
8
Geo
100
AcDbLine
10
-59.6894788290270
20
14.9101354028777
30
0.00000000000000
11
-59.6748121623604
21
14.9136516033204
31
0.00000000000000
  0
LINE
  5
F10284
330
F10285
100
AcDbEntity
8
Geo
100
AcDbLine
10
-59.6748121623604
20
14.9136516033204
30
0.00000000000000
11
-59.6601454956937
21
14.9165710913454
31
0.00000000000000
  0
LINE
  5
F10286
330
F10287
100
AcDbEntity
8
Geo
100
AcDbLine
10
-59.6601454956937
20
14.9165710913454
30
0.00000000000000
11
-59.6454788290270
21
14.9189155428487
31
0.00000000000000
  0
LINE
  5
F10288
330
F10289
100
AcDbEntity
8
Geo
100
AcDbLine
10
-59.6454788290270
20
14.9189155428487
30
0.00000000000000
11
-59.6308121623604
21
14.9207044953167
31
0.00000000000000
  0
LINE
  5
F1028A
330
F1028B
100
AcDbEntity
8
Geo
100
AcDbLine
10
-59.6308121623604
20
14.9207044953167
30
0.00000000000000
11
-59.6161454956937
21
14.9219556528636
31
0.00000000000000
  0
LINE
  5
F1028C
330
F1028D
100
AcDbEntity
8
Geo
100
AcDbLine
10
-59.6161454956937
20
14.9219556528636
30
0.00000000000000
11
-59.6014788290270
21
14.9226851388929
31
0.00000000000000
  0
LINE
  5
F1028E
330
F1028F
100
AcDbEntity
8
Geo
100
AcDbLine
10
-59.6014788290270
20
14.9226851388929
30
0.00000000000000
11
-59.5868121623604
21
14.9229077068598
31
0.00000000000000
  0
LINE
  5
F10290
330
F10291
100
AcDbEntity
8
Geo
100
AcDbLine
10
-59.5868121623604
20
14.9229077068598
30
0.00000000000000
11
-59.5721454956937
21
14.9226369172081
31
0.00000000000000
  0
LINE
  5
F10292
330
F10293
100
AcDbEntity
8
Geo
100
AcDbLine
10
-59.5721454956937
20
14.9226369172081
30
0.00000000000000
11
-59.5574788290270
21
14.9218852867725
31
0.00000000000000
  0
LINE
  5
F10294
330
F10295
100
AcDbEntity
8
Geo
100
AcDbLine
10
-59.5574788290270
20
14.9218852867725
30
0.00000000000000
11
-59.5428121623604
21
14.9206644155822
31
0.00000000000000
  0
LINE
  5
F10296
330
F10297
100
AcDbEntity
8
Geo
100
AcDbLine
10
-59.5428121623604
20
14.9206644155822
30
0.00000000000000
11
-59.5281454956937
21
14.9189850949837
31
0.00000000000000
  0
LINE
  5
F10298
330
F10299
100
AcDbEntity
8
Geo
100
AcDbLine
10
-59.5281454956937
20
14.9189850949837
30
0.00000000000000
11
-59.5134788290270
21
14.9168574002028
31
0.00000000000000
  0
LINE
  5
F1029A
330
F1029B
100
AcDbEntity
8
Geo
100
AcDbLine
10
-59.5134788290270
20
14.9168574002028
30
0.00000000000000
11
-59.4988121623604
21
14.9142907698597
31
0.00000000000000
  0
LINE
  5
F1029C
330
F1029D
100
AcDbEntity
8
Geo
100
AcDbLine
10
-59.4988121623604
20
14.9142907698597
30
0.00000000000000
11
-59.4841454956937
21
14.9112940744663
31
0.00000000000000
  0
LINE
  5
F1029E
330
F1029F
100
AcDbEntity
8
Geo
100
AcDbLine
10
-59.4841454956937
20
14.9112940744663
30
0.00000000000000
11
-59.4694788290270
21
14.9078756755587
31
0.00000000000000
  0
LINE
  5
F102A0
330
F102A1
100
AcDbEntity
8
Geo
100
AcDbLine
10
-59.4694788290270
20
14.9078756755587
30
0.00000000000000
11
-59.4548121623604
21
14.9040434768113
31
0.00000000000000
  0
LINE
  5
F102A2
330
F102A3
100
AcDbEntity
8
Geo
100
AcDbLine
10
-59.4548121623604
20
14.9040434768113
30
0.00000000000000
11
-59.4401454956937
21
14.8998049682427
31
0.00000000000000
  0
LINE
  5
F102A4
330
F102A5
100
AcDbEntity
8
Geo
100
AcDbLine
10
-59.4401454956937
20
14.8998049682427
30
0.00000000000000
11
-59.4254788290270
21
14.8951672644187
31
0.00000000000000
  0
LINE
  5
F102A6
330
F102A7
100
AcDbEntity
8
Geo
100
AcDbLine
10
-59.4254788290270
20
14.8951672644187
30
0.00000000000000
11
-59.4108121623604
21
14.8901371374048
31
0.00000000000000
  0
LINE
  5
F102A8
330
F102A9
100
AcDbEntity
8
Geo
100
AcDbLine
10
-59.4108121623604
20
14.8901371374048
30
0.00000000000000
11
-59.3961454956937
21
14.8847210450823
31
0.00000000000000
  0
LINE
  5
F102AA
330
F102AB
100
AcDbEntity
8
Geo
100
AcDbLine
10
-59.3961454956937
20
14.8847210450823
30
0.00000000000000
11
-59.3814788290270
21
14.8789251553338
31
0.00000000000000
  0
LINE
  5
F102AC
330
F102AD
100
AcDbEntity
8
Geo
100
AcDbLine
10
-59.3814788290270
20
14.8789251553338
30
0.00000000000000
11
-59.3668121623604
21
14.8727553665110
31
0.00000000000000
  0
LINE
  5
F102AE
330
F102AF
100
AcDbEntity
8
Geo
100
AcDbLine
10
-59.3668121623604
20
14.8727553665110
30
0.00000000000000
11
-59.3521454956937
21
14.8662173245162
31
0.00000000000000
  0
LINE
  5
F102B0
330
F102B1
100
AcDbEntity
8
Geo
100
AcDbLine
10
-59.3521454956937
20
14.8662173245162
30
0.00000000000000
11
-59.3374788290270
21
14.8594295944798
31
0.00000000000000
  0
LINE
  5
F102B2
330
F102B3
100
AcDbEntity
8
Geo
100
AcDbLine
10
-59.3374788290270
20
14.8594295944798
30
0.00000000000000
11
-59.3228121623604
21
14.8525823482695
31
0.00000000000000
  0
LINE
  5
F102B4
330
F102B5
100
AcDbEntity
8
Geo
100
AcDbLine
10
-59.3228121623604
20
14.8525823482695
30
0.00000000000000
11
-59.3081454956937
21
14.8456792933215
31
0.00000000000000
  0
LINE
  5
F102B6
330
F102B7
100
AcDbEntity
8
Geo
100
AcDbLine
10
-59.3081454956937
20
14.8456792933215
30
0.00000000000000
11
-59.2934788290270
21
14.8387213095814
31
0.00000000000000
  0
LINE
  5
F102B8
330
F102B9
100
AcDbEntity
8
Geo
100
AcDbLine
10
-59.2934788290270
20
14.8387213095814
30
0.00000000000000
11
-59.2788121623604
21
14.8317092839964
31
0.00000000000000
  0
LINE
  5
F102BA
330
F102BB
100
AcDbEntity
8
Geo
100
AcDbLine
10
-59.2788121623604
20
14.8317092839964
30
0.00000000000000
11
-59.2641454956937
21
14.8246441104027
31
0.00000000000000
  0
LINE
  5
F102BC
330
F102BD
100
AcDbEntity
8
Geo
100
AcDbLine
10
-59.2641454956937
20
14.8246441104027
30
0.00000000000000
11
-59.2494788290270
21
14.8175266894115
31
0.00000000000000
  0
LINE
  5
F102BE
330
F102BF
100
AcDbEntity
8
Geo
100
AcDbLine
10
-59.2494788290270
20
14.8175266894115
30
0.00000000000000
11
-59.2348121623604
21
14.8103579282939
31
0.00000000000000
  0
LINE
  5
F102C0
330
F102C1
100
AcDbEntity
8
Geo
100
AcDbLine
10
-59.2348121623604
20
14.8103579282939
30
0.00000000000000
11
-59.2201454956937
21
14.8031387408656
31
0.00000000000000
  0
LINE
  5
F102C2
330
F102C3
100
AcDbEntity
8
Geo
100
AcDbLine
10
-59.2201454956937
20
14.8031387408656
30
0.00000000000000
11
-59.2054788290270
21
14.7958700473699
31
0.00000000000000
  0
LINE
  5
F102C4
330
F102C5
100
AcDbEntity
8
Geo
100
AcDbLine
10
-59.2054788290270
20
14.7958700473699
30
0.00000000000000
11
-59.1908121623604
21
14.7885527743610
31
0.00000000000000
  0
LINE
  5
F102C6
330
F102C7
100
AcDbEntity
8
Geo
100
AcDbLine
10
-59.1908121623604
20
14.7885527743610
30
0.00000000000000
11
-59.1761454956937
21
14.7811878545857
31
0.00000000000000
  0
LINE
  5
F102C8
330
F102C9
100
AcDbEntity
8
Geo
100
AcDbLine
10
-59.1761454956937
20
14.7811878545857
30
0.00000000000000
11
-59.1614788290270
21
14.7737762268642
31
0.00000000000000
  0
LINE
  5
F102CA
330
F102CB
100
AcDbEntity
8
Geo
100
AcDbLine
10
-59.1614788290270
20
14.7737762268642
30
0.00000000000000
11
-59.1468121623604
21
14.7663188359707
31
0.00000000000000
  0
LINE
  5
F102CC
330
F102CD
100
AcDbEntity
8
Geo
100
AcDbLine
10
-59.1468121623604
20
14.7663188359707
30
0.00000000000000
11
-59.1321454956937
21
14.7588166325131
31
0.00000000000000
  0
LINE
  5
F102CE
330
F102CF
100
AcDbEntity
8
Geo
100
AcDbLine
10
-59.1321454956937
20
14.7588166325131
30
0.00000000000000
11
-59.1174788290270
21
14.7512705728114
31
0.00000000000000
  0
LINE
  5
F102D0
330
F102D1
100
AcDbEntity
8
Geo
100
AcDbLine
10
-59.1174788290270
20
14.7512705728114
30
0.00000000000000
11
-59.1028121623604
21
14.7436816187762
31
0.00000000000000
  0
LINE
  5
F102D2
330
F102D3
100
AcDbEntity
8
Geo
100
AcDbLine
10
-59.1028121623604
20
14.7436816187762
30
0.00000000000000
11
-59.0881454956937
21
14.7360507377858
31
0.00000000000000
  0
LINE
  5
F102D4
330
F102D5
100
AcDbEntity
8
Geo
100
AcDbLine
10
-59.0881454956937
20
14.7360507377858
30
0.00000000000000
11
-59.0734788290270
21
14.7283789025631
31
0.00000000000000
  0
LINE
  5
F102D6
330
F102D7
100
AcDbEntity
8
Geo
100
AcDbLine
10
-59.0734788290270
20
14.7283789025631
30
0.00000000000000
11
-59.0588121623604
21
14.7206670910516
31
0.00000000000000
  0
LINE
  5
F102D8
330
F102D9
100
AcDbEntity
8
Geo
100
AcDbLine
10
-59.0588121623604
20
14.7206670910516
30
0.00000000000000
11
-59.0441454956937
21
14.7129162862904
31
0.00000000000000
  0
LINE
  5
F102DA
330
F102DB
100
AcDbEntity
8
Geo
100
AcDbLine
10
-59.0441454956937
20
14.7129162862904
30
0.00000000000000
11
-59.0294788290270
21
14.7051274762893
31
0.00000000000000
  0
LINE
  5
F102DC
330
F102DD
100
AcDbEntity
8
Geo
100
AcDbLine
10
-59.0294788290270
20
14.7051274762893
30
0.00000000000000
11
-59.0148121623604
21
14.6973016539027
31
0.00000000000000
  0
LINE
  5
F102DE
330
F102DF
100
AcDbEntity
8
Geo
100
AcDbLine
10
-59.0148121623604
20
14.6973016539027
30
0.00000000000000
11
-59.0001454956937
21
14.6894398167031
31
0.00000000000000
  0
LINE
  5
F102E0
330
F102E1
100
AcDbEntity
8
Geo
100
AcDbLine
10
-59.0001454956937
20
14.6894398167031
30
0.00000000000000
11
-58.9854788290270
21
14.6815429668537
31
0.00000000000000
  0
LINE
  5
F102E2
330
F102E3
100
AcDbEntity
8
Geo
100
AcDbLine
10
-58.9854788290270
20
14.6815429668537
30
0.00000000000000
11
-58.9708121623604
21
14.6736121109810
31
0.00000000000000
  0
LINE
  5
F102E4
330
F102E5
100
AcDbEntity
8
Geo
100
AcDbLine
10
-58.9708121623604
20
14.6736121109810
30
0.00000000000000
11
-58.9561454956937
21
14.6656482600461
31
0.00000000000000
  0
LINE
  5
F102E6
330
F102E7
100
AcDbEntity
8
Geo
100
AcDbLine
10
-58.9561454956937
20
14.6656482600461
30
0.00000000000000
11
-58.9414788290270
21
14.6576524292164
31
0.00000000000000
  0
LINE
  5
F102E8
330
F102E9
100
AcDbEntity
8
Geo
100
AcDbLine
10
-58.9414788290270
20
14.6576524292164
30
0.00000000000000
11
-58.9268121623604
21
14.6496256377356
31
0.00000000000000
  0
LINE
  5
F102EA
330
F102EB
100
AcDbEntity
8
Geo
100
AcDbLine
10
-58.9268121623604
20
14.6496256377356
30
0.00000000000000
11
-58.9121454956937
21
14.6415689087938
31
0.00000000000000
  0
LINE
  5
F102EC
330
F102ED
100
AcDbEntity
8
Geo
100
AcDbLine
10
-58.9121454956937
20
14.6415689087938
30
0.00000000000000
11
-58.8974788290270
21
14.6334832693978
31
0.00000000000000
  0
LINE
  5
F102EE
330
F102EF
100
AcDbEntity
8
Geo
100
AcDbLine
10
-58.8974788290270
20
14.6334832693978
30
0.00000000000000
11
-58.8828121623604
21
14.6253697502392
31
0.00000000000000
  0
LINE
  5
F102F0
330
F102F1
100
AcDbEntity
8
Geo
100
AcDbLine
10
-58.8828121623604
20
14.6253697502392
30
0.00000000000000
11
-58.8681454956937
21
14.6172293855638
31
0.00000000000000
  0
LINE
  5
F102F2
330
F102F3
100
AcDbEntity
8
Geo
100
AcDbLine
10
-58.8681454956937
20
14.6172293855638
30
0.00000000000000
11
-58.8534788290270
21
14.6090632130392
31
0.00000000000000
  0
LINE
  5
F102F4
330
F102F5
100
AcDbEntity
8
Geo
100
AcDbLine
10
-58.8534788290270
20
14.6090632130392
30
0.00000000000000
11
-58.8388121623604
21
14.6008722736231
31
0.00000000000000
  0
LINE
  5
F102F6
330
F102F7
100
AcDbEntity
8
Geo
100
AcDbLine
10
-58.8388121623604
20
14.6008722736231
30
0.00000000000000
11
-58.8241454956937
21
14.5926576114299
31
0.00000000000000
  0
LINE
  5
F102F8
330
F102F9
100
AcDbEntity
8
Geo
100
AcDbLine
10
-58.8241454956937
20
14.5926576114299
30
0.00000000000000
11
-58.8094788290270
21
14.5844202735982
31
0.00000000000000
  0
LINE
  5
F102FA
330
F102FB
100
AcDbEntity
8
Geo
100
AcDbLine
10
-58.8094788290270
20
14.5844202735982
30
0.00000000000000
11
-58.7948121623604
21
14.5761613101571
31
0.00000000000000
  0
LINE
  5
F102FC
330
F102FD
100
AcDbEntity
8
Geo
100
AcDbLine
10
-58.7948121623604
20
14.5761613101571
30
0.00000000000000
11
-58.7801454956937
21
14.5678817738924
31
0.00000000000000
  0
LINE
  5
F102FE
330
F102FF
100
AcDbEntity
8
Geo
100
AcDbLine
10
-58.7801454956937
20
14.5678817738924
30
0.00000000000000
11
-58.7654788290270
21
14.5595827202123
31
0.00000000000000
  0
LINE
  5
F10300
330
F10301
100
AcDbEntity
8
Geo
100
AcDbLine
10
-58.7654788290270
20
14.5595827202123
30
0.00000000000000
11
-58.7508121623604
21
14.5512652070128
31
0.00000000000000
  0
LINE
  5
F10302
330
F10303
100
AcDbEntity
8
Geo
100
AcDbLine
10
-58.7508121623604
20
14.5512652070128
30
0.00000000000000
11
-58.7361454956937
21
14.5429302945431
31
0.00000000000000
  0
LINE
  5
F10304
330
F10305
100
AcDbEntity
8
Geo
100
AcDbLine
10
-58.7361454956937
20
14.5429302945431
30
0.00000000000000
11
-58.7214788290270
21
14.5345790452704
31
0.00000000000000
  0
LINE
  5
F10306
330
F10307
100
AcDbEntity
8
Geo
100
AcDbLine
10
-58.7214788290270
20
14.5345790452704
30
0.00000000000000
11
-58.7068121623604
21
14.5262125237442
31
0.00000000000000
  0
LINE
  5
F10308
330
F10309
100
AcDbEntity
8
Geo
100
AcDbLine
10
-58.7068121623604
20
14.5262125237442
30
0.00000000000000
11
-58.6921454956937
21
14.5178317964610
31
0.00000000000000
  0
LINE
  5
F1030A
330
F1030B
100
AcDbEntity
8
Geo
100
AcDbLine
10
-58.6921454956937
20
14.5178317964610
30
0.00000000000000
11
-58.6774788290270
21
14.5094379317278
31
0.00000000000000
  0
LINE
  5
F1030C
330
F1030D
100
AcDbEntity
8
Geo
100
AcDbLine
10
-58.6774788290270
20
14.5094379317278
30
0.00000000000000
11
-58.6628121623604
21
14.5010319995266
31
0.00000000000000
  0
LINE
  5
F1030E
330
F1030F
100
AcDbEntity
8
Geo
100
AcDbLine
10
-58.6628121623604
20
14.5010319995266
30
0.00000000000000
11
-58.6481454956937
21
14.4926150713775
31
0.00000000000000
  0
LINE
  5
F10310
330
F10311
100
AcDbEntity
8
Geo
100
AcDbLine
10
-58.6481454956937
20
14.4926150713775
30
0.00000000000000
11
-58.6334788290270
21
14.4841882202023
31
0.00000000000000
  0
LINE
  5
F10312
330
F10313
100
AcDbEntity
8
Geo
100
AcDbLine
10
-58.6334788290270
20
14.4841882202023
30
0.00000000000000
11
-58.6188121623604
21
14.4757525201877
31
0.00000000000000
  0
LINE
  5
F10314
330
F10315
100
AcDbEntity
8
Geo
100
AcDbLine
10
-58.6188121623604
20
14.4757525201877
30
0.00000000000000
11
-58.6041454956937
21
14.4673090466483
31
0.00000000000000
  0
LINE
  5
F10316
330
F10317
100
AcDbEntity
8
Geo
100
AcDbLine
10
-58.6041454956937
20
14.4673090466483
30
0.00000000000000
11
-58.5894788290270
21
14.4588588758899
31
0.00000000000000
  0
LINE
  5
F10318
330
F10319
100
AcDbEntity
8
Geo
100
AcDbLine
10
-58.5894788290270
20
14.4588588758899
30
0.00000000000000
11
-58.5748121623604
21
14.4504030850715
31
0.00000000000000
  0
LINE
  5
F1031A
330
F1031B
100
AcDbEntity
8
Geo
100
AcDbLine
10
-58.5748121623604
20
14.4504030850715
30
0.00000000000000
11
-58.5601454956937
21
14.4419427520691
31
0.00000000000000
  0
LINE
  5
F1031C
330
F1031D
100
AcDbEntity
8
Geo
100
AcDbLine
10
-58.5601454956937
20
14.4419427520691
30
0.00000000000000
11
-58.5454788290270
21
14.4334789553371
31
0.00000000000000
  0
LINE
  5
F1031E
330
F1031F
100
AcDbEntity
8
Geo
100
AcDbLine
10
-58.5454788290270
20
14.4334789553371
30
0.00000000000000
11
-58.5308121623604
21
14.4250127737720
31
0.00000000000000
  0
LINE
  5
F10320
330
F10321
100
AcDbEntity
8
Geo
100
AcDbLine
10
-58.5308121623604
20
14.4250127737720
30
0.00000000000000
11
-58.5161454956937
21
14.4165452865739
31
0.00000000000000
  0
LINE
  5
F10322
330
F10323
100
AcDbEntity
8
Geo
100
AcDbLine
10
-58.5161454956937
20
14.4165452865739
30
0.00000000000000
11
-58.5014788290270
21
14.4080775731094
31
0.00000000000000
  0
LINE
  5
F10324
330
F10325
100
AcDbEntity
8
Geo
100
AcDbLine
10
-58.5014788290270
20
14.4080775731094
30
0.00000000000000
11
-58.4868121623604
21
14.3996107127741
31
0.00000000000000
  0
LINE
  5
F10326
330
F10327
100
AcDbEntity
8
Geo
100
AcDbLine
10
-58.4868121623604
20
14.3996107127741
30
0.00000000000000
11
-58.4721454956937
21
14.3911457848546
31
0.00000000000000
  0
LINE
  5
F10328
330
F10329
100
AcDbEntity
8
Geo
100
AcDbLine
10
-58.4721454956937
20
14.3911457848546
30
0.00000000000000
11
-58.4574788290270
21
14.3826838683915
31
0.00000000000000
  0
LINE
  5
F1032A
330
F1032B
100
AcDbEntity
8
Geo
100
AcDbLine
10
-58.4574788290270
20
14.3826838683915
30
0.00000000000000
11
-58.4428121623604
21
14.3742260420413
31
0.00000000000000
  0
LINE
  5
F1032C
330
F1032D
100
AcDbEntity
8
Geo
100
AcDbLine
10
-58.4428121623604
20
14.3742260420413
30
0.00000000000000
11
-58.4281454956937
21
14.3657733839390
31
0.00000000000000
  0
LINE
  5
F1032E
330
F1032F
100
AcDbEntity
8
Geo
100
AcDbLine
10
-58.4281454956937
20
14.3657733839390
30
0.00000000000000
11
-58.4134788290270
21
14.3573269715612
31
0.00000000000000
  0
LINE
  5
F10330
330
F10331
100
AcDbEntity
8
Geo
100
AcDbLine
10
-58.4134788290270
20
14.3573269715612
30
0.00000000000000
11
-58.3988121623604
21
14.3488878815880
31
0.00000000000000
  0
LINE
  5
F10332
330
F10333
100
AcDbEntity
8
Geo
100
AcDbLine
10
-58.3988121623604
20
14.3488878815880
30
0.00000000000000
11
-58.3841454956937
21
14.3404571897662
31
0.00000000000000
  0
LINE
  5
F10334
330
F10335
100
AcDbEntity
8
Geo
100
AcDbLine
10
-58.3841454956937
20
14.3404571897662
30
0.00000000000000
11
-58.3694788290270
21
14.3320359707721
31
0.00000000000000
  0
LINE
  5
F10336
330
F10337
100
AcDbEntity
8
Geo
100
AcDbLine
10
-58.3694788290270
20
14.3320359707721
30
0.00000000000000
11
-58.3548121623604
21
14.3236252980744
31
0.00000000000000
  0
LINE
  5
F10338
330
F10339
100
AcDbEntity
8
Geo
100
AcDbLine
10
-58.3548121623604
20
14.3236252980744
30
0.00000000000000
11
-58.3401454956937
21
14.3152262437976
31
0.00000000000000
  0
LINE
  5
F1033A
330
F1033B
100
AcDbEntity
8
Geo
100
AcDbLine
10
-58.3401454956937
20
14.3152262437976
30
0.00000000000000
11
-58.3254788290270
21
14.3068398785850
31
0.00000000000000
  0
LINE
  5
F1033C
330
F1033D
100
AcDbEntity
8
Geo
100
AcDbLine
10
-58.3254788290270
20
14.3068398785850
30
0.00000000000000
11
-58.3108121623604
21
14.2984672714625
31
0.00000000000000
  0
LINE
  5
F1033E
330
F1033F
100
AcDbEntity
8
Geo
100
AcDbLine
10
-58.3108121623604
20
14.2984672714625
30
0.00000000000000
11
-58.2961454956937
21
14.2901094897023
31
0.00000000000000
  0
LINE
  5
F10340
330
F10341
100
AcDbEntity
8
Geo
100
AcDbLine
10
-58.2961454956937
20
14.2901094897023
30
0.00000000000000
11
-58.2814788290270
21
14.2817675986865
31
0.00000000000000
  0
LINE
  5
F10342
330
F10343
100
AcDbEntity
8
Geo
100
AcDbLine
10
-58.2814788290270
20
14.2817675986865
30
0.00000000000000
11
-58.2668121623604
21
14.2734426617720
31
0.00000000000000
  0
LINE
  5
F10344
330
F10345
100
AcDbEntity
8
Geo
100
AcDbLine
10
-58.2668121623604
20
14.2734426617720
30
0.00000000000000
11
-58.2521454956937
21
14.2651357401541
31
0.00000000000000
  0
LINE
  5
F10346
330
F10347
100
AcDbEntity
8
Geo
100
AcDbLine
10
-58.2521454956937
20
14.2651357401541
30
0.00000000000000
11
-58.2374788290270
21
14.2568478927320
31
0.00000000000000
  0
LINE
  5
F10348
330
F10349
100
AcDbEntity
8
Geo
100
AcDbLine
10
-58.2374788290270
20
14.2568478927320
30
0.00000000000000
11
-58.2228121623604
21
14.2485801759733
31
0.00000000000000
  0
LINE
  5
F1034A
330
F1034B
100
AcDbEntity
8
Geo
100
AcDbLine
10
-58.2228121623604
20
14.2485801759733
30
0.00000000000000
11
-58.2081454956937
21
14.2403336437795
31
0.00000000000000
  0
LINE
  5
F1034C
330
F1034D
100
AcDbEntity
8
Geo
100
AcDbLine
10
-58.2081454956937
20
14.2403336437795
30
0.00000000000000
11
-58.1934788290270
21
14.2321093473517
31
0.00000000000000
  0
LINE
  5
F1034E
330
F1034F
100
AcDbEntity
8
Geo
100
AcDbLine
10
-58.1934788290270
20
14.2321093473517
30
0.00000000000000
11
-58.1788121623604
21
14.2239083350566
31
0.00000000000000
  0
LINE
  5
F10350
330
F10351
100
AcDbEntity
8
Geo
100
AcDbLine
10
-58.1788121623604
20
14.2239083350566
30
0.00000000000000
11
-58.1641454956937
21
14.2157316522928
31
0.00000000000000
  0
LINE
  5
F10352
330
F10353
100
AcDbEntity
8
Geo
100
AcDbLine
10
-58.1641454956937
20
14.2157316522928
30
0.00000000000000
11
-58.1494788290270
21
14.2075803413576
31
0.00000000000000
  0
LINE
  5
F10354
330
F10355
100
AcDbEntity
8
Geo
100
AcDbLine
10
-58.1494788290270
20
14.2075803413576
30
0.00000000000000
11
-58.1348121623604
21
14.1994554413139
31
0.00000000000000
  0
LINE
  5
F10356
330
F10357
100
AcDbEntity
8
Geo
100
AcDbLine
10
-58.1348121623604
20
14.1994554413139
30
0.00000000000000
11
-58.1201454956937
21
14.1913579878583
31
0.00000000000000
  0
LINE
  5
F10358
330
F10359
100
AcDbEntity
8
Geo
100
AcDbLine
10
-58.1201454956937
20
14.1913579878583
30
0.00000000000000
11
-58.1054788290270
21
14.1832890131884
31
0.00000000000000
  0
LINE
  5
F1035A
330
F1035B
100
AcDbEntity
8
Geo
100
AcDbLine
10
-58.1054788290270
20
14.1832890131884
30
0.00000000000000
11
-58.0908121623604
21
14.1752495458719
31
0.00000000000000
  0
LINE
  5
F1035C
330
F1035D
100
AcDbEntity
8
Geo
100
AcDbLine
10
-58.0908121623604
20
14.1752495458719
30
0.00000000000000
11
-58.0761454956937
21
14.1672406107148
31
0.00000000000000
  0
LINE
  5
F1035E
330
F1035F
100
AcDbEntity
8
Geo
100
AcDbLine
10
-58.0761454956937
20
14.1672406107148
30
0.00000000000000
11
-58.0614788290270
21
14.1592632286313
31
0.00000000000000
  0
LINE
  5
F10360
330
F10361
100
AcDbEntity
8
Geo
100
AcDbLine
10
-58.0614788290270
20
14.1592632286313
30
0.00000000000000
11
-58.0468121623604
21
14.1513184165134
31
0.00000000000000
  0
LINE
  5
F10362
330
F10363
100
AcDbEntity
8
Geo
100
AcDbLine
10
-58.0468121623604
20
14.1513184165134
30
0.00000000000000
11
-58.0321454956937
21
14.1434071871014
31
0.00000000000000
  0
LINE
  5
F10364
330
F10365
100
AcDbEntity
8
Geo
100
AcDbLine
10
-58.0321454956937
20
14.1434071871014
30
0.00000000000000
11
-58.0174788290270
21
14.1355305488547
31
0.00000000000000
  0
LINE
  5
F10366
330
F10367
100
AcDbEntity
8
Geo
100
AcDbLine
10
-58.0174788290270
20
14.1355305488547
30
0.00000000000000
11
-58.0028121623604
21
14.1276895058234
31
0.00000000000000
  0
LINE
  5
F10368
330
F10369
100
AcDbEntity
8
Geo
100
AcDbLine
10
-58.0028121623604
20
14.1276895058234
30
0.00000000000000
11
-57.9881454956937
21
14.1198850575200
31
0.00000000000000
  0
LINE
  5
F1036A
330
F1036B
100
AcDbEntity
8
Geo
100
AcDbLine
10
-57.9881454956937
20
14.1198850575200
30
0.00000000000000
11
-57.9734788290270
21
14.1121181987924
31
0.00000000000000
  0
LINE
  5
F1036C
330
F1036D
100
AcDbEntity
8
Geo
100
AcDbLine
10
-57.9734788290270
20
14.1121181987924
30
0.00000000000000
11
-57.9588121623604
21
14.1043899196968
31
0.00000000000000
  0
LINE
  5
F1036E
330
F1036F
100
AcDbEntity
8
Geo
100
AcDbLine
10
-57.9588121623604
20
14.1043899196968
30
0.00000000000000
11
-57.9441454956937
21
14.0967012053716
31
0.00000000000000
  0
LINE
  5
F10370
330
F10371
100
AcDbEntity
8
Geo
100
AcDbLine
10
-57.9441454956937
20
14.0967012053716
30
0.00000000000000
11
-57.9294788290270
21
14.0890530359118
31
0.00000000000000
  0
LINE
  5
F10372
330
F10373
100
AcDbEntity
8
Geo
100
AcDbLine
10
-57.9294788290270
20
14.0890530359118
30
0.00000000000000
11
-57.9148121623604
21
14.0814463862441
31
0.00000000000000
  0
LINE
  5
F10374
330
F10375
100
AcDbEntity
8
Geo
100
AcDbLine
10
-57.9148121623604
20
14.0814463862441
30
0.00000000000000
11
-57.9001454956937
21
14.0738822260026
31
0.00000000000000
  0
LINE
  5
F10376
330
F10377
100
AcDbEntity
8
Geo
100
AcDbLine
10
-57.9001454956937
20
14.0738822260026
30
0.00000000000000
11
-57.8854788290270
21
14.0663615194050
31
0.00000000000000
  0
LINE
  5
F10378
330
F10379
100
AcDbEntity
8
Geo
100
AcDbLine
10
-57.8854788290270
20
14.0663615194050
30
0.00000000000000
11
-57.8708121623604
21
14.0588852251301
31
0.00000000000000
  0
LINE
  5
F1037A
330
F1037B
100
AcDbEntity
8
Geo
100
AcDbLine
10
-57.8708121623604
20
14.0588852251301
30
0.00000000000000
11
-57.8561454956937
21
14.0514542961954
31
0.00000000000000
  0
LINE
  5
F1037C
330
F1037D
100
AcDbEntity
8
Geo
100
AcDbLine
10
-57.8561454956937
20
14.0514542961954
30
0.00000000000000
11
-57.8414788290270
21
14.0440696798354
31
0.00000000000000
  0
LINE
  5
F1037E
330
F1037F
100
AcDbEntity
8
Geo
100
AcDbLine
10
-57.8414788290270
20
14.0440696798354
30
0.00000000000000
11
-57.8268121623604
21
14.0367323173813
31
0.00000000000000
  0
LINE
  5
F10380
330
F10381
100
AcDbEntity
8
Geo
100
AcDbLine
10
-57.8268121623604
20
14.0367323173813
30
0.00000000000000
11
-57.8121454956937
21
14.0294431441404
31
0.00000000000000
  0
LINE
  5
F10382
330
F10383
100
AcDbEntity
8
Geo
100
AcDbLine
10
-57.8121454956937
20
14.0294431441404
30
0.00000000000000
11
-57.7974788290270
21
14.0222030892776
31
0.00000000000000
  0
LINE
  5
F10384
330
F10385
100
AcDbEntity
8
Geo
100
AcDbLine
10
-57.7974788290270
20
14.0222030892776
30
0.00000000000000
11
-57.7828121623604
21
14.0150130756964
31
0.00000000000000
  0
LINE
  5
F10386
330
F10387
100
AcDbEntity
8
Geo
100
AcDbLine
10
-57.7828121623604
20
14.0150130756964
30
0.00000000000000
11
-57.7681454956937
21
14.0078740199214
31
0.00000000000000
  0
LINE
  5
F10388
330
F10389
100
AcDbEntity
8
Geo
100
AcDbLine
10
-57.7681454956937
20
14.0078740199214
30
0.00000000000000
11
-57.7534788290270
21
14.0007868319816
31
0.00000000000000
  0
LINE
  5
F1038A
330
F1038B
100
AcDbEntity
8
Geo
100
AcDbLine
10
-57.7534788290270
20
14.0007868319816
30
0.00000000000000
11
-57.7388121623604
21
13.9937524152944
31
0.00000000000000
  0
LINE
  5
F1038C
330
F1038D
100
AcDbEntity
8
Geo
100
AcDbLine
10
-57.7388121623604
20
13.9937524152944
30
0.00000000000000
11
-57.7241454956937
21
13.9867716665501
31
0.00000000000000
  0
LINE
  5
F1038E
330
F1038F
100
AcDbEntity
8
Geo
100
AcDbLine
10
-57.7241454956937
20
13.9867716665501
30
0.00000000000000
11
-57.7094788290270
21
13.9798454755981
31
0.00000000000000
  0
LINE
  5
F10390
330
F10391
100
AcDbEntity
8
Geo
100
AcDbLine
10
-57.7094788290270
20
13.9798454755981
30
0.00000000000000
11
-57.6948121623604
21
13.9729747253330
31
0.00000000000000
  0
LINE
  5
F10392
330
F10393
100
AcDbEntity
8
Geo
100
AcDbLine
10
-57.6948121623604
20
13.9729747253330
30
0.00000000000000
11
-57.6801454956937
21
13.9661602915824
31
0.00000000000000
  0
LINE
  5
F10394
330
F10395
100
AcDbEntity
8
Geo
100
AcDbLine
10
-57.6801454956937
20
13.9661602915824
30
0.00000000000000
11
-57.6654788290270
21
13.9594030429952
31
0.00000000000000
  0
LINE
  5
F10396
330
F10397
100
AcDbEntity
8
Geo
100
AcDbLine
10
-57.6654788290270
20
13.9594030429952
30
0.00000000000000
11
-57.6508121623604
21
13.9527038409305
31
0.00000000000000
  0
LINE
  5
F10398
330
F10399
100
AcDbEntity
8
Geo
100
AcDbLine
10
-57.6508121623604
20
13.9527038409305
30
0.00000000000000
11
-57.6361454956937
21
13.9460635393485
31
0.00000000000000
  0
LINE
  5
F1039A
330
F1039B
100
AcDbEntity
8
Geo
100
AcDbLine
10
-57.6361454956937
20
13.9460635393485
30
0.00000000000000
11
-57.6214788290270
21
13.9394829847008
31
0.00000000000000
  0
LINE
  5
F1039C
330
F1039D
100
AcDbEntity
8
Geo
100
AcDbLine
10
-57.6214788290270
20
13.9394829847008
30
0.00000000000000
11
-57.6068121623604
21
13.9329630158234
31
0.00000000000000
  0
LINE
  5
F1039E
330
F1039F
100
AcDbEntity
8
Geo
100
AcDbLine
10
-57.6068121623604
20
13.9329630158234
30
0.00000000000000
11
-57.5921454956937
21
13.9265044638291
31
0.00000000000000
  0
LINE
  5
F103A0
330
F103A1
100
AcDbEntity
8
Geo
100
AcDbLine
10
-57.5921454956937
20
13.9265044638291
30
0.00000000000000
11
-57.5774788290270
21
13.9201081520016
31
0.00000000000000
  0
LINE
  5
F103A2
330
F103A3
100
AcDbEntity
8
Geo
100
AcDbLine
10
-57.5774788290270
20
13.9201081520016
30
0.00000000000000
11
-57.5628121623604
21
13.9137748956910
31
0.00000000000000
  0
LINE
  5
F103A4
330
F103A5
100
AcDbEntity
8
Geo
100
AcDbLine
10
-57.5628121623604
20
13.9137748956910
30
0.00000000000000
11
-57.5481454956937
21
13.9075055022095
31
0.00000000000000
  0
LINE
  5
F103A6
330
F103A7
100
AcDbEntity
8
Geo
100
AcDbLine
10
-57.5481454956937
20
13.9075055022095
30
0.00000000000000
11
-57.5334788290270
21
13.9013007707286
31
0.00000000000000
  0
LINE
  5
F103A8
330
F103A9
100
AcDbEntity
8
Geo
100
AcDbLine
10
-57.5334788290270
20
13.9013007707286
30
0.00000000000000
11
-57.5188121623604
21
13.8951614921771
31
0.00000000000000
  0
LINE
  5
F103AA
330
F103AB
100
AcDbEntity
8
Geo
100
AcDbLine
10
-57.5188121623604
20
13.8951614921771
30
0.00000000000000
11
-57.5041454956937
21
13.8890884491406
31
0.00000000000000
  0
LINE
  5
F103AC
330
F103AD
100
AcDbEntity
8
Geo
100
AcDbLine
10
-57.5041454956937
20
13.8890884491406
30
0.00000000000000
11
-57.4894788290270
21
13.8830824157614
31
0.00000000000000
  0
LINE
  5
F103AE
330
F103AF
100
AcDbEntity
8
Geo
100
AcDbLine
10
-57.4894788290270
20
13.8830824157614
30
0.00000000000000
11
-57.4748121623604
21
13.8771441576399
31
0.00000000000000
  0
LINE
  5
F103B0
330
F103B1
100
AcDbEntity
8
Geo
100
AcDbLine
10
-57.4748121623604
20
13.8771441576399
30
0.00000000000000
11
-57.4601454956937
21
13.8712744317371
31
0.00000000000000
  0
LINE
  5
F103B2
330
F103B3
100
AcDbEntity
8
Geo
100
AcDbLine
10
-57.4601454956937
20
13.8712744317371
30
0.00000000000000
11
-57.4454788290270
21
13.8654739862782
31
0.00000000000000
  0
LINE
  5
F103B4
330
F103B5
100
AcDbEntity
8
Geo
100
AcDbLine
10
-57.4454788290270
20
13.8654739862782
30
0.00000000000000
11
-57.4308121623604
21
13.8597435606570
31
0.00000000000000
  0
LINE
  5
F103B6
330
F103B7
100
AcDbEntity
8
Geo
100
AcDbLine
10
-57.4308121623604
20
13.8597435606570
30
0.00000000000000
11
-57.4161454956937
21
13.8540838853416
31
0.00000000000000
  0
LINE
  5
F103B8
330
F103B9
100
AcDbEntity
8
Geo
100
AcDbLine
10
-57.4161454956937
20
13.8540838853416
30
0.00000000000000
11
-57.4014788290270
21
13.8484956817816
31
0.00000000000000
  0
LINE
  5
F103BA
330
F103BB
100
AcDbEntity
8
Geo
100
AcDbLine
10
-57.4014788290270
20
13.8484956817816
30
0.00000000000000
11
-57.3868121623604
21
13.8429796623160
31
0.00000000000000
  0
LINE
  5
F103BC
330
F103BD
100
AcDbEntity
8
Geo
100
AcDbLine
10
-57.3868121623604
20
13.8429796623160
30
0.00000000000000
11
-57.3721454956937
21
13.8375365300821
31
0.00000000000000
  0
LINE
  5
F103BE
330
F103BF
100
AcDbEntity
8
Geo
100
AcDbLine
10
-57.3721454956937
20
13.8375365300821
30
0.00000000000000
11
-57.3574788290270
21
13.8321669789264
31
0.00000000000000
  0
LINE
  5
F103C0
330
F103C1
100
AcDbEntity
8
Geo
100
AcDbLine
10
-57.3574788290270
20
13.8321669789264
30
0.00000000000000
11
-57.3428121623604
21
13.8268716933157
31
0.00000000000000
  0
LINE
  5
F103C2
330
F103C3
100
AcDbEntity
8
Geo
100
AcDbLine
10
-57.3428121623604
20
13.8268716933157
30
0.00000000000000
11
-57.3281454956937
21
13.8216513482502
31
0.00000000000000
  0
LINE
  5
F103C4
330
F103C5
100
AcDbEntity
8
Geo
100
AcDbLine
10
-57.3281454956937
20
13.8216513482502
30
0.00000000000000
11
-57.3134788290270
21
13.8165066091772
31
0.00000000000000
  0
LINE
  5
F103C6
330
F103C7
100
AcDbEntity
8
Geo
100
AcDbLine
10
-57.3134788290270
20
13.8165066091772
30
0.00000000000000
11
-57.2988121623604
21
13.8114381319062
31
0.00000000000000
  0
LINE
  5
F103C8
330
F103C9
100
AcDbEntity
8
Geo
100
AcDbLine
10
-57.2988121623604
20
13.8114381319062
30
0.00000000000000
11
-57.2841454956937
21
13.8064465625257
31
0.00000000000000
  0
LINE
  5
F103CA
330
F103CB
100
AcDbEntity
8
Geo
100
AcDbLine
10
-57.2841454956937
20
13.8064465625257
30
0.00000000000000
11
-57.2694788290270
21
13.8015325373206
31
0.00000000000000
  0
LINE
  5
F103CC
330
F103CD
100
AcDbEntity
8
Geo
100
AcDbLine
10
-57.2694788290270
20
13.8015325373206
30
0.00000000000000
11
-57.2548121623604
21
13.7966966826908
31
0.00000000000000
  0
LINE
  5
F103CE
330
F103CF
100
AcDbEntity
8
Geo
100
AcDbLine
10
-57.2548121623604
20
13.7966966826908
30
0.00000000000000
11
-57.2401454956937
21
13.7919396150721
31
0.00000000000000
  0
LINE
  5
F103D0
330
F103D1
100
AcDbEntity
8
Geo
100
AcDbLine
10
-57.2401454956937
20
13.7919396150721
30
0.00000000000000
11
-57.2254788290270
21
13.7872619408568
31
0.00000000000000
  0
LINE
  5
F103D2
330
F103D3
100
AcDbEntity
8
Geo
100
AcDbLine
10
-57.2254788290270
20
13.7872619408568
30
0.00000000000000
11
-57.2108121623604
21
13.7826642563169
31
0.00000000000000
  0
LINE
  5
F103D4
330
F103D5
100
AcDbEntity
8
Geo
100
AcDbLine
10
-57.2108121623604
20
13.7826642563169
30
0.00000000000000
11
-57.1961454956937
21
13.7781471475280
31
0.00000000000000
  0
LINE
  5
F103D6
330
F103D7
100
AcDbEntity
8
Geo
100
AcDbLine
10
-57.1961454956937
20
13.7781471475280
30
0.00000000000000
11
-57.1814788290270
21
13.7737111902945
31
0.00000000000000
  0
LINE
  5
F103D8
330
F103D9
100
AcDbEntity
8
Geo
100
AcDbLine
10
-57.1814788290270
20
13.7737111902945
30
0.00000000000000
11
-57.1668121623604
21
13.7693569500764
31
0.00000000000000
  0
LINE
  5
F103DA
330
F103DB
100
AcDbEntity
8
Geo
100
AcDbLine
10
-57.1668121623604
20
13.7693569500764
30
0.00000000000000
11
-57.1521454956937
21
13.7650849819168
31
0.00000000000000
  0
LINE
  5
F103DC
330
F103DD
100
AcDbEntity
8
Geo
100
AcDbLine
10
-57.1521454956937
20
13.7650849819168
30
0.00000000000000
11
-57.1374788290270
21
13.7608958303717
31
0.00000000000000
  0
LINE
  5
F103DE
330
F103DF
100
AcDbEntity
8
Geo
100
AcDbLine
10
-57.1374788290270
20
13.7608958303717
30
0.00000000000000
11
-57.1228121623604
21
13.7567900294401
31
0.00000000000000
  0
LINE
  5
F103E0
330
F103E1
100
AcDbEntity
8
Geo
100
AcDbLine
10
-57.1228121623604
20
13.7567900294401
30
0.00000000000000
11
-57.1081454956937
21
13.7527681024963
31
0.00000000000000
  0
LINE
  5
F103E2
330
F103E3
100
AcDbEntity
8
Geo
100
AcDbLine
10
-57.1081454956937
20
13.7527681024963
30
0.00000000000000
11
-57.0934788290270
21
13.7488305622230
31
0.00000000000000
  0
LINE
  5
F103E4
330
F103E5
100
AcDbEntity
8
Geo
100
AcDbLine
10
-57.0934788290270
20
13.7488305622230
30
0.00000000000000
11
-57.0788121623604
21
13.7449779105458
31
0.00000000000000
  0
LINE
  5
F103E6
330
F103E7
100
AcDbEntity
8
Geo
100
AcDbLine
10
-57.0788121623604
20
13.7449779105458
30
0.00000000000000
11
-57.0641454956937
21
13.7412106385696
31
0.00000000000000
  0
LINE
  5
F103E8
330
F103E9
100
AcDbEntity
8
Geo
100
AcDbLine
10
-57.0641454956937
20
13.7412106385696
30
0.00000000000000
11
-57.0494788290270
21
13.7375292265156
31
0.00000000000000
  0
LINE
  5
F103EA
330
F103EB
100
AcDbEntity
8
Geo
100
AcDbLine
10
-57.0494788290270
20
13.7375292265156
30
0.00000000000000
11
-57.0348121623604
21
13.7339341436606
31
0.00000000000000
  0
LINE
  5
F103EC
330
F103ED
100
AcDbEntity
8
Geo
100
AcDbLine
10
-57.0348121623604
20
13.7339341436606
30
0.00000000000000
11
-57.0201454956937
21
13.7304258482764
31
0.00000000000000
  0
LINE
  5
F103EE
330
F103EF
100
AcDbEntity
8
Geo
100
AcDbLine
10
-57.0201454956937
20
13.7304258482764
30
0.00000000000000
11
-57.0054788290270
21
13.7270047875723
31
0.00000000000000
  0
LINE
  5
F103F0
330
F103F1
100
AcDbEntity
8
Geo
100
AcDbLine
10
-57.0054788290270
20
13.7270047875723
30
0.00000000000000
11
-56.9908121623603
21
13.7236713976371
31
0.00000000000000
  0
LINE
  5
F103F2
330
F103F3
100
AcDbEntity
8
Geo
100
AcDbLine
10
-56.9908121623603
20
13.7236713976371
30
0.00000000000000
11
-56.9761454956937
21
13.7204261033846
31
0.00000000000000
  0
LINE
  5
F103F4
330
F103F5
100
AcDbEntity
8
Geo
100
AcDbLine
10
-56.9761454956937
20
13.7204261033846
30
0.00000000000000
11
-56.9614788290270
21
13.7172693184985
31
0.00000000000000
  0
LINE
  5
F103F6
330
F103F7
100
AcDbEntity
8
Geo
100
AcDbLine
10
-56.9614788290270
20
13.7172693184985
30
0.00000000000000
11
-56.9468121623604
21
13.7142014453802
31
0.00000000000000
  0
LINE
  5
F103F8
330
F103F9
100
AcDbEntity
8
Geo
100
AcDbLine
10
-56.9468121623604
20
13.7142014453802
30
0.00000000000000
11
-56.9321454956937
21
13.7112228750972
31
0.00000000000000
  0
LINE
  5
F103FA
330
F103FB
100
AcDbEntity
8
Geo
100
AcDbLine
10
-56.9321454956937
20
13.7112228750972
30
0.00000000000000
11
-56.9174788290270
21
13.7083339873337
31
0.00000000000000
  0
LINE
  5
F103FC
330
F103FD
100
AcDbEntity
8
Geo
100
AcDbLine
10
-56.9174788290270
20
13.7083339873337
30
0.00000000000000
11
-56.9028121623603
21
13.7055351503415
31
0.00000000000000
  0
LINE
  5
F103FE
330
F103FF
100
AcDbEntity
8
Geo
100
AcDbLine
10
-56.9028121623603
20
13.7055351503415
30
0.00000000000000
11
-56.8881454956937
21
13.7028267208937
31
0.00000000000000
  0
LINE
  5
F10400
330
F10401
100
AcDbEntity
8
Geo
100
AcDbLine
10
-56.8881454956937
20
13.7028267208937
30
0.00000000000000
11
-56.8734788290270
21
13.7002090442391
31
0.00000000000000
  0
LINE
  5
F10402
330
F10403
100
AcDbEntity
8
Geo
100
AcDbLine
10
-56.8734788290270
20
13.7002090442391
30
0.00000000000000
11
-56.8588121623604
21
13.6976824540577
31
0.00000000000000
  0
LINE
  5
F10404
330
F10405
100
AcDbEntity
8
Geo
100
AcDbLine
10
-56.8588121623604
20
13.6976824540577
30
0.00000000000000
11
-56.8441454956937
21
13.6952472724189
31
0.00000000000000
  0
LINE
  5
F10406
330
F10407
100
AcDbEntity
8
Geo
100
AcDbLine
10
-56.8441454956937
20
13.6952472724189
30
0.00000000000000
11
-56.8294788290270
21
13.6929038097399
31
0.00000000000000
  0
LINE
  5
F10408
330
F10409
100
AcDbEntity
8
Geo
100
AcDbLine
10
-56.8294788290270
20
13.6929038097399
30
0.00000000000000
11
-56.8148121623603
21
13.6906523647462
31
0.00000000000000
  0
LINE
  5
F1040A
330
F1040B
100
AcDbEntity
8
Geo
100
AcDbLine
10
-56.8148121623603
20
13.6906523647462
30
0.00000000000000
11
-56.8001454956937
21
13.6884932244339
31
0.00000000000000
  0
LINE
  5
F1040C
330
F1040D
100
AcDbEntity
8
Geo
100
AcDbLine
10
-56.8001454956937
20
13.6884932244339
30
0.00000000000000
11
-56.7854788290270
21
13.6864266640327
31
0.00000000000000
  0
LINE
  5
F1040E
330
F1040F
100
AcDbEntity
8
Geo
100
AcDbLine
10
-56.7854788290270
20
13.6864266640327
30
0.00000000000000
11
-56.7708121623604
21
13.6844529469709
31
0.00000000000000
  0
LINE
  5
F10410
330
F10411
100
AcDbEntity
8
Geo
100
AcDbLine
10
-56.7708121623604
20
13.6844529469709
30
0.00000000000000
11
-56.7561454956937
21
13.6825723248420
31
0.00000000000000
  0
LINE
  5
F10412
330
F10413
100
AcDbEntity
8
Geo
100
AcDbLine
10
-56.7561454956937
20
13.6825723248420
30
0.00000000000000
11
-56.7414788290270
21
13.6807850373725
31
0.00000000000000
  0
LINE
  5
F10414
330
F10415
100
AcDbEntity
8
Geo
100
AcDbLine
10
-56.7414788290270
20
13.6807850373725
30
0.00000000000000
11
-56.7268121623603
21
13.6790913123913
31
0.00000000000000
  0
LINE
  5
F10416
330
F10417
100
AcDbEntity
8
Geo
100
AcDbLine
10
-56.7268121623603
20
13.6790913123913
30
0.00000000000000
11
-56.7121454956937
21
13.6774913658007
31
0.00000000000000
  0
LINE
  5
F10418
330
F10419
100
AcDbEntity
8
Geo
100
AcDbLine
10
-56.7121454956937
20
13.6774913658007
30
0.00000000000000
11
-56.6974788290270
21
13.6759854015489
31
0.00000000000000
  0
LINE
  5
F1041A
330
F1041B
100
AcDbEntity
8
Geo
100
AcDbLine
10
-56.6974788290270
20
13.6759854015489
30
0.00000000000000
11
-56.6828121623603
21
13.6745736116042
31
0.00000000000000
  0
LINE
  5
F1041C
330
F1041D
100
AcDbEntity
8
Geo
100
AcDbLine
10
-56.6828121623603
20
13.6745736116042
30
0.00000000000000
11
-56.6681454956937
21
13.6732561759300
31
0.00000000000000
  0
LINE
  5
F1041E
330
F1041F
100
AcDbEntity
8
Geo
100
AcDbLine
10
-56.6681454956937
20
13.6732561759300
30
0.00000000000000
11
-56.6534788290270
21
13.6720332624623
31
0.00000000000000
  0
LINE
  5
F10420
330
F10421
100
AcDbEntity
8
Geo
100
AcDbLine
10
-56.6534788290270
20
13.6720332624623
30
0.00000000000000
11
-56.6388121623603
21
13.6709050270882
31
0.00000000000000
  0
LINE
  5
F10422
330
F10423
100
AcDbEntity
8
Geo
100
AcDbLine
10
-56.6388121623603
20
13.6709050270882
30
0.00000000000000
11
-56.6241454956937
21
13.6698716136261
31
0.00000000000000
  0
LINE
  5
F10424
330
F10425
100
AcDbEntity
8
Geo
100
AcDbLine
10
-56.6241454956937
20
13.6698716136261
30
0.00000000000000
11
-56.6094788290270
21
13.6689331538072
31
0.00000000000000
  0
LINE
  5
F10426
330
F10427
100
AcDbEntity
8
Geo
100
AcDbLine
10
-56.6094788290270
20
13.6689331538072
30
0.00000000000000
11
-56.5948121623603
21
13.6680897672586
31
0.00000000000000
  0
LINE
  5
F10428
330
F10429
100
AcDbEntity
8
Geo
100
AcDbLine
10
-56.5948121623603
20
13.6680897672586
30
0.00000000000000
11
-56.5801454956937
21
13.6673415614884
31
0.00000000000000
  0
LINE
  5
F1042A
330
F1042B
100
AcDbEntity
8
Geo
100
AcDbLine
10
-56.5801454956937
20
13.6673415614884
30
0.00000000000000
11
-56.5654788290270
21
13.6666886318720
31
0.00000000000000
  0
LINE
  5
F1042C
330
F1042D
100
AcDbEntity
8
Geo
100
AcDbLine
10
-56.5654788290270
20
13.6666886318720
30
0.00000000000000
11
-56.5508121623603
21
13.6661310616394
31
0.00000000000000
  0
LINE
  5
F1042E
330
F1042F
100
AcDbEntity
8
Geo
100
AcDbLine
10
-56.5508121623603
20
13.6661310616394
30
0.00000000000000
11
-56.5361454956937
21
13.6656689218651
31
0.00000000000000
  0
LINE
  5
F10430
330
F10431
100
AcDbEntity
8
Geo
100
AcDbLine
10
-56.5361454956937
20
13.6656689218651
30
0.00000000000000
11
-56.5214788290270
21
13.6653022714591
31
0.00000000000000
  0
LINE
  5
F10432
330
F10433
100
AcDbEntity
8
Geo
100
AcDbLine
10
-56.5214788290270
20
13.6653022714591
30
0.00000000000000
11
-56.5068121623603
21
13.6650311571589
31
0.00000000000000
  0
LINE
  5
F10434
330
F10435
100
AcDbEntity
8
Geo
100
AcDbLine
10
-56.5068121623603
20
13.6650311571589
30
0.00000000000000
11
-56.4921454956937
21
13.6648556135240
31
0.00000000000000
  0
LINE
  5
F10436
330
F10437
100
AcDbEntity
8
Geo
100
AcDbLine
10
-56.4921454956937
20
13.6648556135240
30
0.00000000000000
11
-56.4774788290270
21
13.6647756629313
31
0.00000000000000
  0
LINE
  5
F10438
330
F10439
100
AcDbEntity
8
Geo
100
AcDbLine
10
-56.4774788290270
20
13.6647756629313
30
0.00000000000000
11
-56.4725467444520
21
13.6647702573303
31
0.00000000000000
  0
LINE
  5
F1043A
330
F1043B
100
AcDbEntity
8
Geo
100
AcDbLine
10
-56.1108121623603
20
13.6666387442160
30
0.00000000000000
11
-56.0961454956937
21
13.6652765147234
31
0.00000000000000
  0
LINE
  5
F1043C
330
F1043D
100
AcDbEntity
8
Geo
100
AcDbLine
10
-56.0961454956937
20
13.6652765147234
30
0.00000000000000
11
-56.0814788290270
21
13.6609219034223
31
0.00000000000000
  0
LINE
  5
F1043E
330
F1043F
100
AcDbEntity
8
Geo
100
AcDbLine
10
-56.0814788290270
20
13.6609219034223
30
0.00000000000000
11
-56.0668121623603
21
13.6566470676425
31
0.00000000000000
  0
LINE
  5
F10440
330
F10441
100
AcDbEntity
8
Geo
100
AcDbLine
10
-56.0668121623603
20
13.6566470676425
30
0.00000000000000
11
-56.0521454956937
21
13.6524535433683
31
0.00000000000000
  0
LINE
  5
F10442
330
F10443
100
AcDbEntity
8
Geo
100
AcDbLine
10
-56.0521454956937
20
13.6524535433683
30
0.00000000000000
11
-56.0374788290270
21
13.6483428580578
31
0.00000000000000
  0
LINE
  5
F10444
330
F10445
100
AcDbEntity
8
Geo
100
AcDbLine
10
-56.0374788290270
20
13.6483428580578
30
0.00000000000000
11
-56.0228121623603
21
13.6443165303266
31
0.00000000000000
  0
LINE
  5
F10446
330
F10447
100
AcDbEntity
8
Geo
100
AcDbLine
10
-56.0228121623603
20
13.6443165303266
30
0.00000000000000
11
-56.0137043034288
21
13.6418593415538
31
0.00000000000000
  0
LINE
  5
F10448
330
F10449
100
AcDbEntity
8
Geo
100
AcDbLine
10
-55.7553389895651
20
13.5726305643517
30
0.00000000000000
11
-55.7441454956937
21
13.5718907885011
31
0.00000000000000
  0
LINE
  5
F1044A
330
F1044B
100
AcDbEntity
8
Geo
100
AcDbLine
10
-55.7441454956937
20
13.5718907885011
30
0.00000000000000
11
-55.7294788290270
21
13.5880784133947
31
0.00000000000000
  0
LINE
  5
F1044C
330
F1044D
100
AcDbEntity
8
Geo
100
AcDbLine
10
-55.7294788290270
20
13.5880784133947
30
0.00000000000000
11
-55.7148121623603
21
13.6575144041657
31
0.00000000000000
  0
LINE
  5
F1044E
330
F1044F
100
AcDbEntity
8
Geo
100
AcDbLine
10
-55.7148121623603
20
13.6575144041657
30
0.00000000000000
11
-55.7001454956937
21
13.8563748149557
31
0.00000000000000
  0
LINE
  5
F10450
330
F10451
100
AcDbEntity
8
Geo
100
AcDbLine
10
-55.7001454956937
20
13.8563748149557
30
0.00000000000000
11
-55.7001454956937
21
13.9303966784148
31
0.00000000000000
  0
LINE
  5
F10452
330
F10453
100
AcDbEntity
8
Geo
100
AcDbLine
10
-55.7001454956937
20
13.9303966784148
30
0.00000000000000
11
-55.7148121623603
21
14.1947738465586
31
0.00000000000000
  0
LINE
  5
F10454
330
F10455
100
AcDbEntity
8
Geo
100
AcDbLine
10
-55.7148121623603
20
14.1947738465586
30
0.00000000000000
11
-55.7294788290270
21
14.4331744601635
31
0.00000000000000
  0
LINE
  5
F10456
330
F10457
100
AcDbEntity
8
Geo
100
AcDbLine
10
-55.7294788290270
20
14.4331744601635
30
0.00000000000000
11
-55.7441454956937
21
14.6280434418380
31
0.00000000000000
  0
LINE
  5
F10458
330
F10459
100
AcDbEntity
8
Geo
100
AcDbLine
10
-55.7441454956937
20
14.6280434418380
30
0.00000000000000
11
-55.7588121623603
21
14.7782078440444
31
0.00000000000000
  0
LINE
  5
F1045A
330
F1045B
100
AcDbEntity
8
Geo
100
AcDbLine
10
-55.7588121623603
20
14.7782078440444
30
0.00000000000000
11
-55.7734788290270
21
14.8896561723140
31
0.00000000000000
  0
LINE
  5
F1045C
330
F1045D
100
AcDbEntity
8
Geo
100
AcDbLine
10
-55.7734788290270
20
14.8896561723140
30
0.00000000000000
11
-55.7881454956937
21
14.9703504224007
31
0.00000000000000
  0
LINE
  5
F1045E
330
F1045F
100
AcDbEntity
8
Geo
100
AcDbLine
10
-55.7881454956937
20
14.9703504224007
30
0.00000000000000
11
-55.8028121623603
21
15.0278025684676
31
0.00000000000000
  0
LINE
  5
F10460
330
F10461
100
AcDbEntity
8
Geo
100
AcDbLine
10
-55.8028121623603
20
15.0278025684676
30
0.00000000000000
11
-55.8174788290270
21
15.0682075891367
31
0.00000000000000
  0
LINE
  5
F10462
330
F10463
100
AcDbEntity
8
Geo
100
AcDbLine
10
-55.8174788290270
20
15.0682075891367
30
0.00000000000000
11
-55.8321454956937
21
15.0963288960890
31
0.00000000000000
  0
LINE
  5
F10464
330
F10465
100
AcDbEntity
8
Geo
100
AcDbLine
10
-55.8321454956937
20
15.0963288960890
30
0.00000000000000
11
-55.8468121623603
21
15.1156853330240
31
0.00000000000000
  0
LINE
  5
F10466
330
F10467
100
AcDbEntity
8
Geo
100
AcDbLine
10
-55.8468121623603
20
15.1156853330240
30
0.00000000000000
11
-55.8614788290270
21
15.1288173671139
31
0.00000000000000
  0
LINE
  5
F10468
330
F10469
100
AcDbEntity
8
Geo
100
AcDbLine
10
-55.8614788290270
20
15.1288173671139
30
0.00000000000000
11
-55.8761454956937
21
15.1375373468026
31
0.00000000000000
  0
LINE
  5
F1046A
330
F1046B
100
AcDbEntity
8
Geo
100
AcDbLine
10
-55.8761454956937
20
15.1375373468026
30
0.00000000000000
11
-55.8908121623603
21
15.1431323209853
31
0.00000000000000
  0
LINE
  5
F1046C
330
F1046D
100
AcDbEntity
8
Geo
100
AcDbLine
10
-55.8908121623603
20
15.1431323209853
30
0.00000000000000
11
-55.9054788290270
21
15.1465163628131
31
0.00000000000000
  0
LINE
  5
F1046E
330
F1046F
100
AcDbEntity
8
Geo
100
AcDbLine
10
-55.9054788290270
20
15.1465163628131
30
0.00000000000000
11
-55.9201454956937
21
15.1483400343503
31
0.00000000000000
  0
LINE
  5
F10470
330
F10471
100
AcDbEntity
8
Geo
100
AcDbLine
10
-55.9201454956937
20
15.1483400343503
30
0.00000000000000
11
-55.9348121623603
21
15.1490671104366
31
0.00000000000000
  0
LINE
  5
F10472
330
F10473
100
AcDbEntity
8
Geo
100
AcDbLine
10
-55.9348121623603
20
15.1490671104366
30
0.00000000000000
11
-55.9494788290270
21
15.1490278007733
31
0.00000000000000
  0
LINE
  5
F10474
330
F10475
100
AcDbEntity
8
Geo
100
AcDbLine
10
-55.9494788290270
20
15.1490278007733
30
0.00000000000000
11
-55.9641454956937
21
15.1484557712813
31
0.00000000000000
  0
LINE
  5
F10476
330
F10477
100
AcDbEntity
8
Geo
100
AcDbLine
10
-55.9641454956937
20
15.1484557712813
30
0.00000000000000
11
-55.9788121623603
21
15.1475142740343
31
0.00000000000000
  0
LINE
  5
F10478
330
F10479
100
AcDbEntity
8
Geo
100
AcDbLine
10
-55.9788121623603
20
15.1475142740343
30
0.00000000000000
11
-55.9934788290270
21
15.1463150254833
31
0.00000000000000
  0
LINE
  5
F1047A
330
F1047B
100
AcDbEntity
8
Geo
100
AcDbLine
10
-55.9934788290270
20
15.1463150254833
30
0.00000000000000
11
-56.0081454956937
21
15.1449322129729
31
0.00000000000000
  0
LINE
  5
F1047C
330
F1047D
100
AcDbEntity
8
Geo
100
AcDbLine
10
-56.0081454956937
20
15.1449322129729
30
0.00000000000000
11
-56.0228121623603
21
15.1434131265501
31
0.00000000000000
  0
LINE
  5
F1047E
330
F1047F
100
AcDbEntity
8
Geo
100
AcDbLine
10
-56.0228121623603
20
15.1434131265501
30
0.00000000000000
11
-56.0374788290270
21
15.1417863322595
31
0.00000000000000
  0
LINE
  5
F10480
330
F10481
100
AcDbEntity
8
Geo
100
AcDbLine
10
-56.0374788290270
20
15.1417863322595
30
0.00000000000000
11
-56.0521454956937
21
15.1400679446629
31
0.00000000000000
  0
LINE
  5
F10482
330
F10483
100
AcDbEntity
8
Geo
100
AcDbLine
10
-56.0521454956937
20
15.1400679446629
30
0.00000000000000
11
-56.0668121623603
21
15.1382663501107
31
0.00000000000000
  0
LINE
  5
F10484
330
F10485
100
AcDbEntity
8
Geo
100
AcDbLine
10
-56.0668121623603
20
15.1382663501107
30
0.00000000000000
11
-56.0814788290270
21
15.1363856228672
31
0.00000000000000
  0
LINE
  5
F10486
330
F10487
100
AcDbEntity
8
Geo
100
AcDbLine
10
-56.0814788290270
20
15.1363856228672
30
0.00000000000000
11
-56.0961454956937
21
15.1344278231067
31
0.00000000000000
  0
LINE
  5
F10488
330
F10489
100
AcDbEntity
8
Geo
100
AcDbLine
10
-56.0961454956937
20
15.1344278231067
30
0.00000000000000
11
-56.1108121623603
21
15.1358794651524
31
0.00000000000000
  0
LINE
  5
F1048A
330
F1048B
100
AcDbEntity
8
Geo
100
AcDbLine
10
-56.0137043034288
20
15.1876811731068
30
0.00000000000000
11
-56.0081454956937
21
15.1891644451498
31
0.00000000000000
  0
LINE
  5
F1048C
330
F1048D
100
AcDbEntity
8
Geo
100
AcDbLine
10
-56.0081454956937
20
15.1891644451498
30
0.00000000000000
11
-55.9934788290270
21
15.1930175404197
31
0.00000000000000
  0
LINE
  5
F1048E
330
F1048F
100
AcDbEntity
8
Geo
100
AcDbLine
10
-55.9934788290270
20
15.1930175404197
30
0.00000000000000
11
-55.9788121623603
21
15.1967817884395
31
0.00000000000000
  0
LINE
  5
F10490
330
F10491
100
AcDbEntity
8
Geo
100
AcDbLine
10
-55.9788121623603
20
15.1967817884395
30
0.00000000000000
11
-55.9641454956937
21
15.2004557479725
31
0.00000000000000
  0
LINE
  5
F10492
330
F10493
100
AcDbEntity
8
Geo
100
AcDbLine
10
-55.9641454956937
20
15.2004557479725
30
0.00000000000000
11
-55.9494788290270
21
15.2040380931890
31
0.00000000000000
  0
LINE
  5
F10494
330
F10495
100
AcDbEntity
8
Geo
100
AcDbLine
10
-55.9494788290270
20
15.2040380931890
30
0.00000000000000
11
-55.9348121623603
21
15.2075278206801
31
0.00000000000000
  0
LINE
  5
F10496
330
F10497
100
AcDbEntity
8
Geo
100
AcDbLine
10
-55.9348121623603
20
15.2075278206801
30
0.00000000000000
11
-55.9201454956937
21
15.2109247602425
31
0.00000000000000
  0
LINE
  5
F10498
330
F10499
100
AcDbEntity
8
Geo
100
AcDbLine
10
-55.9201454956937
20
15.2109247602425
30
0.00000000000000
11
-55.9054788290270
21
15.2142307244174
31
0.00000000000000
  0
LINE
  5
F1049A
330
F1049B
100
AcDbEntity
8
Geo
100
AcDbLine
10
-55.9054788290270
20
15.2142307244174
30
0.00000000000000
11
-55.8908121623603
21
15.2174519016400
31
0.00000000000000
  0
LINE
  5
F1049C
330
F1049D
100
AcDbEntity
8
Geo
100
AcDbLine
10
-55.8908121623603
20
15.2174519016400
30
0.00000000000000
11
-55.8761454956937
21
15.2206035011536
31
0.00000000000000
  0
LINE
  5
F1049E
330
F1049F
100
AcDbEntity
8
Geo
100
AcDbLine
10
-55.8761454956937
20
15.2206035011536
30
0.00000000000000
11
-55.8614788290270
21
15.2237181641885
31
0.00000000000000
  0
LINE
  5
F104A0
330
F104A1
100
AcDbEntity
8
Geo
100
AcDbLine
10
-55.8614788290270
20
15.2237181641885
30
0.00000000000000
11
-55.8468121623603
21
15.2268600311553
31
0.00000000000000
  0
LINE
  5
F104A2
330
F104A3
100
AcDbEntity
8
Geo
100
AcDbLine
10
-55.8468121623603
20
15.2268600311553
30
0.00000000000000
11
-55.8321454956937
21
15.2301457719526
31
0.00000000000000
  0
LINE
  5
F104A4
330
F104A5
100
AcDbEntity
8
Geo
100
AcDbLine
10
-55.8321454956937
20
15.2301457719526
30
0.00000000000000
11
-55.8174788290270
21
15.2337699672115
31
0.00000000000000
  0
LINE
  5
F104A6
330
F104A7
100
AcDbEntity
8
Geo
100
AcDbLine
10
-55.8174788290270
20
15.2337699672115
30
0.00000000000000
11
-55.8028121623603
21
15.2380188021507
31
0.00000000000000
  0
LINE
  5
F104A8
330
F104A9
100
AcDbEntity
8
Geo
100
AcDbLine
10
-55.8028121623603
20
15.2380188021507
30
0.00000000000000
11
-55.7881454956937
21
15.2432181312857
31
0.00000000000000
  0
LINE
  5
F104AA
330
F104AB
100
AcDbEntity
8
Geo
100
AcDbLine
10
-55.7881454956937
20
15.2432181312857
30
0.00000000000000
11
-55.7734788290270
21
15.2494650755512
31
0.00000000000000
  0
LINE
  5
F104AC
330
F104AD
100
AcDbEntity
8
Geo
100
AcDbLine
10
-55.7734788290270
20
15.2494650755512
30
0.00000000000000
11
-55.7588121623603
21
15.2557610255454
31
0.00000000000000
  0
LINE
  5
F104AE
330
F104AF
100
AcDbEntity
8
Geo
100
AcDbLine
10
-55.7588121623603
20
15.2557610255454
30
0.00000000000000
11
-55.7553389895651
21
15.2569099503088
31
0.00000000000000
  0
LINE
  5
F104B0
330
F104B1
100
AcDbEntity
8
Geo
100
AcDbLine
10
-56.1488546522923
20
15.1647702573303
30
0.00000000000000
11
-56.1401454956937
21
15.1554219449734
31
0.00000000000000
  0
LINE
  5
F104B2
330
F104B3
100
AcDbEntity
8
Geo
100
AcDbLine
10
-56.1401454956937
20
15.1554219449734
30
0.00000000000000
11
-56.1254788290270
21
15.1553186759123
31
0.00000000000000
  0
LINE
  5
F104B4
330
F104B5
100
AcDbEntity
8
Geo
100
AcDbLine
10
-56.1254788290270
20
15.1553186759123
30
0.00000000000000
11
-56.1108121623603
21
15.1551210077394
31
0.00000000000000
  0
LINE
  5
F104B6
330
F104B7
100
AcDbEntity
8
Geo
100
AcDbLine
10
-59.9974788290270
20
14.7849181764950
30
0.00000000000000
11
-59.9828121623604
21
14.8000670066996
31
0.00000000000000
  0
LINE
  5
F104B8
330
F104B9
100
AcDbEntity
8
Geo
100
AcDbLine
10
-59.9828121623604
20
14.8000670066996
30
0.00000000000000
11
-59.9681454956937
21
14.8158397726701
31
0.00000000000000
  0
LINE
  5
F104BA
330
F104BB
100
AcDbEntity
8
Geo
100
AcDbLine
10
-59.9681454956937
20
14.8158397726701
30
0.00000000000000
11
-59.9534788290270
21
14.8313700317932
31
0.00000000000000
  0
LINE
  5
F104BC
330
F104BD
100
AcDbEntity
8
Geo
100
AcDbLine
10
-59.9534788290270
20
14.8313700317932
30
0.00000000000000
11
-59.9388121623604
21
14.8464872158213
31
0.00000000000000
  0
LINE
  5
F104BE
330
F104BF
100
AcDbEntity
8
Geo
100
AcDbLine
10
-59.9388121623604
20
14.8464872158213
30
0.00000000000000
11
-59.9241454956937
21
14.8611450980103
31
0.00000000000000
  0
LINE
  5
F104C0
330
F104C1
100
AcDbEntity
8
Geo
100
AcDbLine
10
-59.9241454956937
20
14.8611450980103
30
0.00000000000000
11
-59.9094788290270
21
14.8753449314291
31
0.00000000000000
  0
LINE
  5
F104C2
330
F104C3
100
AcDbEntity
8
Geo
100
AcDbLine
10
-59.9094788290270
20
14.8753449314291
30
0.00000000000000
11
-59.8948121623604
21
14.8890854903697
31
0.00000000000000
  0
LINE
  5
F104C4
330
F104C5
100
AcDbEntity
8
Geo
100
AcDbLine
10
-59.8948121623604
20
14.8890854903697
30
0.00000000000000
11
-59.8801454956937
21
14.9023857827192
31
0.00000000000000
  0
LINE
  5
F104C6
330
F104C7
100
AcDbEntity
8
Geo
100
AcDbLine
10
-59.8801454956937
20
14.9023857827192
30
0.00000000000000
11
-59.8654788290270
21
14.9150850824811
31
0.00000000000000
  0
LINE
  5
F104C8
330
F104C9
100
AcDbEntity
8
Geo
100
AcDbLine
10
-59.8654788290270
20
14.9150850824811
30
0.00000000000000
11
-59.8508121623604
21
14.9269098382098
31
0.00000000000000
  0
LINE
  5
F104CA
330
F104CB
100
AcDbEntity
8
Geo
100
AcDbLine
10
-59.8508121623604
20
14.9269098382098
30
0.00000000000000
11
-59.8361454956937
21
14.9379015837984
31
0.00000000000000
  0
LINE
  5
F104CC
330
F104CD
100
AcDbEntity
8
Geo
100
AcDbLine
10
-59.8361454956937
20
14.9379015837984
30
0.00000000000000
11
-59.8214788290270
21
14.9481102491165
31
0.00000000000000
  0
LINE
  5
F104CE
330
F104CF
100
AcDbEntity
8
Geo
100
AcDbLine
10
-59.8214788290270
20
14.9481102491165
30
0.00000000000000
11
-59.8068121623604
21
14.9575788470694
31
0.00000000000000
  0
LINE
  5
F104D0
330
F104D1
100
AcDbEntity
8
Geo
100
AcDbLine
10
-59.8068121623604
20
14.9575788470694
30
0.00000000000000
11
-59.7921454956937
21
14.9663447504050
31
0.00000000000000
  0
LINE
  5
F104D2
330
F104D3
100
AcDbEntity
8
Geo
100
AcDbLine
10
-59.7921454956937
20
14.9663447504050
30
0.00000000000000
11
-59.7774788290270
21
14.9744406851512
31
0.00000000000000
  0
LINE
  5
F104D4
330
F104D5
100
AcDbEntity
8
Geo
100
AcDbLine
10
-59.7774788290270
20
14.9744406851512
30
0.00000000000000
11
-59.7628121623604
21
14.9818955137796
31
0.00000000000000
  0
LINE
  5
F104D6
330
F104D7
100
AcDbEntity
8
Geo
100
AcDbLine
10
-59.7628121623604
20
14.9818955137796
30
0.00000000000000
11
-59.7481454956937
21
14.9887348599276
31
0.00000000000000
  0
LINE
  5
F104D8
330
F104D9
100
AcDbEntity
8
Geo
100
AcDbLine
10
-59.7481454956937
20
14.9887348599276
30
0.00000000000000
11
-59.7334788290270
21
14.9949816120676
31
0.00000000000000
  0
LINE
  5
F104DA
330
F104DB
100
AcDbEntity
8
Geo
100
AcDbLine
10
-59.7334788290270
20
14.9949816120676
30
0.00000000000000
11
-59.7188121623604
21
15.0006563335211
31
0.00000000000000
  0
LINE
  5
F104DC
330
F104DD
100
AcDbEntity
8
Geo
100
AcDbLine
10
-59.7188121623604
20
15.0006563335211
30
0.00000000000000
11
-59.7041454956937
21
15.0057775991823
31
0.00000000000000
  0
LINE
  5
F104DE
330
F104DF
100
AcDbEntity
8
Geo
100
AcDbLine
10
-59.7041454956937
20
15.0057775991823
30
0.00000000000000
11
-59.6894788290270
21
15.0103622742808
31
0.00000000000000
  0
LINE
  5
F104E0
330
F104E1
100
AcDbEntity
8
Geo
100
AcDbLine
10
-59.6894788290270
20
15.0103622742808
30
0.00000000000000
11
-59.6748121623604
21
15.0144257468667
31
0.00000000000000
  0
LINE
  5
F104E2
330
F104E3
100
AcDbEntity
8
Geo
100
AcDbLine
10
-59.6748121623604
20
15.0144257468667
30
0.00000000000000
11
-59.6601454956937
21
15.0179821230136
31
0.00000000000000
  0
LINE
  5
F104E4
330
F104E5
100
AcDbEntity
8
Geo
100
AcDbLine
10
-59.6601454956937
20
15.0179821230136
30
0.00000000000000
11
-59.6454788290270
21
15.0210443917400
31
0.00000000000000
  0
LINE
  5
F104E6
330
F104E7
100
AcDbEntity
8
Geo
100
AcDbLine
10
-59.6454788290270
20
15.0210443917400
30
0.00000000000000
11
-59.6308121623604
21
15.0236245651449
31
0.00000000000000
  0
LINE
  5
F104E8
330
F104E9
100
AcDbEntity
8
Geo
100
AcDbLine
10
-59.6308121623604
20
15.0236245651449
30
0.00000000000000
11
-59.6161454956937
21
15.0257337981109
31
0.00000000000000
  0
LINE
  5
F104EA
330
F104EB
100
AcDbEntity
8
Geo
100
AcDbLine
10
-59.6161454956937
20
15.0257337981109
30
0.00000000000000
11
-59.6014788290270
21
15.0273824910500
31
0.00000000000000
  0
LINE
  5
F104EC
330
F104ED
100
AcDbEntity
8
Geo
100
AcDbLine
10
-59.6014788290270
20
15.0273824910500
30
0.00000000000000
11
-59.5868121623604
21
15.0285803784876
31
0.00000000000000
  0
LINE
  5
F104EE
330
F104EF
100
AcDbEntity
8
Geo
100
AcDbLine
10
-59.5868121623604
20
15.0285803784876
30
0.00000000000000
11
-59.5721454956937
21
15.0293366057463
31
0.00000000000000
  0
LINE
  5
F104F0
330
F104F1
100
AcDbEntity
8
Geo
100
AcDbLine
10
-59.5721454956937
20
15.0293366057463
30
0.00000000000000
11
-59.5574788290270
21
15.0296597955763
31
0.00000000000000
  0
LINE
  5
F104F2
330
F104F3
100
AcDbEntity
8
Geo
100
AcDbLine
10
-59.5574788290270
20
15.0296597955763
30
0.00000000000000
11
-59.5428121623604
21
15.0295581062433
31
0.00000000000000
  0
LINE
  5
F104F4
330
F104F5
100
AcDbEntity
8
Geo
100
AcDbLine
10
-59.5428121623604
20
15.0295581062433
30
0.00000000000000
11
-59.5281454956937
21
15.0290392823202
31
0.00000000000000
  0
LINE
  5
F104F6
330
F104F7
100
AcDbEntity
8
Geo
100
AcDbLine
10
-59.5281454956937
20
15.0290392823202
30
0.00000000000000
11
-59.5134788290270
21
15.0281106992169
31
0.00000000000000
  0
LINE
  5
F104F8
330
F104F9
100
AcDbEntity
8
Geo
100
AcDbLine
10
-59.5134788290270
20
15.0281106992169
30
0.00000000000000
11
-59.4988121623604
21
15.0267794023065
31
0.00000000000000
  0
LINE
  5
F104FA
330
F104FB
100
AcDbEntity
8
Geo
100
AcDbLine
10
-59.4988121623604
20
15.0267794023065
30
0.00000000000000
11
-59.4841454956937
21
15.0250521413660
31
0.00000000000000
  0
LINE
  5
F104FC
330
F104FD
100
AcDbEntity
8
Geo
100
AcDbLine
10
-59.4841454956937
20
15.0250521413660
30
0.00000000000000
11
-59.4694788290270
21
15.0229354009363
31
0.00000000000000
  0
LINE
  5
F104FE
330
F104FF
100
AcDbEntity
8
Geo
100
AcDbLine
10
-59.4694788290270
20
15.0229354009363
30
0.00000000000000
11
-59.4548121623604
21
15.0204354271052
31
0.00000000000000
  0
LINE
  5
F10500
330
F10501
100
AcDbEntity
8
Geo
100
AcDbLine
10
-59.4548121623604
20
15.0204354271052
30
0.00000000000000
11
-59.4401454956937
21
15.0175582511449
31
0.00000000000000
  0
LINE
  5
F10502
330
F10503
100
AcDbEntity
8
Geo
100
AcDbLine
10
-59.4401454956937
20
15.0175582511449
30
0.00000000000000
11
-59.4254788290270
21
15.0143097103614
31
0.00000000000000
  0
LINE
  5
F10504
330
F10505
100
AcDbEntity
8
Geo
100
AcDbLine
10
-59.4254788290270
20
15.0143097103614
30
0.00000000000000
11
-59.4108121623604
21
15.0106954664650
31
0.00000000000000
  0
LINE
  5
F10506
330
F10507
100
AcDbEntity
8
Geo
100
AcDbLine
10
-59.4108121623604
20
15.0106954664650
30
0.00000000000000
11
-59.3961454956937
21
15.0067210217174
31
0.00000000000000
  0
LINE
  5
F10508
330
F10509
100
AcDbEntity
8
Geo
100
AcDbLine
10
-59.3961454956937
20
15.0067210217174
30
0.00000000000000
11
-59.3814788290270
21
15.0023917330749
31
0.00000000000000
  0
LINE
  5
F1050A
330
F1050B
100
AcDbEntity
8
Geo
100
AcDbLine
10
-59.3814788290270
20
15.0023917330749
30
0.00000000000000
11
-59.3668121623604
21
14.9977128245095
31
0.00000000000000
  0
LINE
  5
F1050C
330
F1050D
100
AcDbEntity
8
Geo
100
AcDbLine
10
-59.3668121623604
20
14.9977128245095
30
0.00000000000000
11
-59.3521454956937
21
14.9926893976624
31
0.00000000000000
  0
LINE
  5
F1050E
330
F1050F
100
AcDbEntity
8
Geo
100
AcDbLine
10
-59.3521454956937
20
14.9926893976624
30
0.00000000000000
11
-59.3374788290270
21
14.9874249155483
31
0.00000000000000
  0
LINE
  5
F10510
330
F10511
100
AcDbEntity
8
Geo
100
AcDbLine
10
-59.3374788290270
20
14.9874249155483
30
0.00000000000000
11
-59.3228121623604
21
14.9820849679002
31
0.00000000000000
  0
LINE
  5
F10512
330
F10513
100
AcDbEntity
8
Geo
100
AcDbLine
10
-59.3228121623604
20
14.9820849679002
30
0.00000000000000
11
-59.3081454956937
21
14.9766727035698
31
0.00000000000000
  0
LINE
  5
F10514
330
F10515
100
AcDbEntity
8
Geo
100
AcDbLine
10
-59.3081454956937
20
14.9766727035698
30
0.00000000000000
11
-59.2934788290270
21
14.9711888124687
31
0.00000000000000
  0
LINE
  5
F10516
330
F10517
100
AcDbEntity
8
Geo
100
AcDbLine
10
-59.2934788290270
20
14.9711888124687
30
0.00000000000000
11
-59.2788121623604
21
14.9656339936389
31
0.00000000000000
  0
LINE
  5
F10518
330
F10519
100
AcDbEntity
8
Geo
100
AcDbLine
10
-59.2788121623604
20
14.9656339936389
30
0.00000000000000
11
-59.2641454956937
21
14.9600089551638
31
0.00000000000000
  0
LINE
  5
F1051A
330
F1051B
100
AcDbEntity
8
Geo
100
AcDbLine
10
-59.2641454956937
20
14.9600089551638
30
0.00000000000000
11
-59.2494788290270
21
14.9543144140775
31
0.00000000000000
  0
LINE
  5
F1051C
330
F1051D
100
AcDbEntity
8
Geo
100
AcDbLine
10
-59.2494788290270
20
14.9543144140775
30
0.00000000000000
11
-59.2348121623604
21
14.9485510962741
31
0.00000000000000
  0
LINE
  5
F1051E
330
F1051F
100
AcDbEntity
8
Geo
100
AcDbLine
10
-59.2348121623604
20
14.9485510962741
30
0.00000000000000
11
-59.2201454956937
21
14.9427197364146
31
0.00000000000000
  0
LINE
  5
F10520
330
F10521
100
AcDbEntity
8
Geo
100
AcDbLine
10
-59.2201454956937
20
14.9427197364146
30
0.00000000000000
11
-59.2054788290270
21
14.9368210778335
31
0.00000000000000
  0
LINE
  5
F10522
330
F10523
100
AcDbEntity
8
Geo
100
AcDbLine
10
-59.2054788290270
20
14.9368210778335
30
0.00000000000000
11
-59.1908121623604
21
14.9308558724441
31
0.00000000000000
  0
LINE
  5
F10524
330
F10525
100
AcDbEntity
8
Geo
100
AcDbLine
10
-59.1908121623604
20
14.9308558724441
30
0.00000000000000
11
-59.1761454956937
21
14.9248248806423
31
0.00000000000000
  0
LINE
  5
F10526
330
F10527
100
AcDbEntity
8
Geo
100
AcDbLine
10
-59.1761454956937
20
14.9248248806423
30
0.00000000000000
11
-59.1614788290270
21
14.9187288712102
31
0.00000000000000
  0
LINE
  5
F10528
330
F10529
100
AcDbEntity
8
Geo
100
AcDbLine
10
-59.1614788290270
20
14.9187288712102
30
0.00000000000000
11
-59.1468121623604
21
14.9125686212176
31
0.00000000000000
  0
LINE
  5
F1052A
330
F1052B
100
AcDbEntity
8
Geo
100
AcDbLine
10
-59.1468121623604
20
14.9125686212176
30
0.00000000000000
11
-59.1321454956937
21
14.9063449159233
31
0.00000000000000
  0
LINE
  5
F1052C
330
F1052D
100
AcDbEntity
8
Geo
100
AcDbLine
10
-59.1321454956937
20
14.9063449159233
30
0.00000000000000
11
-59.1174788290270
21
14.9000585486747
31
0.00000000000000
  0
LINE
  5
F1052E
330
F1052F
100
AcDbEntity
8
Geo
100
AcDbLine
10
-59.1174788290270
20
14.9000585486747
30
0.00000000000000
11
-59.1028121623604
21
14.8937103208072
31
0.00000000000000
  0
LINE
  5
F10530
330
F10531
100
AcDbEntity
8
Geo
100
AcDbLine
10
-59.1028121623604
20
14.8937103208072
30
0.00000000000000
11
-59.0881454956937
21
14.8873010415412
31
0.00000000000000
  0
LINE
  5
F10532
330
F10533
100
AcDbEntity
8
Geo
100
AcDbLine
10
-59.0881454956937
20
14.8873010415412
30
0.00000000000000
11
-59.0734788290270
21
14.8808315278798
31
0.00000000000000
  0
LINE
  5
F10534
330
F10535
100
AcDbEntity
8
Geo
100
AcDbLine
10
-59.0734788290270
20
14.8808315278798
30
0.00000000000000
11
-59.0588121623604
21
14.8743026045041
31
0.00000000000000
  0
LINE
  5
F10536
330
F10537
100
AcDbEntity
8
Geo
100
AcDbLine
10
-59.0588121623604
20
14.8743026045041
30
0.00000000000000
11
-59.0441454956937
21
14.8677151036685
31
0.00000000000000
  0
LINE
  5
F10538
330
F10539
100
AcDbEntity
8
Geo
100
AcDbLine
10
-59.0441454956937
20
14.8677151036685
30
0.00000000000000
11
-59.0294788290270
21
14.8610698650941
31
0.00000000000000
  0
LINE
  5
F1053A
330
F1053B
100
AcDbEntity
8
Geo
100
AcDbLine
10
-59.0294788290270
20
14.8610698650941
30
0.00000000000000
11
-59.0148121623604
21
14.8543677358621
31
0.00000000000000
  0
LINE
  5
F1053C
330
F1053D
100
AcDbEntity
8
Geo
100
AcDbLine
10
-59.0148121623604
20
14.8543677358621
30
0.00000000000000
11
-59.0001454956937
21
14.8476095703057
31
0.00000000000000
  0
LINE
  5
F1053E
330
F1053F
100
AcDbEntity
8
Geo
100
AcDbLine
10
-59.0001454956937
20
14.8476095703057
30
0.00000000000000
11
-58.9854788290270
21
14.8407962299010
31
0.00000000000000
  0
LINE
  5
F10540
330
F10541
100
AcDbEntity
8
Geo
100
AcDbLine
10
-58.9854788290270
20
14.8407962299010
30
0.00000000000000
11
-58.9708121623604
21
14.8339285831574
31
0.00000000000000
  0
LINE
  5
F10542
330
F10543
100
AcDbEntity
8
Geo
100
AcDbLine
10
-58.9708121623604
20
14.8339285831574
30
0.00000000000000
11
-58.9561454956937
21
14.8270075055069
31
0.00000000000000
  0
LINE
  5
F10544
330
F10545
100
AcDbEntity
8
Geo
100
AcDbLine
10
-58.9561454956937
20
14.8270075055069
30
0.00000000000000
11
-58.9414788290270
21
14.8200338791924
31
0.00000000000000
  0
LINE
  5
F10546
330
F10547
100
AcDbEntity
8
Geo
100
AcDbLine
10
-58.9414788290270
20
14.8200338791924
30
0.00000000000000
11
-58.9268121623604
21
14.8130085931553
31
0.00000000000000
  0
LINE
  5
F10548
330
F10549
100
AcDbEntity
8
Geo
100
AcDbLine
10
-58.9268121623604
20
14.8130085931553
30
0.00000000000000
11
-58.9121454956937
21
14.8059325429220
31
0.00000000000000
  0
LINE
  5
F1054A
330
F1054B
100
AcDbEntity
8
Geo
100
AcDbLine
10
-58.9121454956937
20
14.8059325429220
30
0.00000000000000
11
-58.8974788290270
21
14.7988066304903
31
0.00000000000000
  0
LINE
  5
F1054C
330
F1054D
100
AcDbEntity
8
Geo
100
AcDbLine
10
-58.8974788290270
20
14.7988066304903
30
0.00000000000000
11
-58.8828121623604
21
14.7916317642135
31
0.00000000000000
  0
LINE
  5
F1054E
330
F1054F
100
AcDbEntity
8
Geo
100
AcDbLine
10
-58.8828121623604
20
14.7916317642135
30
0.00000000000000
11
-58.8681454956937
21
14.7844088586856
31
0.00000000000000
  0
LINE
  5
F10550
330
F10551
100
AcDbEntity
8
Geo
100
AcDbLine
10
-58.8681454956937
20
14.7844088586856
30
0.00000000000000
11
-58.8534788290270
21
14.7771388346241
31
0.00000000000000
  0
LINE
  5
F10552
330
F10553
100
AcDbEntity
8
Geo
100
AcDbLine
10
-58.8534788290270
20
14.7771388346241
30
0.00000000000000
11
-58.8388121623604
21
14.7698226187526
31
0.00000000000000
  0
LINE
  5
F10554
330
F10555
100
AcDbEntity
8
Geo
100
AcDbLine
10
-58.8388121623604
20
14.7698226187526
30
0.00000000000000
11
-58.8241454956937
21
14.7624611436830
31
0.00000000000000
  0
LINE
  5
F10556
330
F10557
100
AcDbEntity
8
Geo
100
AcDbLine
10
-58.8241454956937
20
14.7624611436830
30
0.00000000000000
11
-58.8094788290270
21
14.7550553477967
31
0.00000000000000
  0
LINE
  5
F10558
330
F10559
100
AcDbEntity
8
Geo
100
AcDbLine
10
-58.8094788290270
20
14.7550553477967
30
0.00000000000000
11
-58.7948121623604
21
14.7476061751244
31
0.00000000000000
  0
LINE
  5
F1055A
330
F1055B
100
AcDbEntity
8
Geo
100
AcDbLine
10
-58.7948121623604
20
14.7476061751244
30
0.00000000000000
11
-58.7801454956937
21
14.7401145752262
31
0.00000000000000
  0
LINE
  5
F1055C
330
F1055D
100
AcDbEntity
8
Geo
100
AcDbLine
10
-58.7801454956937
20
14.7401145752262
30
0.00000000000000
11
-58.7654788290270
21
14.7325815030708
31
0.00000000000000
  0
LINE
  5
F1055E
330
F1055F
100
AcDbEntity
8
Geo
100
AcDbLine
10
-58.7654788290270
20
14.7325815030708
30
0.00000000000000
11
-58.7508121623604
21
14.7250079189129
31
0.00000000000000
  0
LINE
  5
F10560
330
F10561
100
AcDbEntity
8
Geo
100
AcDbLine
10
-58.7508121623604
20
14.7250079189129
30
0.00000000000000
11
-58.7361454956937
21
14.7173947881719
31
0.00000000000000
  0
LINE
  5
F10562
330
F10563
100
AcDbEntity
8
Geo
100
AcDbLine
10
-58.7361454956937
20
14.7173947881719
30
0.00000000000000
11
-58.7214788290270
21
14.7097430813078
31
0.00000000000000
  0
LINE
  5
F10564
330
F10565
100
AcDbEntity
8
Geo
100
AcDbLine
10
-58.7214788290270
20
14.7097430813078
30
0.00000000000000
11
-58.7068121623604
21
14.7020537736984
31
0.00000000000000
  0
LINE
  5
F10566
330
F10567
100
AcDbEntity
8
Geo
100
AcDbLine
10
-58.7068121623604
20
14.7020537736984
30
0.00000000000000
11
-58.6921454956937
21
14.6943278455141
31
0.00000000000000
  0
LINE
  5
F10568
330
F10569
100
AcDbEntity
8
Geo
100
AcDbLine
10
-58.6921454956937
20
14.6943278455141
30
0.00000000000000
11
-58.6774788290270
21
14.6865662815938
31
0.00000000000000
  0
LINE
  5
F1056A
330
F1056B
100
AcDbEntity
8
Geo
100
AcDbLine
10
-58.6774788290270
20
14.6865662815938
30
0.00000000000000
11
-58.6628121623604
21
14.6787700713187
31
0.00000000000000
  0
LINE
  5
F1056C
330
F1056D
100
AcDbEntity
8
Geo
100
AcDbLine
10
-58.6628121623604
20
14.6787700713187
30
0.00000000000000
11
-58.6481454956937
21
14.6709402084866
31
0.00000000000000
  0
LINE
  5
F1056E
330
F1056F
100
AcDbEntity
8
Geo
100
AcDbLine
10
-58.6481454956937
20
14.6709402084866
30
0.00000000000000
11
-58.6334788290270
21
14.6630776911848
31
0.00000000000000
  0
LINE
  5
F10570
330
F10571
100
AcDbEntity
8
Geo
100
AcDbLine
10
-58.6334788290270
20
14.6630776911848
30
0.00000000000000
11
-58.6188121623604
21
14.6551835216634
31
0.00000000000000
  0
LINE
  5
F10572
330
F10573
100
AcDbEntity
8
Geo
100
AcDbLine
10
-58.6188121623604
20
14.6551835216634
30
0.00000000000000
11
-58.6041454956937
21
14.6472587062072
31
0.00000000000000
  0
LINE
  5
F10574
330
F10575
100
AcDbEntity
8
Geo
100
AcDbLine
10
-58.6041454956937
20
14.6472587062072
30
0.00000000000000
11
-58.5894788290270
21
14.6393042550073
31
0.00000000000000
  0
LINE
  5
F10576
330
F10577
100
AcDbEntity
8
Geo
100
AcDbLine
10
-58.5894788290270
20
14.6393042550073
30
0.00000000000000
11
-58.5748121623604
21
14.6313211820329
31
0.00000000000000
  0
LINE
  5
F10578
330
F10579
100
AcDbEntity
8
Geo
100
AcDbLine
10
-58.5748121623604
20
14.6313211820329
30
0.00000000000000
11
-58.5601454956937
21
14.6233105049013
31
0.00000000000000
  0
LINE
  5
F1057A
330
F1057B
100
AcDbEntity
8
Geo
100
AcDbLine
10
-58.5601454956937
20
14.6233105049013
30
0.00000000000000
11
-58.5454788290270
21
14.6152732447488
31
0.00000000000000
  0
LINE
  5
F1057C
330
F1057D
100
AcDbEntity
8
Geo
100
AcDbLine
10
-58.5454788290270
20
14.6152732447488
30
0.00000000000000
11
-58.5308121623604
21
14.6072104261001
31
0.00000000000000
  0
LINE
  5
F1057E
330
F1057F
100
AcDbEntity
8
Geo
100
AcDbLine
10
-58.5308121623604
20
14.6072104261001
30
0.00000000000000
11
-58.5161454956937
21
14.5991230767381
31
0.00000000000000
  0
LINE
  5
F10580
330
F10581
100
AcDbEntity
8
Geo
100
AcDbLine
10
-58.5161454956937
20
14.5991230767381
30
0.00000000000000
11
-58.5014788290270
21
14.5910122275725
31
0.00000000000000
  0
LINE
  5
F10582
330
F10583
100
AcDbEntity
8
Geo
100
AcDbLine
10
-58.5014788290270
20
14.5910122275725
30
0.00000000000000
11
-58.4868121623604
21
14.5828789125086
31
0.00000000000000
  0
LINE
  5
F10584
330
F10585
100
AcDbEntity
8
Geo
100
AcDbLine
10
-58.4868121623604
20
14.5828789125086
30
0.00000000000000
11
-58.4721454956937
21
14.5747241683156
31
0.00000000000000
  0
LINE
  5
F10586
330
F10587
100
AcDbEntity
8
Geo
100
AcDbLine
10
-58.4721454956937
20
14.5747241683156
30
0.00000000000000
11
-58.4574788290270
21
14.5665490344941
31
0.00000000000000
  0
LINE
  5
F10588
330
F10589
100
AcDbEntity
8
Geo
100
AcDbLine
10
-58.4574788290270
20
14.5665490344941
30
0.00000000000000
11
-58.4428121623604
21
14.5583545531440
31
0.00000000000000
  0
LINE
  5
F1058A
330
F1058B
100
AcDbEntity
8
Geo
100
AcDbLine
10
-58.4428121623604
20
14.5583545531440
30
0.00000000000000
11
-58.4281454956937
21
14.5501417688313
31
0.00000000000000
  0
LINE
  5
F1058C
330
F1058D
100
AcDbEntity
8
Geo
100
AcDbLine
10
-58.4281454956937
20
14.5501417688313
30
0.00000000000000
11
-58.4134788290270
21
14.5419117284552
31
0.00000000000000
  0
LINE
  5
F1058E
330
F1058F
100
AcDbEntity
8
Geo
100
AcDbLine
10
-58.4134788290270
20
14.5419117284552
30
0.00000000000000
11
-58.3988121623604
21
14.5336654811147
31
0.00000000000000
  0
LINE
  5
F10590
330
F10591
100
AcDbEntity
8
Geo
100
AcDbLine
10
-58.3988121623604
20
14.5336654811147
30
0.00000000000000
11
-58.3841454956937
21
14.5254040779745
31
0.00000000000000
  0
LINE
  5
F10592
330
F10593
100
AcDbEntity
8
Geo
100
AcDbLine
10
-58.3841454956937
20
14.5254040779745
30
0.00000000000000
11
-58.3694788290270
21
14.5171285721312
31
0.00000000000000
  0
LINE
  5
F10594
330
F10595
100
AcDbEntity
8
Geo
100
AcDbLine
10
-58.3694788290270
20
14.5171285721312
30
0.00000000000000
11
-58.3548121623604
21
14.5088400184794
31
0.00000000000000
  0
LINE
  5
F10596
330
F10597
100
AcDbEntity
8
Geo
100
AcDbLine
10
-58.3548121623604
20
14.5088400184794
30
0.00000000000000
11
-58.3401454956937
21
14.5005394735768
31
0.00000000000000
  0
LINE
  5
F10598
330
F10599
100
AcDbEntity
8
Geo
100
AcDbLine
10
-58.3401454956937
20
14.5005394735768
30
0.00000000000000
11
-58.3254788290270
21
14.4922279955094
31
0.00000000000000
  0
LINE
  5
F1059A
330
F1059B
100
AcDbEntity
8
Geo
100
AcDbLine
10
-58.3254788290270
20
14.4922279955094
30
0.00000000000000
11
-58.3108121623604
21
14.4839066437572
31
0.00000000000000
  0
LINE
  5
F1059C
330
F1059D
100
AcDbEntity
8
Geo
100
AcDbLine
10
-58.3108121623604
20
14.4839066437572
30
0.00000000000000
11
-58.2961454956937
21
14.4755764790587
31
0.00000000000000
  0
LINE
  5
F1059E
330
F1059F
100
AcDbEntity
8
Geo
100
AcDbLine
10
-58.2961454956937
20
14.4755764790587
30
0.00000000000000
11
-58.2814788290270
21
14.4672385632757
31
0.00000000000000
  0
LINE
  5
F105A0
330
F105A1
100
AcDbEntity
8
Geo
100
AcDbLine
10
-58.2814788290270
20
14.4672385632757
30
0.00000000000000
11
-58.2668121623604
21
14.4588939592583
31
0.00000000000000
  0
LINE
  5
F105A2
330
F105A3
100
AcDbEntity
8
Geo
100
AcDbLine
10
-58.2668121623604
20
14.4588939592583
30
0.00000000000000
11
-58.2521454956937
21
14.4505437307089
31
0.00000000000000
  0
LINE
  5
F105A4
330
F105A5
100
AcDbEntity
8
Geo
100
AcDbLine
10
-58.2521454956937
20
14.4505437307089
30
0.00000000000000
11
-58.2374788290270
21
14.4421889420470
31
0.00000000000000
  0
LINE
  5
F105A6
330
F105A7
100
AcDbEntity
8
Geo
100
AcDbLine
10
-58.2374788290270
20
14.4421889420470
30
0.00000000000000
11
-58.2228121623604
21
14.4338306582733
31
0.00000000000000
  0
LINE
  5
F105A8
330
F105A9
100
AcDbEntity
8
Geo
100
AcDbLine
10
-58.2228121623604
20
14.4338306582733
30
0.00000000000000
11
-58.2081454956937
21
14.4254699448342
31
0.00000000000000
  0
LINE
  5
F105AA
330
F105AB
100
AcDbEntity
8
Geo
100
AcDbLine
10
-58.2081454956937
20
14.4254699448342
30
0.00000000000000
11
-58.1934788290270
21
14.4171078674855
31
0.00000000000000
  0
LINE
  5
F105AC
330
F105AD
100
AcDbEntity
8
Geo
100
AcDbLine
10
-58.1934788290270
20
14.4171078674855
30
0.00000000000000
11
-58.1788121623604
21
14.4087454921573
31
0.00000000000000
  0
LINE
  5
F105AE
330
F105AF
100
AcDbEntity
8
Geo
100
AcDbLine
10
-58.1788121623604
20
14.4087454921573
30
0.00000000000000
11
-58.1641454956937
21
14.4003838848174
31
0.00000000000000
  0
LINE
  5
F105B0
330
F105B1
100
AcDbEntity
8
Geo
100
AcDbLine
10
-58.1641454956937
20
14.4003838848174
30
0.00000000000000
11
-58.1494788290270
21
14.3920241113356
31
0.00000000000000
  0
LINE
  5
F105B2
330
F105B3
100
AcDbEntity
8
Geo
100
AcDbLine
10
-58.1494788290270
20
14.3920241113356
30
0.00000000000000
11
-58.1348121623604
21
14.3836672373482
31
0.00000000000000
  0
LINE
  5
F105B4
330
F105B5
100
AcDbEntity
8
Geo
100
AcDbLine
10
-58.1348121623604
20
14.3836672373482
30
0.00000000000000
11
-58.1201454956937
21
14.3753143281218
31
0.00000000000000
  0
LINE
  5
F105B6
330
F105B7
100
AcDbEntity
8
Geo
100
AcDbLine
10
-58.1201454956937
20
14.3753143281218
30
0.00000000000000
11
-58.1054788290270
21
14.3669664484175
31
0.00000000000000
  0
LINE
  5
F105B8
330
F105B9
100
AcDbEntity
8
Geo
100
AcDbLine
10
-58.1054788290270
20
14.3669664484175
30
0.00000000000000
11
-58.0908121623604
21
14.3586246623554
31
0.00000000000000
  0
LINE
  5
F105BA
330
F105BB
100
AcDbEntity
8
Geo
100
AcDbLine
10
-58.0908121623604
20
14.3586246623554
30
0.00000000000000
11
-58.0761454956937
21
14.3502900332788
31
0.00000000000000
  0
LINE
  5
F105BC
330
F105BD
100
AcDbEntity
8
Geo
100
AcDbLine
10
-58.0761454956937
20
14.3502900332788
30
0.00000000000000
11
-58.0614788290270
21
14.3419636236187
31
0.00000000000000
  0
LINE
  5
F105BE
330
F105BF
100
AcDbEntity
8
Geo
100
AcDbLine
10
-58.0614788290270
20
14.3419636236187
30
0.00000000000000
11
-58.0468121623604
21
14.3336464947583
31
0.00000000000000
  0
LINE
  5
F105C0
330
F105C1
100
AcDbEntity
8
Geo
100
AcDbLine
10
-58.0468121623604
20
14.3336464947583
30
0.00000000000000
11
-58.0321454956937
21
14.3253397068978
31
0.00000000000000
  0
LINE
  5
F105C2
330
F105C3
100
AcDbEntity
8
Geo
100
AcDbLine
10
-58.0321454956937
20
14.3253397068978
30
0.00000000000000
11
-58.0174788290270
21
14.3170443189192
31
0.00000000000000
  0
LINE
  5
F105C4
330
F105C5
100
AcDbEntity
8
Geo
100
AcDbLine
10
-58.0174788290270
20
14.3170443189192
30
0.00000000000000
11
-58.0028121623604
21
14.3087613882513
31
0.00000000000000
  0
LINE
  5
F105C6
330
F105C7
100
AcDbEntity
8
Geo
100
AcDbLine
10
-58.0028121623604
20
14.3087613882513
30
0.00000000000000
11
-57.9881454956937
21
14.3004919707351
31
0.00000000000000
  0
LINE
  5
F105C8
330
F105C9
100
AcDbEntity
8
Geo
100
AcDbLine
10
-57.9881454956937
20
14.3004919707351
30
0.00000000000000
11
-57.9734788290270
21
14.2922371204889
31
0.00000000000000
  0
LINE
  5
F105CA
330
F105CB
100
AcDbEntity
8
Geo
100
AcDbLine
10
-57.9734788290270
20
14.2922371204889
30
0.00000000000000
11
-57.9588121623604
21
14.2839978897740
31
0.00000000000000
  0
LINE
  5
F105CC
330
F105CD
100
AcDbEntity
8
Geo
100
AcDbLine
10
-57.9588121623604
20
14.2839978897740
30
0.00000000000000
11
-57.9441454956937
21
14.2757753288609
31
0.00000000000000
  0
LINE
  5
F105CE
330
F105CF
100
AcDbEntity
8
Geo
100
AcDbLine
10
-57.9441454956937
20
14.2757753288609
30
0.00000000000000
11
-57.9294788290270
21
14.2675704858950
31
0.00000000000000
  0
LINE
  5
F105D0
330
F105D1
100
AcDbEntity
8
Geo
100
AcDbLine
10
-57.9294788290270
20
14.2675704858950
30
0.00000000000000
11
-57.9148121623604
21
14.2593844067631
31
0.00000000000000
  0
LINE
  5
F105D2
330
F105D3
100
AcDbEntity
8
Geo
100
AcDbLine
10
-57.9148121623604
20
14.2593844067631
30
0.00000000000000
11
-57.9001454956937
21
14.2512181349604
31
0.00000000000000
  0
LINE
  5
F105D4
330
F105D5
100
AcDbEntity
8
Geo
100
AcDbLine
10
-57.9001454956937
20
14.2512181349604
30
0.00000000000000
11
-57.8854788290270
21
14.2430727114570
31
0.00000000000000
  0
LINE
  5
F105D6
330
F105D7
100
AcDbEntity
8
Geo
100
AcDbLine
10
-57.8854788290270
20
14.2430727114570
30
0.00000000000000
11
-57.8708121623604
21
14.2349491745654
31
0.00000000000000
  0
LINE
  5
F105D8
330
F105D9
100
AcDbEntity
8
Geo
100
AcDbLine
10
-57.8708121623604
20
14.2349491745654
30
0.00000000000000
11
-57.8561454956937
21
14.2268485598084
31
0.00000000000000
  0
LINE
  5
F105DA
330
F105DB
100
AcDbEntity
8
Geo
100
AcDbLine
10
-57.8561454956937
20
14.2268485598084
30
0.00000000000000
11
-57.8414788290270
21
14.2187718997866
31
0.00000000000000
  0
LINE
  5
F105DC
330
F105DD
100
AcDbEntity
8
Geo
100
AcDbLine
10
-57.8414788290270
20
14.2187718997866
30
0.00000000000000
11
-57.8268121623604
21
14.2107202240473
31
0.00000000000000
  0
LINE
  5
F105DE
330
F105DF
100
AcDbEntity
8
Geo
100
AcDbLine
10
-57.8268121623604
20
14.2107202240473
30
0.00000000000000
11
-57.8121454956937
21
14.2026945589528
31
0.00000000000000
  0
LINE
  5
F105E0
330
F105E1
100
AcDbEntity
8
Geo
100
AcDbLine
10
-57.8121454956937
20
14.2026945589528
30
0.00000000000000
11
-57.7974788290270
21
14.1946959275498
31
0.00000000000000
  0
LINE
  5
F105E2
330
F105E3
100
AcDbEntity
8
Geo
100
AcDbLine
10
-57.7974788290270
20
14.1946959275498
30
0.00000000000000
11
-57.7828121623604
21
14.1867253494391
31
0.00000000000000
  0
LINE
  5
F105E4
330
F105E5
100
AcDbEntity
8
Geo
100
AcDbLine
10
-57.7828121623604
20
14.1867253494391
30
0.00000000000000
11
-57.7681454956937
21
14.1787838406454
31
0.00000000000000
  0
LINE
  5
F105E6
330
F105E7
100
AcDbEntity
8
Geo
100
AcDbLine
10
-57.7681454956937
20
14.1787838406454
30
0.00000000000000
11
-57.7534788290270
21
14.1708724134879
31
0.00000000000000
  0
LINE
  5
F105E8
330
F105E9
100
AcDbEntity
8
Geo
100
AcDbLine
10
-57.7534788290270
20
14.1708724134879
30
0.00000000000000
11
-57.7388121623604
21
14.1629920764512
31
0.00000000000000
  0
LINE
  5
F105EA
330
F105EB
100
AcDbEntity
8
Geo
100
AcDbLine
10
-57.7388121623604
20
14.1629920764512
30
0.00000000000000
11
-57.7241454956937
21
14.1551438340568
31
0.00000000000000
  0
LINE
  5
F105EC
330
F105ED
100
AcDbEntity
8
Geo
100
AcDbLine
10
-57.7241454956937
20
14.1551438340568
30
0.00000000000000
11
-57.7094788290270
21
14.1473286867350
31
0.00000000000000
  0
LINE
  5
F105EE
330
F105EF
100
AcDbEntity
8
Geo
100
AcDbLine
10
-57.7094788290270
20
14.1473286867350
30
0.00000000000000
11
-57.6948121623604
21
14.1395476306976
31
0.00000000000000
  0
LINE
  5
F105F0
330
F105F1
100
AcDbEntity
8
Geo
100
AcDbLine
10
-57.6948121623604
20
14.1395476306976
30
0.00000000000000
11
-57.6801454956937
21
14.1318016578105
31
0.00000000000000
  0
LINE
  5
F105F2
330
F105F3
100
AcDbEntity
8
Geo
100
AcDbLine
10
-57.6801454956937
20
14.1318016578105
30
0.00000000000000
11
-57.6654788290270
21
14.1240917554675
31
0.00000000000000
  0
LINE
  5
F105F4
330
F105F5
100
AcDbEntity
8
Geo
100
AcDbLine
10
-57.6654788290270
20
14.1240917554675
30
0.00000000000000
11
-57.6508121623604
21
14.1164189064646
31
0.00000000000000
  0
LINE
  5
F105F6
330
F105F7
100
AcDbEntity
8
Geo
100
AcDbLine
10
-57.6508121623604
20
14.1164189064646
30
0.00000000000000
11
-57.6361454956937
21
14.1087840888743
31
0.00000000000000
  0
LINE
  5
F105F8
330
F105F9
100
AcDbEntity
8
Geo
100
AcDbLine
10
-57.6361454956937
20
14.1087840888743
30
0.00000000000000
11
-57.6214788290270
21
14.1011882759213
31
0.00000000000000
  0
LINE
  5
F105FA
330
F105FB
100
AcDbEntity
8
Geo
100
AcDbLine
10
-57.6214788290270
20
14.1011882759213
30
0.00000000000000
11
-57.6068121623604
21
14.0936324358583
31
0.00000000000000
  0
LINE
  5
F105FC
330
F105FD
100
AcDbEntity
8
Geo
100
AcDbLine
10
-57.6068121623604
20
14.0936324358583
30
0.00000000000000
11
-57.5921454956937
21
14.0861175318426
31
0.00000000000000
  0
LINE
  5
F105FE
330
F105FF
100
AcDbEntity
8
Geo
100
AcDbLine
10
-57.5921454956937
20
14.0861175318426
30
0.00000000000000
11
-57.5774788290270
21
14.0786445218132
31
0.00000000000000
  0
LINE
  5
F10600
330
F10601
100
AcDbEntity
8
Geo
100
AcDbLine
10
-57.5774788290270
20
14.0786445218132
30
0.00000000000000
11
-57.5628121623604
21
14.0712143583690
31
0.00000000000000
  0
LINE
  5
F10602
330
F10603
100
AcDbEntity
8
Geo
100
AcDbLine
10
-57.5628121623604
20
14.0712143583690
30
0.00000000000000
11
-57.5481454956937
21
14.0638279886469
31
0.00000000000000
  0
LINE
  5
F10604
330
F10605
100
AcDbEntity
8
Geo
100
AcDbLine
10
-57.5481454956937
20
14.0638279886469
30
0.00000000000000
11
-57.5334788290270
21
14.0564863542015
31
0.00000000000000
  0
LINE
  5
F10606
330
F10607
100
AcDbEntity
8
Geo
100
AcDbLine
10
-57.5334788290270
20
14.0564863542015
30
0.00000000000000
11
-57.5188121623604
21
14.0491903908848
31
0.00000000000000
  0
LINE
  5
F10608
330
F10609
100
AcDbEntity
8
Geo
100
AcDbLine
10
-57.5188121623604
20
14.0491903908848
30
0.00000000000000
11
-57.5041454956937
21
14.0419410287272
31
0.00000000000000
  0
LINE
  5
F1060A
330
F1060B
100
AcDbEntity
8
Geo
100
AcDbLine
10
-57.5041454956937
20
14.0419410287272
30
0.00000000000000
11
-57.4894788290270
21
14.0347391918186
31
0.00000000000000
  0
LINE
  5
F1060C
330
F1060D
100
AcDbEntity
8
Geo
100
AcDbLine
10
-57.4894788290270
20
14.0347391918186
30
0.00000000000000
11
-57.4748121623604
21
14.0275857981908
31
0.00000000000000
  0
LINE
  5
F1060E
330
F1060F
100
AcDbEntity
8
Geo
100
AcDbLine
10
-57.4748121623604
20
14.0275857981908
30
0.00000000000000
11
-57.4601454956937
21
14.0204817597005
31
0.00000000000000
  0
LINE
  5
F10610
330
F10611
100
AcDbEntity
8
Geo
100
AcDbLine
10
-57.4601454956937
20
14.0204817597005
30
0.00000000000000
11
-57.4454788290270
21
14.0134279819129
31
0.00000000000000
  0
LINE
  5
F10612
330
F10613
100
AcDbEntity
8
Geo
100
AcDbLine
10
-57.4454788290270
20
14.0134279819129
30
0.00000000000000
11
-57.4308121623604
21
14.0064253639864
31
0.00000000000000
  0
LINE
  5
F10614
330
F10615
100
AcDbEntity
8
Geo
100
AcDbLine
10
-57.4308121623604
20
14.0064253639864
30
0.00000000000000
11
-57.4161454956937
21
13.9994747985581
31
0.00000000000000
  0
LINE
  5
F10616
330
F10617
100
AcDbEntity
8
Geo
100
AcDbLine
10
-57.4161454956937
20
13.9994747985581
30
0.00000000000000
11
-57.4014788290270
21
13.9925771716297
31
0.00000000000000
  0
LINE
  5
F10618
330
F10619
100
AcDbEntity
8
Geo
100
AcDbLine
10
-57.4014788290270
20
13.9925771716297
30
0.00000000000000
11
-57.3868121623604
21
13.9857333624548
31
0.00000000000000
  0
LINE
  5
F1061A
330
F1061B
100
AcDbEntity
8
Geo
100
AcDbLine
10
-57.3868121623604
20
13.9857333624548
30
0.00000000000000
11
-57.3721454956937
21
13.9789442434268
31
0.00000000000000
  0
LINE
  5
F1061C
330
F1061D
100
AcDbEntity
8
Geo
100
AcDbLine
10
-57.3721454956937
20
13.9789442434268
30
0.00000000000000
11
-57.3574788290270
21
13.9722106799675
31
0.00000000000000
  0
LINE
  5
F1061E
330
F1061F
100
AcDbEntity
8
Geo
100
AcDbLine
10
-57.3574788290270
20
13.9722106799675
30
0.00000000000000
11
-57.3428121623604
21
13.9655335304169
31
0.00000000000000
  0
LINE
  5
F10620
330
F10621
100
AcDbEntity
8
Geo
100
AcDbLine
10
-57.3428121623604
20
13.9655335304169
30
0.00000000000000
11
-57.3281454956937
21
13.9589136459242
31
0.00000000000000
  0
LINE
  5
F10622
330
F10623
100
AcDbEntity
8
Geo
100
AcDbLine
10
-57.3281454956937
20
13.9589136459242
30
0.00000000000000
11
-57.3134788290270
21
13.9523518703384
31
0.00000000000000
  0
LINE
  5
F10624
330
F10625
100
AcDbEntity
8
Geo
100
AcDbLine
10
-57.3134788290270
20
13.9523518703384
30
0.00000000000000
11
-57.2988121623604
21
13.9458490401016
31
0.00000000000000
  0
LINE
  5
F10626
330
F10627
100
AcDbEntity
8
Geo
100
AcDbLine
10
-57.2988121623604
20
13.9458490401016
30
0.00000000000000
11
-57.2841454956937
21
13.9394059841418
31
0.00000000000000
  0
LINE
  5
F10628
330
F10629
100
AcDbEntity
8
Geo
100
AcDbLine
10
-57.2841454956937
20
13.9394059841418
30
0.00000000000000
11
-57.2694788290270
21
13.9330235237676
31
0.00000000000000
  0
LINE
  5
F1062A
330
F1062B
100
AcDbEntity
8
Geo
100
AcDbLine
10
-57.2694788290270
20
13.9330235237676
30
0.00000000000000
11
-57.2548121623604
21
13.9267024725635
31
0.00000000000000
  0
LINE
  5
F1062C
330
F1062D
100
AcDbEntity
8
Geo
100
AcDbLine
10
-57.2548121623604
20
13.9267024725635
30
0.00000000000000
11
-57.2401454956937
21
13.9204436362856
31
0.00000000000000
  0
LINE
  5
F1062E
330
F1062F
100
AcDbEntity
8
Geo
100
AcDbLine
10
-57.2401454956937
20
13.9204436362856
30
0.00000000000000
11
-57.2254788290270
21
13.9142478127599
31
0.00000000000000
  0
LINE
  5
F10630
330
F10631
100
AcDbEntity
8
Geo
100
AcDbLine
10
-57.2254788290270
20
13.9142478127599
30
0.00000000000000
11
-57.2108121623604
21
13.9081157917796
31
0.00000000000000
  0
LINE
  5
F10632
330
F10633
100
AcDbEntity
8
Geo
100
AcDbLine
10
-57.2108121623604
20
13.9081157917796
30
0.00000000000000
11
-57.1961454956937
21
13.9020483550051
31
0.00000000000000
  0
LINE
  5
F10634
330
F10635
100
AcDbEntity
8
Geo
100
AcDbLine
10
-57.1961454956937
20
13.9020483550051
30
0.00000000000000
11
-57.1814788290270
21
13.8960462758641
31
0.00000000000000
  0
LINE
  5
F10636
330
F10637
100
AcDbEntity
8
Geo
100
AcDbLine
10
-57.1814788290270
20
13.8960462758641
30
0.00000000000000
11
-57.1668121623604
21
13.8901103194530
31
0.00000000000000
  0
LINE
  5
F10638
330
F10639
100
AcDbEntity
8
Geo
100
AcDbLine
10
-57.1668121623604
20
13.8901103194530
30
0.00000000000000
11
-57.1521454956937
21
13.8842412424394
31
0.00000000000000
  0
LINE
  5
F1063A
330
F1063B
100
AcDbEntity
8
Geo
100
AcDbLine
10
-57.1521454956937
20
13.8842412424394
30
0.00000000000000
11
-57.1374788290270
21
13.8784397929657
31
0.00000000000000
  0
LINE
  5
F1063C
330
F1063D
100
AcDbEntity
8
Geo
100
AcDbLine
10
-57.1374788290270
20
13.8784397929657
30
0.00000000000000
11
-57.1228121623604
21
13.8727067105536
31
0.00000000000000
  0
LINE
  5
F1063E
330
F1063F
100
AcDbEntity
8
Geo
100
AcDbLine
10
-57.1228121623604
20
13.8727067105536
30
0.00000000000000
11
-57.1081454956937
21
13.8670427260102
31
0.00000000000000
  0
LINE
  5
F10640
330
F10641
100
AcDbEntity
8
Geo
100
AcDbLine
10
-57.1081454956937
20
13.8670427260102
30
0.00000000000000
11
-57.0934788290270
21
13.8614485613341
31
0.00000000000000
  0
LINE
  5
F10642
330
F10643
100
AcDbEntity
8
Geo
100
AcDbLine
10
-57.0934788290270
20
13.8614485613341
30
0.00000000000000
11
-57.0788121623604
21
13.8559249296242
31
0.00000000000000
  0
LINE
  5
F10644
330
F10645
100
AcDbEntity
8
Geo
100
AcDbLine
10
-57.0788121623604
20
13.8559249296242
30
0.00000000000000
11
-57.0641454956937
21
13.8504725349883
31
0.00000000000000
  0
LINE
  5
F10646
330
F10647
100
AcDbEntity
8
Geo
100
AcDbLine
10
-57.0641454956937
20
13.8504725349883
30
0.00000000000000
11
-57.0494788290270
21
13.8450920724536
31
0.00000000000000
  0
LINE
  5
F10648
330
F10649
100
AcDbEntity
8
Geo
100
AcDbLine
10
-57.0494788290270
20
13.8450920724536
30
0.00000000000000
11
-57.0348121623604
21
13.8397842278776
31
0.00000000000000
  0
LINE
  5
F1064A
330
F1064B
100
AcDbEntity
8
Geo
100
AcDbLine
10
-57.0348121623604
20
13.8397842278776
30
0.00000000000000
11
-57.0201454956937
21
13.8345496778616
31
0.00000000000000
  0
LINE
  5
F1064C
330
F1064D
100
AcDbEntity
8
Geo
100
AcDbLine
10
-57.0201454956937
20
13.8345496778616
30
0.00000000000000
11
-57.0054788290270
21
13.8293890896634
31
0.00000000000000
  0
LINE
  5
F1064E
330
F1064F
100
AcDbEntity
8
Geo
100
AcDbLine
10
-57.0054788290270
20
13.8293890896634
30
0.00000000000000
11
-56.9908121623603
21
13.8243031211132
31
0.00000000000000
  0
LINE
  5
F10650
330
F10651
100
AcDbEntity
8
Geo
100
AcDbLine
10
-56.9908121623603
20
13.8243031211132
30
0.00000000000000
11
-56.9761454956937
21
13.8192924205288
31
0.00000000000000
  0
LINE
  5
F10652
330
F10653
100
AcDbEntity
8
Geo
100
AcDbLine
10
-56.9761454956937
20
13.8192924205288
30
0.00000000000000
11
-56.9614788290270
21
13.8143576266338
31
0.00000000000000
  0
LINE
  5
F10654
330
F10655
100
AcDbEntity
8
Geo
100
AcDbLine
10
-56.9614788290270
20
13.8143576266338
30
0.00000000000000
11
-56.9468121623604
21
13.8094993684759
31
0.00000000000000
  0
LINE
  5
F10656
330
F10657
100
AcDbEntity
8
Geo
100
AcDbLine
10
-56.9468121623604
20
13.8094993684759
30
0.00000000000000
11
-56.9321454956937
21
13.8047182653462
31
0.00000000000000
  0
LINE
  5
F10658
330
F10659
100
AcDbEntity
8
Geo
100
AcDbLine
10
-56.9321454956937
20
13.8047182653462
30
0.00000000000000
11
-56.9174788290270
21
13.8000149267012
31
0.00000000000000
  0
LINE
  5
F1065A
330
F1065B
100
AcDbEntity
8
Geo
100
AcDbLine
10
-56.9174788290270
20
13.8000149267012
30
0.00000000000000
11
-56.9028121623603
21
13.7953899520844
31
0.00000000000000
  0
LINE
  5
F1065C
330
F1065D
100
AcDbEntity
8
Geo
100
AcDbLine
10
-56.9028121623603
20
13.7953899520844
30
0.00000000000000
11
-56.8881454956937
21
13.7908439310499
31
0.00000000000000
  0
LINE
  5
F1065E
330
F1065F
100
AcDbEntity
8
Geo
100
AcDbLine
10
-56.8881454956937
20
13.7908439310499
30
0.00000000000000
11
-56.8734788290270
21
13.7863774430879
31
0.00000000000000
  0
LINE
  5
F10660
330
F10661
100
AcDbEntity
8
Geo
100
AcDbLine
10
-56.8734788290270
20
13.7863774430879
30
0.00000000000000
11
-56.8588121623604
21
13.7819910575498
31
0.00000000000000
  0
LINE
  5
F10662
330
F10663
100
AcDbEntity
8
Geo
100
AcDbLine
10
-56.8588121623604
20
13.7819910575498
30
0.00000000000000
11
-56.8441454956937
21
13.7776853335767
31
0.00000000000000
  0
LINE
  5
F10664
330
F10665
100
AcDbEntity
8
Geo
100
AcDbLine
10
-56.8441454956937
20
13.7776853335767
30
0.00000000000000
11
-56.8294788290270
21
13.7734608200273
31
0.00000000000000
  0
LINE
  5
F10666
330
F10667
100
AcDbEntity
8
Geo
100
AcDbLine
10
-56.8294788290270
20
13.7734608200273
30
0.00000000000000
11
-56.8148121623603
21
13.7693180554084
31
0.00000000000000
  0
LINE
  5
F10668
330
F10669
100
AcDbEntity
8
Geo
100
AcDbLine
10
-56.8148121623603
20
13.7693180554084
30
0.00000000000000
11
-56.8001454956937
21
13.7652575678060
31
0.00000000000000
  0
LINE
  5
F1066A
330
F1066B
100
AcDbEntity
8
Geo
100
AcDbLine
10
-56.8001454956937
20
13.7652575678060
30
0.00000000000000
11
-56.7854788290270
21
13.7612798748182
31
0.00000000000000
  0
LINE
  5
F1066C
330
F1066D
100
AcDbEntity
8
Geo
100
AcDbLine
10
-56.7854788290270
20
13.7612798748182
30
0.00000000000000
11
-56.7708121623604
21
13.7573854834891
31
0.00000000000000
  0
LINE
  5
F1066E
330
F1066F
100
AcDbEntity
8
Geo
100
AcDbLine
10
-56.7708121623604
20
13.7573854834891
30
0.00000000000000
11
-56.7561454956937
21
13.7535748902442
31
0.00000000000000
  0
LINE
  5
F10670
330
F10671
100
AcDbEntity
8
Geo
100
AcDbLine
10
-56.7561454956937
20
13.7535748902442
30
0.00000000000000
11
-56.7414788290270
21
13.7498485808269
31
0.00000000000000
  0
LINE
  5
F10672
330
F10673
100
AcDbEntity
8
Geo
100
AcDbLine
10
-56.7414788290270
20
13.7498485808269
30
0.00000000000000
11
-56.7268121623603
21
13.7462070302370
31
0.00000000000000
  0
LINE
  5
F10674
330
F10675
100
AcDbEntity
8
Geo
100
AcDbLine
10
-56.7268121623603
20
13.7462070302370
30
0.00000000000000
11
-56.7121454956937
21
13.7426507026699
31
0.00000000000000
  0
LINE
  5
F10676
330
F10677
100
AcDbEntity
8
Geo
100
AcDbLine
10
-56.7121454956937
20
13.7426507026699
30
0.00000000000000
11
-56.6974788290270
21
13.7391800514573
31
0.00000000000000
  0
LINE
  5
F10678
330
F10679
100
AcDbEntity
8
Geo
100
AcDbLine
10
-56.6974788290270
20
13.7391800514573
30
0.00000000000000
11
-56.6828121623603
21
13.7357955190099
31
0.00000000000000
  0
LINE
  5
F1067A
330
F1067B
100
AcDbEntity
8
Geo
100
AcDbLine
10
-56.6828121623603
20
13.7357955190099
30
0.00000000000000
11
-56.6681454956937
21
13.7324975367603
31
0.00000000000000
  0
LINE
  5
F1067C
330
F1067D
100
AcDbEntity
8
Geo
100
AcDbLine
10
-56.6681454956937
20
13.7324975367603
30
0.00000000000000
11
-56.6534788290270
21
13.7292865251086
31
0.00000000000000
  0
LINE
  5
F1067E
330
F1067F
100
AcDbEntity
8
Geo
100
AcDbLine
10
-56.6534788290270
20
13.7292865251086
30
0.00000000000000
11
-56.6388121623603
21
13.7261628933685
31
0.00000000000000
  0
LINE
  5
F10680
330
F10681
100
AcDbEntity
8
Geo
100
AcDbLine
10
-56.6388121623603
20
13.7261628933685
30
0.00000000000000
11
-56.6241454956937
21
13.7231270397154
31
0.00000000000000
  0
LINE
  5
F10682
330
F10683
100
AcDbEntity
8
Geo
100
AcDbLine
10
-56.6241454956937
20
13.7231270397154
30
0.00000000000000
11
-56.6094788290270
21
13.7201793511352
31
0.00000000000000
  0
LINE
  5
F10684
330
F10685
100
AcDbEntity
8
Geo
100
AcDbLine
10
-56.6094788290270
20
13.7201793511352
30
0.00000000000000
11
-56.5948121623603
21
13.7173202033754
31
0.00000000000000
  0
LINE
  5
F10686
330
F10687
100
AcDbEntity
8
Geo
100
AcDbLine
10
-56.5948121623603
20
13.7173202033754
30
0.00000000000000
11
-56.5801454956937
21
13.7145499608970
31
0.00000000000000
  0
LINE
  5
F10688
330
F10689
100
AcDbEntity
8
Geo
100
AcDbLine
10
-56.5801454956937
20
13.7145499608970
30
0.00000000000000
11
-56.5654788290270
21
13.7118689768280
31
0.00000000000000
  0
LINE
  5
F1068A
330
F1068B
100
AcDbEntity
8
Geo
100
AcDbLine
10
-56.5654788290270
20
13.7118689768280
30
0.00000000000000
11
-56.5508121623603
21
13.7092775929186
31
0.00000000000000
  0
LINE
  5
F1068C
330
F1068D
100
AcDbEntity
8
Geo
100
AcDbLine
10
-56.5508121623603
20
13.7092775929186
30
0.00000000000000
11
-56.5361454956937
21
13.7067761394974
31
0.00000000000000
  0
LINE
  5
F1068E
330
F1068F
100
AcDbEntity
8
Geo
100
AcDbLine
10
-56.5361454956937
20
13.7067761394974
30
0.00000000000000
11
-56.5214788290270
21
13.7043649354294
31
0.00000000000000
  0
LINE
  5
F10690
330
F10691
100
AcDbEntity
8
Geo
100
AcDbLine
10
-56.5214788290270
20
13.7043649354294
30
0.00000000000000
11
-56.5068121623603
21
13.7020442880753
31
0.00000000000000
  0
LINE
  5
F10692
330
F10693
100
AcDbEntity
8
Geo
100
AcDbLine
10
-56.5068121623603
20
13.7020442880753
30
0.00000000000000
11
-56.4921454956937
21
13.6998144932526
31
0.00000000000000
  0
LINE
  5
F10694
330
F10695
100
AcDbEntity
8
Geo
100
AcDbLine
10
-56.4921454956937
20
13.6998144932526
30
0.00000000000000
11
-56.4774788290270
21
13.6976758351973
31
0.00000000000000
  0
LINE
  5
F10696
330
F10697
100
AcDbEntity
8
Geo
100
AcDbLine
10
-56.4774788290270
20
13.6976758351973
30
0.00000000000000
11
-56.4628121623603
21
13.6956285865282
31
0.00000000000000
  0
LINE
  5
F10698
330
F10699
100
AcDbEntity
8
Geo
100
AcDbLine
10
-56.4628121623603
20
13.6956285865282
30
0.00000000000000
11
-56.4481454956937
21
13.6936730082121
31
0.00000000000000
  0
LINE
  5
F1069A
330
F1069B
100
AcDbEntity
8
Geo
100
AcDbLine
10
-56.4481454956937
20
13.6936730082121
30
0.00000000000000
11
-56.4334788290270
21
13.6918093495302
31
0.00000000000000
  0
LINE
  5
F1069C
330
F1069D
100
AcDbEntity
8
Geo
100
AcDbLine
10
-56.4334788290270
20
13.6918093495302
30
0.00000000000000
11
-56.4188121623603
21
13.6900378480466
31
0.00000000000000
  0
LINE
  5
F1069E
330
F1069F
100
AcDbEntity
8
Geo
100
AcDbLine
10
-56.4188121623603
20
13.6900378480466
30
0.00000000000000
11
-56.4041454956937
21
13.6883587295779
31
0.00000000000000
  0
LINE
  5
F106A0
330
F106A1
100
AcDbEntity
8
Geo
100
AcDbLine
10
-56.4041454956937
20
13.6883587295779
30
0.00000000000000
11
-56.3894788290270
21
13.6867722081647
31
0.00000000000000
  0
LINE
  5
F106A2
330
F106A3
100
AcDbEntity
8
Geo
100
AcDbLine
10
-56.3894788290270
20
13.6867722081647
30
0.00000000000000
11
-56.3748121623603
21
13.6852784860437
31
0.00000000000000
  0
LINE
  5
F106A4
330
F106A5
100
AcDbEntity
8
Geo
100
AcDbLine
10
-56.3748121623603
20
13.6852784860437
30
0.00000000000000
11
-56.3601454956937
21
13.6838777536226
31
0.00000000000000
  0
LINE
  5
F106A6
330
F106A7
100
AcDbEntity
8
Geo
100
AcDbLine
10
-56.3601454956937
20
13.6838777536226
30
0.00000000000000
11
-56.3454788290270
21
13.6825701894554
31
0.00000000000000
  0
LINE
  5
F106A8
330
F106A9
100
AcDbEntity
8
Geo
100
AcDbLine
10
-56.3454788290270
20
13.6825701894554
30
0.00000000000000
11
-56.3308121623603
21
13.6813559602197
31
0.00000000000000
  0
LINE
  5
F106AA
330
F106AB
100
AcDbEntity
8
Geo
100
AcDbLine
10
-56.3308121623603
20
13.6813559602197
30
0.00000000000000
11
-56.3161454956937
21
13.6802352206958
31
0.00000000000000
  0
LINE
  5
F106AC
330
F106AD
100
AcDbEntity
8
Geo
100
AcDbLine
10
-56.3161454956937
20
13.6802352206958
30
0.00000000000000
11
-56.3014788290270
21
13.6792081137463
31
0.00000000000000
  0
LINE
  5
F106AE
330
F106AF
100
AcDbEntity
8
Geo
100
AcDbLine
10
-56.3014788290270
20
13.6792081137463
30
0.00000000000000
11
-56.2868121623603
21
13.6782747702985
31
0.00000000000000
  0
LINE
  5
F106B0
330
F106B1
100
AcDbEntity
8
Geo
100
AcDbLine
10
-56.2868121623603
20
13.6782747702985
30
0.00000000000000
11
-56.2721454956937
21
13.6774353093276
31
0.00000000000000
  0
LINE
  5
F106B2
330
F106B3
100
AcDbEntity
8
Geo
100
AcDbLine
10
-56.2721454956937
20
13.6774353093276
30
0.00000000000000
11
-56.2574788290270
21
13.6766898378411
31
0.00000000000000
  0
LINE
  5
F106B4
330
F106B5
100
AcDbEntity
8
Geo
100
AcDbLine
10
-56.2574788290270
20
13.6766898378411
30
0.00000000000000
11
-56.2428121623603
21
13.6760384508658
31
0.00000000000000
  0
LINE
  5
F106B6
330
F106B7
100
AcDbEntity
8
Geo
100
AcDbLine
10
-56.2428121623603
20
13.6760384508658
30
0.00000000000000
11
-56.2281454956937
21
13.6754812314352
31
0.00000000000000
  0
LINE
  5
F106B8
330
F106B9
100
AcDbEntity
8
Geo
100
AcDbLine
10
-56.2281454956937
20
13.6754812314352
30
0.00000000000000
11
-56.2134788290270
21
13.6750182505790
31
0.00000000000000
  0
LINE
  5
F106BA
330
F106BB
100
AcDbEntity
8
Geo
100
AcDbLine
10
-56.2134788290270
20
13.6750182505790
30
0.00000000000000
11
-56.1988121623603
21
13.6746495673144
31
0.00000000000000
  0
LINE
  5
F106BC
330
F106BD
100
AcDbEntity
8
Geo
100
AcDbLine
10
-56.1988121623603
20
13.6746495673144
30
0.00000000000000
11
-56.1841454956937
21
13.6743752286381
31
0.00000000000000
  0
LINE
  5
F106BE
330
F106BF
100
AcDbEntity
8
Geo
100
AcDbLine
10
-56.1841454956937
20
13.6743752286381
30
0.00000000000000
11
-56.1694788290270
21
13.6741952695206
31
0.00000000000000
  0
LINE
  5
F106C0
330
F106C1
100
AcDbEntity
8
Geo
100
AcDbLine
10
-56.1694788290270
20
13.6741952695206
30
0.00000000000000
11
-56.1548121623603
21
13.6741097129016
31
0.00000000000000
  0
LINE
  5
F106C2
330
F106C3
100
AcDbEntity
8
Geo
100
AcDbLine
10
-56.1548121623603
20
13.6741097129016
30
0.00000000000000
11
-56.1488546522923
21
13.6647702573303
31
0.00000000000000
  0
LINE
  5
F106C4
330
F106C5
100
AcDbEntity
8
Geo
100
AcDbLine
10
-10.1001454956937
20
15.8147702573303
30
0.00000000000000
11
-10.1001454956937
21
14.4147702573303
31
0.00000000000000
  0
ARC
  5
F106C6
330
F106C7
100
AcDbEntity
8
Geo
100
AcDbCircle
10
-59.3501454956937
20
14.4147702573303
30
0.00000000000000
 40
0.750000000000000
100
AcDbArc
 50
180.000000000000
 51
270.000000000000
  0
LINE
  5
F106C8
330
F106C9
100
AcDbEntity
8
Geo
100
AcDbLine
10
-59.3501454956937
20
13.6647702573303
30
0.00000000000000
11
-56.1001454956937
21
13.6647702573303
31
0.00000000000000
  0
LINE
  5
F106CA
330
F106CB
100
AcDbEntity
8
Geo
100
AcDbLine
10
-56.1001454956937
20
13.6647702573303
30
0.00000000000000
11
-56.0992090051548
21
13.6647702573303
31
0.00000000000000
  0
LINE
  5
F106CC
330
F106CD
100
AcDbEntity
8
Geo
100
AcDbLine
10
-56.0992090051548
20
13.6647702573303
30
0.00000000000000
11
-51.4341454956937
21
12.4147702573303
31
0.00000000000000
  0
LINE
  5
F106CE
330
F106CF
100
AcDbEntity
8
Geo
100
AcDbLine
10
-51.4341454956937
20
12.4147702573303
30
0.00000000000000
11
-10.7001454956937
21
12.4147702573303
31
0.00000000000000
  0
LINE
  5
F106D0
330
F106D1
100
AcDbEntity
8
Geo
100
AcDbLine
10
-10.7001454956937
20
12.4147702573303
30
0.00000000000000
11
-10.1001454956937
21
13.0147702573303
31
0.00000000000000
  0
LINE
  5
F106D2
330
F106D3
100
AcDbEntity
8
Geo
100
AcDbLine
10
-59.3501454956937
20
15.1647702573303
30
0.00000000000000
11
-59.3501454956937
21
13.6647702573303
31
0.00000000000000
  0
LINE
  5
F106D4
330
F106D5
100
AcDbEntity
8
Geo
100
AcDbLine
10
-56.1001454956937
20
15.1647702573303
30
0.00000000000000
11
-56.1001454956937
21
13.6647702573303
31
0.00000000000000
  0
LINE
  5
F106D6
330
F106D7
100
AcDbEntity
8
Geo
100
AcDbLine
10
-56.1001454956937
20
15.1647702573303
30
0.00000000000000
11
-56.1001454956937
21
13.6647702573303
31
0.00000000000000
  0
LINE
  5
F106D8
330
F106D9
100
AcDbEntity
8
Geo
100
AcDbLine
10
-56.0992090051548
20
15.1647702573303
30
0.00000000000000
11
-56.0992090051548
21
13.6647702573303
31
0.00000000000000
  0
LINE
  5
F106DA
330
F106DB
100
AcDbEntity
8
Geo
100
AcDbLine
10
-51.4341454956937
20
16.4147702573303
30
0.00000000000000
11
-51.4341454956937
21
12.4147702573303
31
0.00000000000000
  0
LINE
  5
F106DC
330
F106DD
100
AcDbEntity
8
Geo
100
AcDbLine
10
-51.4341454956937
20
16.4147702573303
30
0.00000000000000
11
-51.4341454956937
21
12.4147702573303
31
0.00000000000000
  0
LINE
  5
F106DE
330
F106DF
100
AcDbEntity
8
Geo
100
AcDbLine
10
-10.7001454956937
20
16.4147702573303
30
0.00000000000000
11
-10.7001454956937
21
12.4147702573303
31
0.00000000000000
  0
LINE
  5
F106E0
330
F106E1
100
AcDbEntity
8
Geo
100
AcDbLine
10
-10.1001454956937
20
15.8147702573303
30
0.00000000000000
11
-10.1001454956937
21
13.0147702573303
31
0.00000000000000
  0
LINE
  5
F106E2
330
F106E3
100
AcDbEntity
8
Geo
 6
Dashdot
100
AcDbLine
10
-60.1001454956937
20
14.4147702573303
30
0.00000000000000
11
-10.1001454956937
21
14.4147702573303
31
0.00000000000000
0
VIEWPORT
5
294
102
{ACAD_XDICTIONARY
360
58A
102
}
330
25D
100
AcDbEntity
67
1
8
0
60
1
100
AcDbViewport
10
0.0
20
0.0
30
0.0
40
10.0
41
10.0
68
-1
69
1
12
0.0
22
0.0
13
0.0
23
0.0
14
1.0
24
1.0
15
0.0
25
0.0
16
0.0
26
0.0
36
1.0
17
0.0
27
0.0
37
0.0
42
0.0
43
0.0
44
0.0
45
10.0
50
0.0
51
0.0000000000007958
72
100
90
32800
1

281
0
71
0
74
0
110
0.0
120
0.0
130
0.0
111
1.0
121
0.0
131
0.0
112
0.0
122
1.0
132
0.0
79
0
146
0.0
1001
VD_INVISIBLE_NOT_FOR_READ
1000
VD_INVISIBLE_NOT_FOR_READ
0
VIEWPORT
5
295
102
{ACAD_XDICTIONARY
360
58C
102
}
330
25D
100
AcDbEntity
67
1
8
0
60
1
100
AcDbViewport
10
0.0
20
0.0
30
0.0
40
10.0
41
10.0
68
0
69
2
12
0.0
22
0.0
13
0.0
23
0.0
14
1.0
24
1.0
15
0.0
25
0.0
16
0.0
26
0.0
36
1.0
17
0.0
27
0.0
37
0.0
42
0.0
43
0.0
44
0.0
45
10.0
50
0.0
51
0.0000000000007958
72
100
90
163872
1

281
0
71
0
74
0
110
0.0
120
0.0
130
0.0
111
1.0
121
0.0
131
0.0
112
0.0
122
1.0
132
0.0
79
0
146
0.0
1001
VD_INVISIBLE_NOT_FOR_READ
1000
VD_INVISIBLE_NOT_FOR_READ
0
ENDSEC
0
SECTION
2
OBJECTS
0
DICTIONARY
5
13
330
0
100
AcDbDictionary
281
1
3
ACAD_COLOR
350
FA7
3
ACAD_GROUP
350
14
3
ACAD_LAYOUT
350
FCF
3
ACAD_MATERIAL
350
F7A
3
ACAD_MLEADERSTYLE
350
FCD
3
ACAD_MLINESTYLE
350
16
3
ACAD_PLOTSETTINGS
350
17
3
ACAD_PLOTSTYLENAME
350
18
3
ACAD_SCALELIST
350
FAB
3
ACAD_TABLESTYLE
350
FA8
3
ACAD_VISUALSTYLE
350
F93
3
ACDB_RECOMPOSE_DATA
350
107E
3
AcDbVariableDictionary
350
FF0
3
DWGPROPS
350
107F
0
DICTIONARY
5
FA7
102
{ACAD_REACTORS
330
13
102
}
330
13
100
AcDbDictionary
281
1
0
DICTIONARY
5
14
330
13
100
AcDbDictionary
281
1
0
DICTIONARY
5
FCF
102
{ACAD_REACTORS
330
13
102
}
330
13
100
AcDbDictionary
281
1
3
Layout1
350
FD1
3
Model
350
FD0
0
DICTIONARY
5
F7A
102
{ACAD_REACTORS
330
13
102
}
330
13
100
AcDbDictionary
281
1
3
ByBlock
350
F83
3
ByLayer
350
F7B
3
Global
350
F8B
0
DICTIONARY
5
FCD
102
{ACAD_REACTORS
330
13
102
}
330
13
100
AcDbDictionary
281
1
3
Standard
350
FCE
0
DICTIONARY
5
16
330
13
100
AcDbDictionary
281
1
3
Standard
350
FAA
0
DICTIONARY
5
17
102
{ACAD_REACTORS
330
13
102
}
330
13
100
AcDbDictionary
281
1
0
ACDBDICTIONARYWDFLT
5
18
102
{ACAD_REACTORS
330
13
102
}
330
13
100
AcDbDictionary
281
1
3
Normal
350
19
100
AcDbDictionaryWithDefault
340
19
0
DICTIONARY
5
FAB
102
{ACAD_REACTORS
330
13
102
}
330
13
100
AcDbDictionary
281
1
3
A0
350
FAC
3
A1
350
FAD
3
A2
350
FAE
3
A3
350
FAF
3
A4
350
FB0
3
A5
350
FB1
3
A6
350
FB2
3
A7
350
FB3
3
A8
350
FB4
3
A9
350
FB5
3
B0
350
FB6
3
B1
350
FB7
3
B2
350
FB8
3
B3
350
FB9
3
B4
350
FBA
3
B5
350
FBB
3
B6
350
FBC
3
B7
350
FBD
3
B8
350
FBE
3
B9
350
FBF
3
C0
350
FC0
3
C1
350
FC1
3
C2
350
FC2
3
C3
350
FC3
3
C4
350
FC4
3
C5
350
FC5
3
C6
350
FC6
3
C7
350
FC7
3
C8
350
FC8
3
C9
350
FC9
3
D0
350
FCA
3
D1
350
FCB
3
D2
350
FCC
0
DICTIONARY
5
FA8
102
{ACAD_REACTORS
330
13
102
}
330
13
100
AcDbDictionary
281
1
3
Standard
350
FA9
0
DICTIONARY
5
F93
102
{ACAD_REACTORS
330
13
102
}
330
13
100
AcDbDictionary
281
1
3
2dWireframe
350
F99
3
3D Hidden
350
F9B
3
3dWireframe
350
F9A
3
Basic
350
F98
3
Brighten
350
F9F
3
ColorChange
350
FA3
3
Conceptual
350
F9C
3
Dim
350
F9E
3
EdgeColorOff
350
FA6
3
Facepattern
350
FA2
3
Flat
350
F94
3
FlatWithEdges
350
F95
3
Gouraud
350
F96
3
GouraudWithEdges
350
F97
3
JitterOff
350
FA4
3
Linepattern
350
FA1
3
OverhangOff
350
FA5
3
Realistic
350
F9D
3
Thicken
350
FA0
0
XRECORD
5
107E
102
{ACAD_REACTORS
330
13
102
}
330
13
100
AcDbXrecord
280
1
90
1
330
FA9
0
DICTIONARY
5
FF0
102
{ACAD_REACTORS
330
13
102
}
330
13
100
AcDbDictionary
281
1
3
CANNOSCALE
350
FF3
3
CMLEADERSTYLE
350
FF2
3
CTABLESTYLE
350
FF1
3
DIMASSOC
350
FF6
3
INDEXCTL
350
FF5
3
SORTENTS
350
FF4
3
XCLIPFRAME
350
1078
0
XRECORD
5
107F
102
{ACAD_REACTORS
330
13
102
}
330
13
100
AcDbXrecord
280
1
1
DWGPROPS COOKIE
2

3

4

6

7

8

9

300
=
301
=
302
=
303
=
304
=
305
=
306
=
307
=
308
=
309
=
40
0.0
41
0.0
42
0.0
1

90
0
0
LAYOUT
5
FD1
102
{ACAD_XDICTIONARY
360
10A9
102
}
102
{ACAD_REACTORS
330
FCF
102
}
330
FCF
100
AcDbPlotSettings
1

2
Microsoft XPS Document Writer
4

6

40
0.0
41
0.0
42
0.0
43
0.0
44
0.0
45
0.0
46
0.0
47
0.0
48
0.0
49
0.0
140
0.0
141
0.0
142
1.0
143
1.0
70
688
72
0
73
0
74
5
7

75
16
147
1.0
148
0.0
149
0.0
100
AcDbLayout
1
Layout1
70
1
71
1
10
0.0
20
0.0
11
12.0
21
9.0
12
0.0
22
0.0
32
0.0
14
1.000000000000000E+20
24
1.000000000000000E+20
34
1.000000000000000E+20
15
-1.000000000000000E+20
25
-1.000000000000000E+20
35
-1.000000000000000E+20
146
0.0
13
0.0
23
0.0
33
0.0
16
1.0
26
0.0
36
0.0
17
0.0
27
1.0
37
0.0
76
0
330
25D
0
LAYOUT
5
FD0
102
{ACAD_XDICTIONARY
360
10A7
102
}
102
{ACAD_REACTORS
330
FCF
102
}
330
FCF
100
AcDbPlotSettings
1

2
Microsoft XPS Document Writer
4

6

40
0.0
41
0.0
42
0.0
43
0.0
44
0.0
45
0.0
46
0.0
47
0.0
48
0.0
49
0.0
140
0.0
141
0.0
142
1.0
143
1.0
70
1712
72
0
73
0
74
0
7

75
0
147
1.0
148
0.0
149
0.0
100
AcDbLayout
1
Model
70
1
71
0
10
0.0
20
0.0
11
12.0
21
9.0
12
0.0
22
0.0
32
0.0
14
0.0
24
0.0
34
0.0
15
0.0
25
0.0
35
0.0
146
0.0
13
0.0
23
0.0
33
0.0
16
1.0
26
0.0
36
0.0
17
0.0
27
1.0
37
0.0
76
0
330
261
331
26B
0
MATERIAL
5
F83
102
{ACAD_XDICTIONARY
360
F84
102
}
102
{ACAD_REACTORS
330
F7A
102
}
330
F7A
100
AcDbMaterial
1
ByBlock
72
0
43
0.0208333333333333
43
0.0
43
0.0
43
0.0
43
0.0
43
0.0208333333333333
43
0.0
43
0.0
43
0.0
43
0.0
43
1.0
43
0.0
43
0.0
43
0.0
43
0.0
43
1.0
77
0
47
0.0208333333333333
47
0.0
47
0.0
47
0.0
47
0.0
47
0.0208333333333333
47
0.0
47
0.0
47
0.0
47
0.0
47
1.0
47
0.0
47
0.0
47
0.0
47
0.0
47
1.0
171
0
49
0.0208333333333333
49
0.0
49
0.0
49
0.0
49
0.0
49
0.0208333333333333
49
0.0
49
0.0
49
0.0
49
0.0
49
1.0
49
0.0
49
0.0
49
0.0
49
0.0
49
1.0
175
0
142
0.0208333333333333
142
0.0
142
0.0
142
0.0
142
0.0
142
0.0208333333333333
142
0.0
142
0.0
142
0.0
142
0.0
142
1.0
142
0.0
142
0.0
142
0.0
142
0.0
142
1.0
179
0
144
0.0208333333333333
144
0.0
144
0.0
144
0.0
144
0.0
144
0.0208333333333333
144
0.0
144
0.0
144
0.0
144
0.0
144
1.0
144
0.0
144
0.0
144
0.0
144
0.0
144
1.0
147
0.0208333333333333
147
0.0
147
0.0
147
0.0
147
0.0
147
0.0208333333333333
147
0.0
147
0.0
147
0.0
147
0.0
147
1.0
147
0.0
147
0.0
147
0.0
147
0.0
147
1.0
0
MATERIAL
5
F7B
102
{ACAD_XDICTIONARY
360
F7C
102
}
102
{ACAD_REACTORS
330
F7A
102
}
330
F7A
100
AcDbMaterial
1
ByLayer
72
0
43
0.0208333333333333
43
0.0
43
0.0
43
0.0
43
0.0
43
0.0208333333333333
43
0.0
43
0.0
43
0.0
43
0.0
43
1.0
43
0.0
43
0.0
43
0.0
43
0.0
43
1.0
77
0
47
0.0208333333333333
47
0.0
47
0.0
47
0.0
47
0.0
47
0.0208333333333333
47
0.0
47
0.0
47
0.0
47
0.0
47
1.0
47
0.0
47
0.0
47
0.0
47
0.0
47
1.0
171
0
49
0.0208333333333333
49
0.0
49
0.0
49
0.0
49
0.0
49
0.0208333333333333
49
0.0
49
0.0
49
0.0
49
0.0
49
1.0
49
0.0
49
0.0
49
0.0
49
0.0
49
1.0
175
0
142
0.0208333333333333
142
0.0
142
0.0
142
0.0
142
0.0
142
0.0208333333333333
142
0.0
142
0.0
142
0.0
142
0.0
142
1.0
142
0.0
142
0.0
142
0.0
142
0.0
142
1.0
179
0
144
0.0208333333333333
144
0.0
144
0.0
144
0.0
144
0.0
144
0.0208333333333333
144
0.0
144
0.0
144
0.0
144
0.0
144
1.0
144
0.0
144
0.0
144
0.0
144
0.0
144
1.0
147
0.0208333333333333
147
0.0
147
0.0
147
0.0
147
0.0
147
0.0208333333333333
147
0.0
147
0.0
147
0.0
147
0.0
147
1.0
147
0.0
147
0.0
147
0.0
147
0.0
147
1.0
0
MATERIAL
5
F8B
102
{ACAD_XDICTIONARY
360
F8C
102
}
102
{ACAD_REACTORS
330
F7A
102
}
330
F7A
100
AcDbMaterial
1
Global
72
0
43
0.0208333333333333
43
0.0
43
0.0
43
0.0
43
0.0
43
0.0208333333333333
43
0.0
43
0.0
43
0.0
43
0.0
43
1.0
43
0.0
43
0.0
43
0.0
43
0.0
43
1.0
77
0
47
0.0208333333333333
47
0.0
47
0.0
47
0.0
47
0.0
47
0.0208333333333333
47
0.0
47
0.0
47
0.0
47
0.0
47
1.0
47
0.0
47
0.0
47
0.0
47
0.0
47
1.0
171
0
49
0.0208333333333333
49
0.0
49
0.0
49
0.0
49
0.0
49
0.0208333333333333
49
0.0
49
0.0
49
0.0
49
0.0
49
1.0
49
0.0
49
0.0
49
0.0
49
0.0
49
1.0
175
0
142
0.0208333333333333
142
0.0
142
0.0
142
0.0
142
0.0
142
0.0208333333333333
142
0.0
142
0.0
142
0.0
142
0.0
142
1.0
142
0.0
142
0.0
142
0.0
142
0.0
142
1.0
179
0
144
0.0208333333333333
144
0.0
144
0.0
144
0.0
144
0.0
144
0.0208333333333333
144
0.0
144
0.0
144
0.0
144
0.0
144
1.0
144
0.0
144
0.0
144
0.0
144
0.0
144
1.0
147
0.0208333333333333
147
0.0
147
0.0
147
0.0
147
0.0
147
0.0208333333333333
147
0.0
147
0.0
147
0.0
147
0.0
147
1.0
147
0.0
147
0.0
147
0.0
147
0.0
147
1.0
0
MLEADERSTYLE
5
FCE
102
{ACAD_REACTORS
330
FCD
102
}
330
FCD
100
AcDbMLeaderStyle
170
2
171
1
172
0
90
2
40
0.0
41
0.0
173
1
91
-1056964608
340
256
92
-2
290
1
42
0.09
291
1
43
0.36
3
Standard
44
0.18
300

342
253
174
1
178
6
175
1
176
0
93
-1056964608
45
0.18
292
0
297
0
46
0.18
94
-1056964608
47
1.0
49
1.0
140
1.0
293
1
141
0.0
294
1
177
0
142
1.0
295
0
296
0
143
0.125
1001
ACAD_MLEADERVER
1070
2
0
MLINESTYLE
5
FAA
102
{ACAD_REACTORS
330
16
102
}
330
16
100
AcDbMlineStyle
2
STANDARD
70
0
3

62
256
51
90.0
52
90.0
71
2
49
0.5
62
256
6
BYLAYER
49
-0.5
62
256
6
BYLAYER
0
ACDBPLACEHOLDER
5
19
102
{ACAD_REACTORS
330
18
102
}
330
18
0
SCALE
5
FAC
102
{ACAD_REACTORS
330
FAB
102
}
330
FAB
100
AcDbScale
70
0
300
1:1
140
1.0
141
1.0
290
1
0
SCALE
5
FAD
102
{ACAD_REACTORS
330
FAB
102
}
330
FAB
100
AcDbScale
70
0
300
1:2
140
1.0
141
2.0
290
0
0
SCALE
5
FAE
102
{ACAD_REACTORS
330
FAB
102
}
330
FAB
100
AcDbScale
70
0
300
1:4
140
1.0
141
4.0
290
0
0
SCALE
5
FAF
102
{ACAD_REACTORS
330
FAB
102
}
330
FAB
100
AcDbScale
70
0
300
1:5
140
1.0
141
5.0
290
0
0
SCALE
5
FB0
102
{ACAD_REACTORS
330
FAB
102
}
330
FAB
100
AcDbScale
70
0
300
1:8
140
1.0
141
8.0
290
0
0
SCALE
5
FB1
102
{ACAD_REACTORS
330
FAB
102
}
330
FAB
100
AcDbScale
70
0
300
1:10
140
1.0
141
10.0
290
0
0
SCALE
5
FB2
102
{ACAD_REACTORS
330
FAB
102
}
330
FAB
100
AcDbScale
70
0
300
1:16
140
1.0
141
16.0
290
0
0
SCALE
5
FB3
102
{ACAD_REACTORS
330
FAB
102
}
330
FAB
100
AcDbScale
70
0
300
1:20
140
1.0
141
20.0
290
0
0
SCALE
5
FB4
102
{ACAD_REACTORS
330
FAB
102
}
330
FAB
100
AcDbScale
70
0
300
1:30
140
1.0
141
30.0
290
0
0
SCALE
5
FB5
102
{ACAD_REACTORS
330
FAB
102
}
330
FAB
100
AcDbScale
70
0
300
1:40
140
1.0
141
40.0
290
0
0
SCALE
5
FB6
102
{ACAD_REACTORS
330
FAB
102
}
330
FAB
100
AcDbScale
70
0
300
1:50
140
1.0
141
50.0
290
0
0
SCALE
5
FB7
102
{ACAD_REACTORS
330
FAB
102
}
330
FAB
100
AcDbScale
70
0
300
1:100
140
1.0
141
100.0
290
0
0
SCALE
5
FB8
102
{ACAD_REACTORS
330
FAB
102
}
330
FAB
100
AcDbScale
70
0
300
2:1
140
2.0
141
1.0
290
0
0
SCALE
5
FB9
102
{ACAD_REACTORS
330
FAB
102
}
330
FAB
100
AcDbScale
70
0
300
4:1
140
4.0
141
1.0
290
0
0
SCALE
5
FBA
102
{ACAD_REACTORS
330
FAB
102
}
330
FAB
100
AcDbScale
70
0
300
8:1
140
8.0
141
1.0
290
0
0
SCALE
5
FBB
102
{ACAD_REACTORS
330
FAB
102
}
330
FAB
100
AcDbScale
70
0
300
10:1
140
10.0
141
1.0
290
0
0
SCALE
5
FBC
102
{ACAD_REACTORS
330
FAB
102
}
330
FAB
100
AcDbScale
70
0
300
100:1
140
100.0
141
1.0
290
0
0
SCALE
5
FBD
102
{ACAD_REACTORS
330
FAB
102
}
330
FAB
100
AcDbScale
70
0
300
1/128" = 1'-0"
140
0.0078125
141
12.0
290
0
0
SCALE
5
FBE
102
{ACAD_REACTORS
330
FAB
102
}
330
FAB
100
AcDbScale
70
0
300
1/64" = 1'-0"
140
0.015625
141
12.0
290
0
0
SCALE
5
FBF
102
{ACAD_REACTORS
330
FAB
102
}
330
FAB
100
AcDbScale
70
0
300
1/32" = 1'-0"
140
0.03125
141
12.0
290
0
0
SCALE
5
FC0
102
{ACAD_REACTORS
330
FAB
102
}
330
FAB
100
AcDbScale
70
0
300
1/16" = 1'-0"
140
0.0625
141
12.0
290
0
0
SCALE
5
FC1
102
{ACAD_REACTORS
330
FAB
102
}
330
FAB
100
AcDbScale
70
0
300
3/32" = 1'-0"
140
0.09375
141
12.0
290
0
0
SCALE
5
FC2
102
{ACAD_REACTORS
330
FAB
102
}
330
FAB
100
AcDbScale
70
0
300
1/8" = 1'-0"
140
0.125
141
12.0
290
0
0
SCALE
5
FC3
102
{ACAD_REACTORS
330
FAB
102
}
330
FAB
100
AcDbScale
70
0
300
3/16" = 1'-0"
140
0.1875
141
12.0
290
0
0
SCALE
5
FC4
102
{ACAD_REACTORS
330
FAB
102
}
330
FAB
100
AcDbScale
70
0
300
1/4" = 1'-0"
140
0.25
141
12.0
290
0
0
SCALE
5
FC5
102
{ACAD_REACTORS
330
FAB
102
}
330
FAB
100
AcDbScale
70
0
300
3/8" = 1'-0"
140
0.375
141
12.0
290
0
0
SCALE
5
FC6
102
{ACAD_REACTORS
330
FAB
102
}
330
FAB
100
AcDbScale
70
0
300
1/2" = 1'-0"
140
0.5
141
12.0
290
0
0
SCALE
5
FC7
102
{ACAD_REACTORS
330
FAB
102
}
330
FAB
100
AcDbScale
70
0
300
3/4" = 1'-0"
140
0.75
141
12.0
290
0
0
SCALE
5
FC8
102
{ACAD_REACTORS
330
FAB
102
}
330
FAB
100
AcDbScale
70
0
300
1" = 1'-0"
140
1.0
141
12.0
290
0
0
SCALE
5
FC9
102
{ACAD_REACTORS
330
FAB
102
}
330
FAB
100
AcDbScale
70
0
300
1-1/2" = 1'-0"
140
1.5
141
12.0
290
0
0
SCALE
5
FCA
102
{ACAD_REACTORS
330
FAB
102
}
330
FAB
100
AcDbScale
70
0
300
3" = 1'-0"
140
3.0
141
12.0
290
0
0
SCALE
5
FCB
102
{ACAD_REACTORS
330
FAB
102
}
330
FAB
100
AcDbScale
70
0
300
6" = 1'-0"
140
6.0
141
12.0
290
0
0
SCALE
5
FCC
102
{ACAD_REACTORS
330
FAB
102
}
330
FAB
100
AcDbScale
70
0
300
1'-0" = 1'-0"
140
12.0
141
12.0
290
0
0
TABLESTYLE
5
FA9
102
{ACAD_XDICTIONARY
360
FF8
102
}
102
{ACAD_REACTORS
330
FA8
102
}
330
FA8
100
AcDbTableStyle
3
Standard
70
0
71
0
40
0.06
41
0.06
280
0
281
0
7
Standard
140
0.18
170
2
62
0
63
7
283
0
274
-2
284
1
64
0
275
-2
285
1
65
0
276
-2
286
1
66
0
277
-2
287
1
67
0
278
-2
288
1
68
0
279
-2
289
1
69
0
7
Standard
140
0.25
170
5
62
0
63
7
283
0
274
-2
284
1
64
0
275
-2
285
1
65
0
276
-2
286
1
66
0
277
-2
287
1
67
0
278
-2
288
1
68
0
279
-2
289
1
69
0
7
Standard
140
0.18
170
5
62
0
63
7
283
0
274
-2
284
1
64
0
275
-2
285
1
65
0
276
-2
286
1
66
0
277
-2
287
1
67
0
278
-2
288
1
68
0
279
-2
289
1
69
0
0
VISUALSTYLE
5
F99
102
{ACAD_XDICTIONARY
360
108A
102
}
102
{ACAD_REACTORS
330
F93
102
}
330
F93
100
AcDbVisualStyle
2

70
4
71
0
72
2
73
0
90
0
40
-0.6
41
-30.0
62
5
63
7
74
1
91
4
64
7
65
257
75
1
175
1
42
1.0
92
0
66
257
43
1.0
76
1
77
6
78
2
67
7
79
5
170
0
171
0
290
0
174
0
93
1
44
0.0
173
0
291
0
45
0.0
1001
ACAD
1000
AcDbSavedByObjectVersion
1070
0
0
VISUALSTYLE
5
F9B
102
{ACAD_XDICTIONARY
360
108E
102
}
102
{ACAD_REACTORS
330
F93
102
}
330
F93
100
AcDbVisualStyle
2

70
6
71
1
72
2
73
2
90
0
40
-0.6
41
-30.0
62
5
63
7
74
2
91
2
64
7
65
257
75
2
175
1
42
179.0
92
0
66
257
43
1.0
76
1
77
6
78
2
67
7
79
3
170
0
171
0
290
0
174
0
93
1
44
0.0
173
0
291
0
45
0.0
1001
ACAD
1000
AcDbSavedByObjectVersion
1070
0
0
VISUALSTYLE
5
F9A
102
{ACAD_XDICTIONARY
360
108C
102
}
102
{ACAD_REACTORS
330
F93
102
}
330
F93
100
AcDbVisualStyle
2

70
5
71
0
72
2
73
0
90
0
40
-0.6
41
-30.0
62
5
63
7
74
1
91
4
64
7
65
257
75
1
175
1
42
1.0
92
0
66
257
43
1.0
76
1
77
6
78
2
67
7
79
5
170
0
171
0
290
0
174
0
93
1
44
0.0
173
0
291
0
45
0.0
1001
ACAD
1000
AcDbSavedByObjectVersion
1070
0
0
VISUALSTYLE
5
F98
102
{ACAD_XDICTIONARY
360
1088
102
}
102
{ACAD_REACTORS
330
F93
102
}
330
F93
100
AcDbVisualStyle
2

70
7
71
1
72
0
73
1
90
0
40
-0.6
41
-30.0
62
5
63
7
74
0
91
4
64
7
65
257
75
1
175
1
42
1.0
92
8
66
7
43
1.0
76
1
77
6
78
2
67
7
79
5
170
0
171
0
290
0
174
0
93
1
44
0.0
173
0
291
1
45
0.0
1001
ACAD
1000
AcDbSavedByObjectVersion
1070
0
0
VISUALSTYLE
5
F9F
102
{ACAD_XDICTIONARY
360
1096
102
}
102
{ACAD_REACTORS
330
F93
102
}
330
F93
100
AcDbVisualStyle
2

70
12
71
2
72
2
73
0
90
0
40
-0.6
41
-30.0
62
5
63
7
74
1
91
4
64
7
65
257
75
1
175
1
42
1.0
92
8
66
7
43
1.0
76
1
77
6
78
2
67
7
79
5
170
0
171
0
290
0
174
0
93
1
44
50.0
173
0
291
1
45
0.0
1001
ACAD
1000
AcDbSavedByObjectVersion
1070
0
0
VISUALSTYLE
5
FA3
102
{ACAD_XDICTIONARY
360
109E
102
}
102
{ACAD_REACTORS
330
F93
102
}
330
F93
100
AcDbVisualStyle
2

70
16
71
2
72
2
73
3
90
0
40
-0.6
41
-30.0
62
5
63
8
74
1
91
4
64
7
65
257
75
1
175
1
42
1.0
92
8
66
8
43
1.0
76
1
77
6
78
2
67
7
79
5
170
0
171
0
290
0
174
0
93
1
44
0.0
173
0
291
1
45
0.0
1001
ACAD
1000
AcDbSavedByObjectVersion
1070
0
0
VISUALSTYLE
5
F9C
102
{ACAD_XDICTIONARY
360
1090
102
}
102
{ACAD_REACTORS
330
F93
102
}
330
F93
100
AcDbVisualStyle
2

70
9
71
3
72
2
73
0
90
0
40
-0.6
41
-30.0
62
5
63
7
74
2
91
2
64
7
65
257
75
1
175
1
42
179.0
92
8
66
7
43
1.0
76
1
77
6
78
2
67
7
79
3
170
0
171
0
290
0
174
0
93
1
44
0.0
173
0
291
0
45
0.0
1001
ACAD
1000
AcDbSavedByObjectVersion
1070
0
0
VISUALSTYLE
5
F9E
102
{ACAD_XDICTIONARY
360
1094
102
}
102
{ACAD_REACTORS
330
F93
102
}
330
F93
100
AcDbVisualStyle
2

70
11
71
2
72
2
73
0
90
0
40
-0.6
41
-30.0
62
5
63
7
74
1
91
4
64
7
65
257
75
1
175
1
42
1.0
92
8
66
7
43
1.0
76
1
77
6
78
2
67
7
79
5
170
0
171
0
290
0
174
0
93
1
44
-50.0
173
0
291
1
45
0.0
1001
ACAD
1000
AcDbSavedByObjectVersion
1070
0
0
VISUALSTYLE
5
FA6
102
{ACAD_XDICTIONARY
360
10A4
102
}
102
{ACAD_REACTORS
330
F93
102
}
330
F93
100
AcDbVisualStyle
2

70
22
71
2
72
2
73
0
90
0
40
-0.6
41
-30.0
62
5
63
7
74
1
91
4
64
7
65
257
75
1
175
1
42
1.0
92
8
66
7
43
1.0
76
1
77
6
78
2
67
7
79
5
170
0
171
0
290
0
174
0
93
1
44
0.0
173
0
291
1
45
0.0
1001
ACAD
1000
AcDbSavedByObjectVersion
1070
0
0
VISUALSTYLE
5
FA2
102
{ACAD_XDICTIONARY
360
109C
102
}
102
{ACAD_REACTORS
330
F93
102
}
330
F93
100
AcDbVisualStyle
2

70
15
71
2
72
2
73
0
90
0
40
-0.6
41
-30.0
62
5
63
7
74
1
91
4
64
7
65
257
75
1
175
1
42
1.0
92
8
66
7
43
1.0
76
1
77
6
78
2
67
7
79
5
170
0
171
0
290
0
174
0
93
1
44
0.0
173
0
291
1
45
0.0
1001
ACAD
1000
AcDbSavedByObjectVersion
1070
0
0
VISUALSTYLE
5
F94
102
{ACAD_XDICTIONARY
360
1080
102
}
102
{ACAD_REACTORS
330
F93
102
}
330
F93
100
AcDbVisualStyle
2

70
0
71
2
72
1
73
1
90
2
40
-0.6
41
30.0
62
5
63
7
74
0
91
4
64
7
65
257
75
1
175
1
42
1.0
92
8
66
7
43
1.0
76
1
77
6
78
2
67
7
79
5
170
0
171
0
290
0
174
0
93
13
44
0.0
173
0
291
1
45
0.0
1001
ACAD
1000
AcDbSavedByObjectVersion
1070
0
0
VISUALSTYLE
5
F95
102
{ACAD_XDICTIONARY
360
1082
102
}
102
{ACAD_REACTORS
330
F93
102
}
330
F93
100
AcDbVisualStyle
2

70
1
71
2
72
1
73
1
90
2
40
-0.6
41
30.0
62
5
63
7
74
1
91
4
64
7
65
257
75
1
175
1
42
1.0
92
0
66
257
43
1.0
76
1
77
6
78
2
67
7
79
5
170
0
171
0
290
0
174
0
93
13
44
0.0
173
0
291
1
45
0.0
1001
ACAD
1000
AcDbSavedByObjectVersion
1070
0
0
VISUALSTYLE
5
F96
102
{ACAD_XDICTIONARY
360
1084
102
}
102
{ACAD_REACTORS
330
F93
102
}
330
F93
100
AcDbVisualStyle
2

70
2
71
2
72
2
73
1
90
2
40
-0.6
41
30.0
62
5
63
7
74
0
91
4
64
7
65
257
75
1
175
1
42
1.0
92
0
66
7
43
1.0
76
1
77
6
78
2
67
7
79
5
170
0
171
0
290
0
174
0
93
13
44
0.0
173
0
291
1
45
0.0
1001
ACAD
1000
AcDbSavedByObjectVersion
1070
0
0
VISUALSTYLE
5
F97
102
{ACAD_XDICTIONARY
360
1086
102
}
102
{ACAD_REACTORS
330
F93
102
}
330
F93
100
AcDbVisualStyle
2

70
3
71
2
72
2
73
1
90
2
40
-0.6
41
30.0
62
5
63
7
74
1
91
4
64
7
65
257
75
1
175
1
42
1.0
92
0
66
257
43
1.0
76
1
77
6
78
2
67
7
79
5
170
0
171
0
290
0
174
0
93
13
44
0.0
173
0
291
1
45
0.0
1001
ACAD
1000
AcDbSavedByObjectVersion
1070
0
0
VISUALSTYLE
5
FA4
102
{ACAD_XDICTIONARY
360
10A0
102
}
102
{ACAD_REACTORS
330
F93
102
}
330
F93
100
AcDbVisualStyle
2

70
20
71
2
72
2
73
0
90
0
40
-0.6
41
-30.0
62
5
63
7
74
1
91
4
64
7
65
257
75
1
175
1
42
1.0
92
10
66
7
43
1.0
76
1
77
6
78
2
67
7
79
5
170
0
171
0
290
0
174
0
93
1
44
0.0
173
0
291
1
45
0.0
1001
ACAD
1000
AcDbSavedByObjectVersion
1070
0
0
VISUALSTYLE
5
FA1
102
{ACAD_XDICTIONARY
360
109A
102
}
102
{ACAD_REACTORS
330
F93
102
}
330
F93
100
AcDbVisualStyle
2

70
14
71
2
72
2
73
0
90
0
40
-0.6
41
-30.0
62
5
63
7
74
1
91
4
64
7
65
257
75
7
175
7
42
1.0
92
8
66
7
43
1.0
76
1
77
6
78
2
67
7
79
5
170
0
171
0
290
0
174
0
93
1
44
0.0
173
0
291
1
45
0.0
1001
ACAD
1000
AcDbSavedByObjectVersion
1070
0
0
VISUALSTYLE
5
FA5
102
{ACAD_XDICTIONARY
360
10A2
102
}
102
{ACAD_REACTORS
330
F93
102
}
330
F93
100
AcDbVisualStyle
2

70
21
71
2
72
2
73
0
90
0
40
-0.6
41
-30.0
62
5
63
7
74
1
91
4
64
7
65
257
75
1
175
1
42
1.0
92
9
66
7
43
1.0
76
1
77
6
78
2
67
7
79
5
170
0
171
0
290
0
174
0
93
1
44
0.0
173
0
291
1
45
0.0
1001
ACAD
1000
AcDbSavedByObjectVersion
1070
0
0
VISUALSTYLE
5
F9D
102
{ACAD_XDICTIONARY
360
1092
102
}
102
{ACAD_REACTORS
330
F93
102
}
330
F93
100
AcDbVisualStyle
2

70
8
71
2
72
2
73
0
90
0
40
-0.6
41
-30.0
62
5
63
7
74
1
91
0
64
7
65
257
75
1
175
1
42
1.0
92
8
66
8
43
1.0
76
1
77
6
78
2
67
7
79
5
170
0
171
0
290
0
174
0
93
13
44
0.0
173
0
291
0
45
0.0
1001
ACAD
1000
AcDbSavedByObjectVersion
1070
0
0
VISUALSTYLE
5
FA0
102
{ACAD_XDICTIONARY
360
1098
102
}
102
{ACAD_REACTORS
330
F93
102
}
330
F93
100
AcDbVisualStyle
2

70
13
71
2
72
2
73
0
90
0
40
-0.6
41
-30.0
62
5
63
7
74
1
91
4
64
7
65
257
75
1
175
1
42
1.0
92
12
66
7
43
1.0
76
1
77
6
78
2
67
7
79
5
170
0
171
0
290
0
174
0
93
1
44
0.0
173
0
291
1
45
0.0
1001
ACAD
1000
AcDbSavedByObjectVersion
1070
0
0
DICTIONARYVAR
5
FF3
102
{ACAD_REACTORS
330
FF0
102
}
330
FF0
100
DictionaryVariables
280
0
1
1:1
0
DICTIONARYVAR
5
FF2
102
{ACAD_REACTORS
330
FF0
102
}
330
FF0
100
DictionaryVariables
280
0
1
STANDARD
0
DICTIONARYVAR
5
FF1
102
{ACAD_REACTORS
330
FF0
102
}
330
FF0
100
DictionaryVariables
280
0
1
STANDARD
0
DICTIONARYVAR
5
FF6
102
{ACAD_REACTORS
330
FF0
102
}
330
FF0
100
DictionaryVariables
280
0
1
1
0
DICTIONARYVAR
5
FF5
102
{ACAD_REACTORS
330
FF0
102
}
330
FF0
100
DictionaryVariables
280
0
1
0
0
DICTIONARYVAR
5
FF4
102
{ACAD_REACTORS
330
FF0
102
}
330
FF0
100
DictionaryVariables
280
0
1
127
0
DICTIONARYVAR
5
1078
102
{ACAD_REACTORS
330
FF0
102
}
330
FF0
100
DictionaryVariables
280
0
1
2
0
DICTIONARY
5
10A9
330
FD1
100
AcDbDictionary
280
1
281
1
3
ACAD_XREC_ROUNDTRIP
360
10AA
0
DICTIONARY
5
10A7
330
FD0
100
AcDbDictionary
280
1
281
1
3
ACAD_XREC_ROUNDTRIP
360
10A8
0
DICTIONARY
5
F84
330
F83
100
AcDbDictionary
280
1
281
1
3
ACAD_XREC_ROUNDTRIP
360
FFF
3
BUMPTILE
360
F86
3
DIFFUSETILE
360
F85
3
OPACITYTILE
360
F89
3
REFLECTIONTILE
360
F88
3
REFRACTIONTILE
360
F8A
3
SPECULARTILE
360
F87
0
DICTIONARY
5
F7C
330
F7B
100
AcDbDictionary
280
1
281
1
3
ACAD_XREC_ROUNDTRIP
360
FFE
3
BUMPTILE
360
F7E
3
DIFFUSETILE
360
F7D
3
OPACITYTILE
360
F81
3
REFLECTIONTILE
360
F80
3
REFRACTIONTILE
360
F82
3
SPECULARTILE
360
F7F
0
DICTIONARY
5
F8C
330
F8B
100
AcDbDictionary
280
1
281
1
3
ACAD_XREC_ROUNDTRIP
360
1000
3
BUMPTILE
360
F8E
3
DIFFUSETILE
360
F8D
3
OPACITYTILE
360
F91
3
REFLECTIONTILE
360
F90
3
REFRACTIONTILE
360
F92
3
SPECULARTILE
360
F8F
0
DICTIONARY
5
FF8
330
FA9
100
AcDbDictionary
280
1
281
1
3
ACAD_ROUNDTRIP_2008_TABLESTYLE_CELLSTYLEMAP
360
1079
3
ACAD_XREC_ROUNDTRIP
360
10A6
0
DICTIONARY
5
108A
330
F99
100
AcDbDictionary
280
1
281
1
3
ACAD_XREC_ROUNDTRIP
360
108B
0
DICTIONARY
5
108E
330
F9B
100
AcDbDictionary
280
1
281
1
3
ACAD_XREC_ROUNDTRIP
360
108F
0
DICTIONARY
5
108C
330
F9A
100
AcDbDictionary
280
1
281
1
3
ACAD_XREC_ROUNDTRIP
360
108D
0
DICTIONARY
5
1088
330
F98
100
AcDbDictionary
280
1
281
1
3
ACAD_XREC_ROUNDTRIP
360
1089
0
DICTIONARY
5
1096
330
F9F
100
AcDbDictionary
280
1
281
1
3
ACAD_XREC_ROUNDTRIP
360
1097
0
DICTIONARY
5
109E
330
FA3
100
AcDbDictionary
280
1
281
1
3
ACAD_XREC_ROUNDTRIP
360
109F
0
DICTIONARY
5
1090
330
F9C
100
AcDbDictionary
280
1
281
1
3
ACAD_XREC_ROUNDTRIP
360
1091
0
DICTIONARY
5
1094
330
F9E
100
AcDbDictionary
280
1
281
1
3
ACAD_XREC_ROUNDTRIP
360
1095
0
DICTIONARY
5
10A4
330
FA6
100
AcDbDictionary
280
1
281
1
3
ACAD_XREC_ROUNDTRIP
360
10A5
0
DICTIONARY
5
109C
330
FA2
100
AcDbDictionary
280
1
281
1
3
ACAD_XREC_ROUNDTRIP
360
109D
0
DICTIONARY
5
1080
330
F94
100
AcDbDictionary
280
1
281
1
3
ACAD_XREC_ROUNDTRIP
360
1081
0
DICTIONARY
5
1082
330
F95
100
AcDbDictionary
280
1
281
1
3
ACAD_XREC_ROUNDTRIP
360
1083
0
DICTIONARY
5
1084
330
F96
100
AcDbDictionary
280
1
281
1
3
ACAD_XREC_ROUNDTRIP
360
1085
0
DICTIONARY
5
1086
330
F97
100
AcDbDictionary
280
1
281
1
3
ACAD_XREC_ROUNDTRIP
360
1087
0
DICTIONARY
5
10A0
330
FA4
100
AcDbDictionary
280
1
281
1
3
ACAD_XREC_ROUNDTRIP
360
10A1
0
DICTIONARY
5
109A
330
FA1
100
AcDbDictionary
280
1
281
1
3
ACAD_XREC_ROUNDTRIP
360
109B
0
DICTIONARY
5
10A2
330
FA5
100
AcDbDictionary
280
1
281
1
3
ACAD_XREC_ROUNDTRIP
360
10A3
0
DICTIONARY
5
1092
330
F9D
100
AcDbDictionary
280
1
281
1
3
ACAD_XREC_ROUNDTRIP
360
1093
0
DICTIONARY
5
1098
330
FA0
100
AcDbDictionary
280
1
281
1
3
ACAD_XREC_ROUNDTRIP
360
1099
0
XRECORD
5
10AA
102
{ACAD_REACTORS
330
10A9
102
}
330
10A9
100
AcDbXrecord
280
1
102
SHADEPLOT
70
0
102
SHADEPLOTRESLEVEL
70
2
102
SHADEPLOTCUSTOMDPI
70
300
0
XRECORD
5
10A8
102
{ACAD_REACTORS
330
10A7
102
}
330
10A7
100
AcDbXrecord
280
1
102
SHADEPLOT
70
0
102
SHADEPLOTRESLEVEL
70
2
102
SHADEPLOTCUSTOMDPI
70
300
0
XRECORD
5
FFF
102
{ACAD_REACTORS
330
F84
102
}
330
F84
100
AcDbXrecord
280
1
102
MATERIAL
148
0.0
149
0.0
149
0.0
93
0
94
127
282
0
72
0
77
0
171
0
175
0
179
0
273
0
0
XRECORD
5
F86
102
{ACAD_REACTORS
330
F84
102
}
330
F84
100
AcDbXrecord
280
1
270
1
271
1
0
XRECORD
5
F85
102
{ACAD_REACTORS
330
F84
102
}
330
F84
100
AcDbXrecord
280
1
270
1
271
1
0
XRECORD
5
F89
102
{ACAD_REACTORS
330
F84
102
}
330
F84
100
AcDbXrecord
280
1
270
1
271
1
0
XRECORD
5
F88
102
{ACAD_REACTORS
330
F84
102
}
330
F84
100
AcDbXrecord
280
1
270
1
271
1
0
XRECORD
5
F8A
102
{ACAD_REACTORS
330
F84
102
}
330
F84
100
AcDbXrecord
280
1
270
1
271
1
0
XRECORD
5
F87
102
{ACAD_REACTORS
330
F84
102
}
330
F84
100
AcDbXrecord
280
1
270
1
271
1
0
XRECORD
5
FFE
102
{ACAD_REACTORS
330
F7C
102
}
330
F7C
100
AcDbXrecord
280
1
102
MATERIAL
148
0.0
149
0.0
149
0.0
93
0
94
127
282
0
72
0
77
0
171
0
175
0
179
0
273
0
0
XRECORD
5
F7E
102
{ACAD_REACTORS
330
F7C
102
}
330
F7C
100
AcDbXrecord
280
1
270
1
271
1
0
XRECORD
5
F7D
102
{ACAD_REACTORS
330
F7C
102
}
330
F7C
100
AcDbXrecord
280
1
270
1
271
1
0
XRECORD
5
F81
102
{ACAD_REACTORS
330
F7C
102
}
330
F7C
100
AcDbXrecord
280
1
270
1
271
1
0
XRECORD
5
F80
102
{ACAD_REACTORS
330
F7C
102
}
330
F7C
100
AcDbXrecord
280
1
270
1
271
1
0
XRECORD
5
F82
102
{ACAD_REACTORS
330
F7C
102
}
330
F7C
100
AcDbXrecord
280
1
270
1
271
1
0
XRECORD
5
F7F
102
{ACAD_REACTORS
330
F7C
102
}
330
F7C
100
AcDbXrecord
280
1
270
1
271
1
0
XRECORD
5
1000
102
{ACAD_REACTORS
330
F8C
102
}
330
F8C
100
AcDbXrecord
280
1
102
MATERIAL
148
0.0
149
0.0
149
0.0
93
0
94
127
282
0
72
0
77
0
171
0
175
0
179
0
273
0
0
XRECORD
5
F8E
102
{ACAD_REACTORS
330
F8C
102
}
330
F8C
100
AcDbXrecord
280
1
270
1
271
1
0
XRECORD
5
F8D
102
{ACAD_REACTORS
330
F8C
102
}
330
F8C
100
AcDbXrecord
280
1
270
1
271
1
0
XRECORD
5
F91
102
{ACAD_REACTORS
330
F8C
102
}
330
F8C
100
AcDbXrecord
280
1
270
1
271
1
0
XRECORD
5
F90
102
{ACAD_REACTORS
330
F8C
102
}
330
F8C
100
AcDbXrecord
280
1
270
1
271
1
0
XRECORD
5
F92
102
{ACAD_REACTORS
330
F8C
102
}
330
F8C
100
AcDbXrecord
280
1
270
1
271
1
0
XRECORD
5
F8F
102
{ACAD_REACTORS
330
F8C
102
}
330
F8C
100
AcDbXrecord
280
1
270
1
271
1
0
CELLSTYLEMAP
5
1079
102
{ACAD_REACTORS
330
FF8
102
}
330
FF8
100
AcDbCellStyleMap
90
3
300
CELLSTYLE
1
TABLEFORMAT_BEGIN
90
5
170
1
91
0
92
32768
62
257
93
1
300
CONTENTFORMAT
1
CONTENTFORMAT_BEGIN
90
0
91
0
92
512
93
0
300

40
0.0
140
1.0
94
5
62
0
340
253
144
0.25
309
CONTENTFORMAT_END
171
1
301
MARGIN
1
CELLMARGIN_BEGIN
40
0.06
40
0.06
40
0.06
40
0.06
40
0.18
40
0.18
309
CELLMARGIN_END
94
6
95
1
302
GRIDFORMAT
1
GRIDFORMAT_BEGIN
90
0
91
1
62
0
92
-2
340
0
93
0
40
0.045
309
GRIDFORMAT_END
95
2
302
GRIDFORMAT
1
GRIDFORMAT_BEGIN
90
0
91
1
62
0
92
-2
340
0
93
0
40
0.045
309
GRIDFORMAT_END
95
4
302
GRIDFORMAT
1
GRIDFORMAT_BEGIN
90
0
91
1
62
0
92
-2
340
0
93
0
40
0.045
309
GRIDFORMAT_END
95
8
302
GRIDFORMAT
1
GRIDFORMAT_BEGIN
90
0
91
1
62
0
92
-2
340
0
93
0
40
0.045
309
GRIDFORMAT_END
95
16
302
GRIDFORMAT
1
GRIDFORMAT_BEGIN
90
0
91
1
62
0
92
-2
340
0
93
0
40
0.045
309
GRIDFORMAT_END
95
32
302
GRIDFORMAT
1
GRIDFORMAT_BEGIN
90
0
91
1
62
0
92
-2
340
0
93
0
40
0.045
309
GRIDFORMAT_END
309
TABLEFORMAT_END
1
CELLSTYLE_BEGIN
90
1
91
1
300
_TITLE
309
CELLSTYLE_END
300
CELLSTYLE
1
TABLEFORMAT_BEGIN
90
5
170
1
91
0
92
0
62
257
93
1
300
CONTENTFORMAT
1
CONTENTFORMAT_BEGIN
90
0
91
0
92
512
93
0
300

40
0.0
140
1.0
94
5
62
0
340
253
144
0.18
309
CONTENTFORMAT_END
171
1
301
MARGIN
1
CELLMARGIN_BEGIN
40
0.06
40
0.06
40
0.06
40
0.06
40
0.18
40
0.18
309
CELLMARGIN_END
94
6
95
1
302
GRIDFORMAT
1
GRIDFORMAT_BEGIN
90
0
91
1
62
0
92
-2
340
0
93
0
40
0.045
309
GRIDFORMAT_END
95
2
302
GRIDFORMAT
1
GRIDFORMAT_BEGIN
90
0
91
1
62
0
92
-2
340
0
93
0
40
0.045
309
GRIDFORMAT_END
95
4
302
GRIDFORMAT
1
GRIDFORMAT_BEGIN
90
0
91
1
62
0
92
-2
340
0
93
0
40
0.045
309
GRIDFORMAT_END
95
8
302
GRIDFORMAT
1
GRIDFORMAT_BEGIN
90
0
91
1
62
0
92
-2
340
0
93
0
40
0.045
309
GRIDFORMAT_END
95
16
302
GRIDFORMAT
1
GRIDFORMAT_BEGIN
90
0
91
1
62
0
92
-2
340
0
93
0
40
0.045
309
GRIDFORMAT_END
95
32
302
GRIDFORMAT
1
GRIDFORMAT_BEGIN
90
0
91
1
62
0
92
-2
340
0
93
0
40
0.045
309
GRIDFORMAT_END
309
TABLEFORMAT_END
1
CELLSTYLE_BEGIN
90
2
91
1
300
_HEADER
309
CELLSTYLE_END
300
CELLSTYLE
1
TABLEFORMAT_BEGIN
90
5
170
1
91
0
92
0
62
257
93
1
300
CONTENTFORMAT
1
CONTENTFORMAT_BEGIN
90
0
91
0
92
512
93
0
300

40
0.0
140
1.0
94
2
62
0
340
253
144
0.18
309
CONTENTFORMAT_END
171
1
301
MARGIN
1
CELLMARGIN_BEGIN
40
0.06
40
0.06
40
0.06
40
0.06
40
0.18
40
0.18
309
CELLMARGIN_END
94
6
95
1
302
GRIDFORMAT
1
GRIDFORMAT_BEGIN
90
0
91
1
62
0
92
-2
340
0
93
0
40
0.045
309
GRIDFORMAT_END
95
2
302
GRIDFORMAT
1
GRIDFORMAT_BEGIN
90
0
91
1
62
0
92
-2
340
0
93
0
40
0.045
309
GRIDFORMAT_END
95
4
302
GRIDFORMAT
1
GRIDFORMAT_BEGIN
90
0
91
1
62
0
92
-2
340
0
93
0
40
0.045
309
GRIDFORMAT_END
95
8
302
GRIDFORMAT
1
GRIDFORMAT_BEGIN
90
0
91
1
62
0
92
-2
340
0
93
0
40
0.045
309
GRIDFORMAT_END
95
16
302
GRIDFORMAT
1
GRIDFORMAT_BEGIN
90
0
91
1
62
0
92
-2
340
0
93
0
40
0.045
309
GRIDFORMAT_END
95
32
302
GRIDFORMAT
1
GRIDFORMAT_BEGIN
90
0
91
1
62
0
92
-2
340
0
93
0
40
0.045
309
GRIDFORMAT_END
309
TABLEFORMAT_END
1
CELLSTYLE_BEGIN
90
3
91
2
300
_DATA
309
CELLSTYLE_END
0
XRECORD
5
10A6
102
{ACAD_REACTORS
330
FF8
102
}
330
FF8
100
AcDbXrecord
280
1
102
ACAD_ROUNDTRIP_PRE2007_TABLESTYLE
90
512
91
0
1

92
512
93
0
2

94
512
95
0
3

0
XRECORD
5
108B
102
{ACAD_REACTORS
330
108A
102
}
330
108A
100
AcDbXrecord
280
1
102
RTVSPropertyOp0
70
1
102
RTVSPropertyOp1
70
1
102
RTVSPropertyOp2
70
1
102
RTVSPropertyOp3
70
1
102
RTVSPropertyOp4
70
1
102
RTVSPropertyOp5
70
1
102
RTVSPropertyOp6
70
1
102
RTVSPropertyOp7
70
1
102
RTVSPropertyOp8
70
1
102
RTVSPropertyOp9
70
1
102
RTVSPropertyOp10
70
1
102
RTVSPropertyOp11
70
1
102
RTVSPropertyOp12
70
1
102
RTVSPropertyOp13
70
1
102
RTVSPropertyOp14
70
1
102
RTVSPropertyOp15
70
1
102
RTVSPropertyOp16
70
1
102
RTVSPropertyOp17
70
1
102
RTVSPropertyOp18
70
1
102
RTVSPropertyOp19
70
1
102
RTVSPropertyOp20
70
1
102
RTVSPropertyOp21
70
1
102
RTVSPropertyOp22
70
1
102
RTVSPropertyOp23
70
1
102
RTVSPropertyOp24
70
1
102
RTVSPropertyOp25
70
1
102
RTVSPropertyOp26
70
1
102
RTVSPropertyOp27
70
1
0
XRECORD
5
108F
102
{ACAD_REACTORS
330
108E
102
}
330
108E
100
AcDbXrecord
280
1
102
RTVSPropertyOp0
70
1
102
RTVSPropertyOp1
70
1
102
RTVSPropertyOp2
70
1
102
RTVSPropertyOp3
70
1
102
RTVSPropertyOp4
70
1
102
RTVSPropertyOp5
70
1
102
RTVSPropertyOp6
70
1
102
RTVSPropertyOp7
70
1
102
RTVSPropertyOp8
70
1
102
RTVSPropertyOp9
70
1
102
RTVSPropertyOp10
70
1
102
RTVSPropertyOp11
70
1
102
RTVSPropertyOp12
70
1
102
RTVSPropertyOp13
70
1
102
RTVSPropertyOp14
70
1
102
RTVSPropertyOp15
70
1
102
RTVSPropertyOp16
70
1
102
RTVSPropertyOp17
70
1
102
RTVSPropertyOp18
70
1
102
RTVSPropertyOp19
70
1
102
RTVSPropertyOp20
70
1
102
RTVSPropertyOp21
70
1
102
RTVSPropertyOp22
70
1
102
RTVSPropertyOp23
70
1
102
RTVSPropertyOp24
70
1
102
RTVSPropertyOp25
70
1
102
RTVSPropertyOp26
70
1
102
RTVSPropertyOp27
70
1
0
XRECORD
5
108D
102
{ACAD_REACTORS
330
108C
102
}
330
108C
100
AcDbXrecord
280
1
102
RTVSPropertyOp0
70
1
102
RTVSPropertyOp1
70
1
102
RTVSPropertyOp2
70
1
102
RTVSPropertyOp3
70
1
102
RTVSPropertyOp4
70
1
102
RTVSPropertyOp5
70
1
102
RTVSPropertyOp6
70
1
102
RTVSPropertyOp7
70
1
102
RTVSPropertyOp8
70
1
102
RTVSPropertyOp9
70
1
102
RTVSPropertyOp10
70
1
102
RTVSPropertyOp11
70
1
102
RTVSPropertyOp12
70
1
102
RTVSPropertyOp13
70
1
102
RTVSPropertyOp14
70
1
102
RTVSPropertyOp15
70
1
102
RTVSPropertyOp16
70
1
102
RTVSPropertyOp17
70
1
102
RTVSPropertyOp18
70
1
102
RTVSPropertyOp19
70
1
102
RTVSPropertyOp20
70
1
102
RTVSPropertyOp21
70
1
102
RTVSPropertyOp22
70
1
102
RTVSPropertyOp23
70
1
102
RTVSPropertyOp24
70
1
102
RTVSPropertyOp25
70
1
102
RTVSPropertyOp26
70
1
102
RTVSPropertyOp27
70
1
0
XRECORD
5
1089
102
{ACAD_REACTORS
330
1088
102
}
330
1088
100
AcDbXrecord
280
1
102
RTVSPropertyOp0
70
1
102
RTVSPropertyOp1
70
1
102
RTVSPropertyOp2
70
1
102
RTVSPropertyOp3
70
1
102
RTVSPropertyOp4
70
1
102
RTVSPropertyOp5
70
1
102
RTVSPropertyOp6
70
1
102
RTVSPropertyOp7
70
1
102
RTVSPropertyOp8
70
1
102
RTVSPropertyOp9
70
1
102
RTVSPropertyOp10
70
1
102
RTVSPropertyOp11
70
1
102
RTVSPropertyOp12
70
1
102
RTVSPropertyOp13
70
1
102
RTVSPropertyOp14
70
1
102
RTVSPropertyOp15
70
1
102
RTVSPropertyOp16
70
1
102
RTVSPropertyOp17
70
1
102
RTVSPropertyOp18
70
1
102
RTVSPropertyOp19
70
1
102
RTVSPropertyOp20
70
1
102
RTVSPropertyOp21
70
1
102
RTVSPropertyOp22
70
1
102
RTVSPropertyOp23
70
1
102
RTVSPropertyOp24
70
1
102
RTVSPropertyOp25
70
1
102
RTVSPropertyOp26
70
1
102
RTVSPropertyOp27
70
1
0
XRECORD
5
1097
102
{ACAD_REACTORS
330
1096
102
}
330
1096
100
AcDbXrecord
280
1
102
RTVSPropertyOp0
70
1
102
RTVSPropertyOp1
70
1
102
RTVSPropertyOp2
70
1
102
RTVSPropertyOp3
70
1
102
RTVSPropertyOp4
70
1
102
RTVSPropertyOp5
70
1
102
RTVSPropertyOp6
70
1
102
RTVSPropertyOp7
70
1
102
RTVSPropertyOp8
70
1
102
RTVSPropertyOp9
70
1
102
RTVSPropertyOp10
70
1
102
RTVSPropertyOp11
70
1
102
RTVSPropertyOp12
70
1
102
RTVSPropertyOp13
70
1
102
RTVSPropertyOp14
70
1
102
RTVSPropertyOp15
70
1
102
RTVSPropertyOp16
70
1
102
RTVSPropertyOp17
70
1
102
RTVSPropertyOp18
70
1
102
RTVSPropertyOp19
70
1
102
RTVSPropertyOp20
70
1
102
RTVSPropertyOp21
70
1
102
RTVSPropertyOp22
70
1
102
RTVSPropertyOp23
70
1
102
RTVSPropertyOp24
70
1
102
RTVSPropertyOp25
70
1
102
RTVSPropertyOp26
70
1
102
RTVSPropertyOp27
70
1
0
XRECORD
5
109F
102
{ACAD_REACTORS
330
109E
102
}
330
109E
100
AcDbXrecord
280
1
102
RTVSPropertyOp0
70
1
102
RTVSPropertyOp1
70
1
102
RTVSPropertyOp2
70
1
102
RTVSPropertyOp3
70
1
102
RTVSPropertyOp4
70
1
102
RTVSPropertyOp5
70
1
102
RTVSPropertyOp6
70
1
102
RTVSPropertyOp7
70
1
102
RTVSPropertyOp8
70
1
102
RTVSPropertyOp9
70
1
102
RTVSPropertyOp10
70
1
102
RTVSPropertyOp11
70
1
102
RTVSPropertyOp12
70
1
102
RTVSPropertyOp13
70
1
102
RTVSPropertyOp14
70
1
102
RTVSPropertyOp15
70
1
102
RTVSPropertyOp16
70
1
102
RTVSPropertyOp17
70
1
102
RTVSPropertyOp18
70
1
102
RTVSPropertyOp19
70
1
102
RTVSPropertyOp20
70
1
102
RTVSPropertyOp21
70
1
102
RTVSPropertyOp22
70
1
102
RTVSPropertyOp23
70
1
102
RTVSPropertyOp24
70
1
102
RTVSPropertyOp25
70
1
102
RTVSPropertyOp26
70
1
102
RTVSPropertyOp27
70
1
0
XRECORD
5
1091
102
{ACAD_REACTORS
330
1090
102
}
330
1090
100
AcDbXrecord
280
1
102
RTVSPropertyOp0
70
1
102
RTVSPropertyOp1
70
1
102
RTVSPropertyOp2
70
1
102
RTVSPropertyOp3
70
1
102
RTVSPropertyOp4
70
1
102
RTVSPropertyOp5
70
1
102
RTVSPropertyOp6
70
1
102
RTVSPropertyOp7
70
1
102
RTVSPropertyOp8
70
1
102
RTVSPropertyOp9
70
1
102
RTVSPropertyOp10
70
1
102
RTVSPropertyOp11
70
1
102
RTVSPropertyOp12
70
1
102
RTVSPropertyOp13
70
1
102
RTVSPropertyOp14
70
1
102
RTVSPropertyOp15
70
1
102
RTVSPropertyOp16
70
1
102
RTVSPropertyOp17
70
1
102
RTVSPropertyOp18
70
1
102
RTVSPropertyOp19
70
1
102
RTVSPropertyOp20
70
1
102
RTVSPropertyOp21
70
1
102
RTVSPropertyOp22
70
1
102
RTVSPropertyOp23
70
1
102
RTVSPropertyOp24
70
1
102
RTVSPropertyOp25
70
1
102
RTVSPropertyOp26
70
1
102
RTVSPropertyOp27
70
1
0
XRECORD
5
1095
102
{ACAD_REACTORS
330
1094
102
}
330
1094
100
AcDbXrecord
280
1
102
RTVSPropertyOp0
70
1
102
RTVSPropertyOp1
70
1
102
RTVSPropertyOp2
70
1
102
RTVSPropertyOp3
70
1
102
RTVSPropertyOp4
70
1
102
RTVSPropertyOp5
70
1
102
RTVSPropertyOp6
70
1
102
RTVSPropertyOp7
70
1
102
RTVSPropertyOp8
70
1
102
RTVSPropertyOp9
70
1
102
RTVSPropertyOp10
70
1
102
RTVSPropertyOp11
70
1
102
RTVSPropertyOp12
70
1
102
RTVSPropertyOp13
70
1
102
RTVSPropertyOp14
70
1
102
RTVSPropertyOp15
70
1
102
RTVSPropertyOp16
70
1
102
RTVSPropertyOp17
70
1
102
RTVSPropertyOp18
70
1
102
RTVSPropertyOp19
70
1
102
RTVSPropertyOp20
70
1
102
RTVSPropertyOp21
70
1
102
RTVSPropertyOp22
70
1
102
RTVSPropertyOp23
70
1
102
RTVSPropertyOp24
70
1
102
RTVSPropertyOp25
70
1
102
RTVSPropertyOp26
70
1
102
RTVSPropertyOp27
70
1
0
XRECORD
5
10A5
102
{ACAD_REACTORS
330
10A4
102
}
330
10A4
100
AcDbXrecord
280
1
102
RTVSPropertyOp0
70
0
102
RTVSPropertyOp1
70
0
102
RTVSPropertyOp2
70
0
102
RTVSPropertyOp3
70
0
102
RTVSPropertyOp4
70
0
102
RTVSPropertyOp5
70
0
102
RTVSPropertyOp6
70
0
102
RTVSPropertyOp7
70
0
102
RTVSPropertyOp8
70
0
102
RTVSPropertyOp9
70
0
102
RTVSPropertyOp10
70
0
102
RTVSPropertyOp11
70
0
102
RTVSPropertyOp12
70
0
102
RTVSPropertyOp13
70
0
102
RTVSPropertyOp14
70
2
102
RTVSPropertyOp15
70
0
102
RTVSPropertyOp16
70
0
102
RTVSPropertyOp17
70
0
102
RTVSPropertyOp18
70
0
102
RTVSPropertyOp19
70
0
102
RTVSPropertyOp20
70
0
102
RTVSPropertyOp21
70
0
102
RTVSPropertyOp22
70
0
102
RTVSPropertyOp23
70
0
102
RTVSPropertyOp24
70
0
102
RTVSPropertyOp25
70
0
102
RTVSPropertyOp26
70
0
102
RTVSPropertyOp27
70
0
0
XRECORD
5
109D
102
{ACAD_REACTORS
330
109C
102
}
330
109C
100
AcDbXrecord
280
1
102
RTVSPropertyOp0
70
1
102
RTVSPropertyOp1
70
1
102
RTVSPropertyOp2
70
1
102
RTVSPropertyOp3
70
1
102
RTVSPropertyOp4
70
1
102
RTVSPropertyOp5
70
1
102
RTVSPropertyOp6
70
1
102
RTVSPropertyOp7
70
1
102
RTVSPropertyOp8
70
1
102
RTVSPropertyOp9
70
1
102
RTVSPropertyOp10
70
1
102
RTVSPropertyOp11
70
1
102
RTVSPropertyOp12
70
1
102
RTVSPropertyOp13
70
1
102
RTVSPropertyOp14
70
1
102
RTVSPropertyOp15
70
1
102
RTVSPropertyOp16
70
1
102
RTVSPropertyOp17
70
1
102
RTVSPropertyOp18
70
1
102
RTVSPropertyOp19
70
1
102
RTVSPropertyOp20
70
1
102
RTVSPropertyOp21
70
1
102
RTVSPropertyOp22
70
1
102
RTVSPropertyOp23
70
1
102
RTVSPropertyOp24
70
1
102
RTVSPropertyOp25
70
1
102
RTVSPropertyOp26
70
1
102
RTVSPropertyOp27
70
1
0
XRECORD
5
1081
102
{ACAD_REACTORS
330
1080
102
}
330
1080
100
AcDbXrecord
280
1
102
RTVSPropertyOp0
70
1
102
RTVSPropertyOp1
70
1
102
RTVSPropertyOp2
70
1
102
RTVSPropertyOp3
70
1
102
RTVSPropertyOp4
70
1
102
RTVSPropertyOp5
70
1
102
RTVSPropertyOp6
70
1
102
RTVSPropertyOp7
70
1
102
RTVSPropertyOp8
70
1
102
RTVSPropertyOp9
70
1
102
RTVSPropertyOp10
70
1
102
RTVSPropertyOp11
70
1
102
RTVSPropertyOp12
70
1
102
RTVSPropertyOp13
70
1
102
RTVSPropertyOp14
70
1
102
RTVSPropertyOp15
70
1
102
RTVSPropertyOp16
70
1
102
RTVSPropertyOp17
70
1
102
RTVSPropertyOp18
70
1
102
RTVSPropertyOp19
70
1
102
RTVSPropertyOp20
70
1
102
RTVSPropertyOp21
70
1
102
RTVSPropertyOp22
70
1
102
RTVSPropertyOp23
70
1
102
RTVSPropertyOp24
70
1
102
RTVSPropertyOp25
70
1
102
RTVSPropertyOp26
70
1
102
RTVSPropertyOp27
70
1
0
XRECORD
5
1083
102
{ACAD_REACTORS
330
1082
102
}
330
1082
100
AcDbXrecord
280
1
102
RTVSPropertyOp0
70
1
102
RTVSPropertyOp1
70
1
102
RTVSPropertyOp2
70
1
102
RTVSPropertyOp3
70
1
102
RTVSPropertyOp4
70
1
102
RTVSPropertyOp5
70
1
102
RTVSPropertyOp6
70
1
102
RTVSPropertyOp7
70
1
102
RTVSPropertyOp8
70
1
102
RTVSPropertyOp9
70
1
102
RTVSPropertyOp10
70
1
102
RTVSPropertyOp11
70
1
102
RTVSPropertyOp12
70
1
102
RTVSPropertyOp13
70
1
102
RTVSPropertyOp14
70
1
102
RTVSPropertyOp15
70
1
102
RTVSPropertyOp16
70
1
102
RTVSPropertyOp17
70
1
102
RTVSPropertyOp18
70
1
102
RTVSPropertyOp19
70
1
102
RTVSPropertyOp20
70
1
102
RTVSPropertyOp21
70
1
102
RTVSPropertyOp22
70
1
102
RTVSPropertyOp23
70
1
102
RTVSPropertyOp24
70
1
102
RTVSPropertyOp25
70
1
102
RTVSPropertyOp26
70
1
102
RTVSPropertyOp27
70
1
0
XRECORD
5
1085
102
{ACAD_REACTORS
330
1084
102
}
330
1084
100
AcDbXrecord
280
1
102
RTVSPropertyOp0
70
1
102
RTVSPropertyOp1
70
1
102
RTVSPropertyOp2
70
1
102
RTVSPropertyOp3
70
1
102
RTVSPropertyOp4
70
1
102
RTVSPropertyOp5
70
1
102
RTVSPropertyOp6
70
1
102
RTVSPropertyOp7
70
1
102
RTVSPropertyOp8
70
1
102
RTVSPropertyOp9
70
1
102
RTVSPropertyOp10
70
1
102
RTVSPropertyOp11
70
1
102
RTVSPropertyOp12
70
1
102
RTVSPropertyOp13
70
1
102
RTVSPropertyOp14
70
1
102
RTVSPropertyOp15
70
1
102
RTVSPropertyOp16
70
1
102
RTVSPropertyOp17
70
1
102
RTVSPropertyOp18
70
1
102
RTVSPropertyOp19
70
1
102
RTVSPropertyOp20
70
1
102
RTVSPropertyOp21
70
1
102
RTVSPropertyOp22
70
1
102
RTVSPropertyOp23
70
1
102
RTVSPropertyOp24
70
1
102
RTVSPropertyOp25
70
1
102
RTVSPropertyOp26
70
1
102
RTVSPropertyOp27
70
1
0
XRECORD
5
1087
102
{ACAD_REACTORS
330
1086
102
}
330
1086
100
AcDbXrecord
280
1
102
RTVSPropertyOp0
70
1
102
RTVSPropertyOp1
70
1
102
RTVSPropertyOp2
70
1
102
RTVSPropertyOp3
70
1
102
RTVSPropertyOp4
70
1
102
RTVSPropertyOp5
70
1
102
RTVSPropertyOp6
70
1
102
RTVSPropertyOp7
70
1
102
RTVSPropertyOp8
70
1
102
RTVSPropertyOp9
70
1
102
RTVSPropertyOp10
70
1
102
RTVSPropertyOp11
70
1
102
RTVSPropertyOp12
70
1
102
RTVSPropertyOp13
70
1
102
RTVSPropertyOp14
70
1
102
RTVSPropertyOp15
70
1
102
RTVSPropertyOp16
70
1
102
RTVSPropertyOp17
70
1
102
RTVSPropertyOp18
70
1
102
RTVSPropertyOp19
70
1
102
RTVSPropertyOp20
70
1
102
RTVSPropertyOp21
70
1
102
RTVSPropertyOp22
70
1
102
RTVSPropertyOp23
70
1
102
RTVSPropertyOp24
70
1
102
RTVSPropertyOp25
70
1
102
RTVSPropertyOp26
70
1
102
RTVSPropertyOp27
70
1
0
XRECORD
5
10A1
102
{ACAD_REACTORS
330
10A0
102
}
330
10A0
100
AcDbXrecord
280
1
102
RTVSPropertyOp0
70
0
102
RTVSPropertyOp1
70
0
102
RTVSPropertyOp2
70
0
102
RTVSPropertyOp3
70
0
102
RTVSPropertyOp4
70
0
102
RTVSPropertyOp5
70
0
102
RTVSPropertyOp6
70
0
102
RTVSPropertyOp7
70
0
102
RTVSPropertyOp8
70
0
102
RTVSPropertyOp9
70
0
102
RTVSPropertyOp10
70
0
102
RTVSPropertyOp11
70
0
102
RTVSPropertyOp12
70
0
102
RTVSPropertyOp13
70
0
102
RTVSPropertyOp14
70
2
102
RTVSPropertyOp15
70
0
102
RTVSPropertyOp16
70
0
102
RTVSPropertyOp17
70
0
102
RTVSPropertyOp18
70
0
102
RTVSPropertyOp19
70
0
102
RTVSPropertyOp20
70
0
102
RTVSPropertyOp21
70
0
102
RTVSPropertyOp22
70
0
102
RTVSPropertyOp23
70
0
102
RTVSPropertyOp24
70
0
102
RTVSPropertyOp25
70
0
102
RTVSPropertyOp26
70
0
102
RTVSPropertyOp27
70
0
0
XRECORD
5
109B
102
{ACAD_REACTORS
330
109A
102
}
330
109A
100
AcDbXrecord
280
1
102
RTVSPropertyOp0
70
1
102
RTVSPropertyOp1
70
1
102
RTVSPropertyOp2
70
1
102
RTVSPropertyOp3
70
1
102
RTVSPropertyOp4
70
1
102
RTVSPropertyOp5
70
1
102
RTVSPropertyOp6
70
1
102
RTVSPropertyOp7
70
1
102
RTVSPropertyOp8
70
1
102
RTVSPropertyOp9
70
1
102
RTVSPropertyOp10
70
1
102
RTVSPropertyOp11
70
1
102
RTVSPropertyOp12
70
1
102
RTVSPropertyOp13
70
1
102
RTVSPropertyOp14
70
1
102
RTVSPropertyOp15
70
1
102
RTVSPropertyOp16
70
1
102
RTVSPropertyOp17
70
1
102
RTVSPropertyOp18
70
1
102
RTVSPropertyOp19
70
1
102
RTVSPropertyOp20
70
1
102
RTVSPropertyOp21
70
1
102
RTVSPropertyOp22
70
1
102
RTVSPropertyOp23
70
1
102
RTVSPropertyOp24
70
1
102
RTVSPropertyOp25
70
1
102
RTVSPropertyOp26
70
1
102
RTVSPropertyOp27
70
1
0
XRECORD
5
10A3
102
{ACAD_REACTORS
330
10A2
102
}
330
10A2
100
AcDbXrecord
280
1
102
RTVSPropertyOp0
70
0
102
RTVSPropertyOp1
70
0
102
RTVSPropertyOp2
70
0
102
RTVSPropertyOp3
70
0
102
RTVSPropertyOp4
70
0
102
RTVSPropertyOp5
70
0
102
RTVSPropertyOp6
70
0
102
RTVSPropertyOp7
70
0
102
RTVSPropertyOp8
70
0
102
RTVSPropertyOp9
70
0
102
RTVSPropertyOp10
70
0
102
RTVSPropertyOp11
70
0
102
RTVSPropertyOp12
70
0
102
RTVSPropertyOp13
70
0
102
RTVSPropertyOp14
70
2
102
RTVSPropertyOp15
70
0
102
RTVSPropertyOp16
70
0
102
RTVSPropertyOp17
70
0
102
RTVSPropertyOp18
70
0
102
RTVSPropertyOp19
70
0
102
RTVSPropertyOp20
70
0
102
RTVSPropertyOp21
70
0
102
RTVSPropertyOp22
70
0
102
RTVSPropertyOp23
70
0
102
RTVSPropertyOp24
70
0
102
RTVSPropertyOp25
70
0
102
RTVSPropertyOp26
70
0
102
RTVSPropertyOp27
70
0
0
XRECORD
5
1093
102
{ACAD_REACTORS
330
1092
102
}
330
1092
100
AcDbXrecord
280
1
102
RTVSPropertyOp0
70
1
102
RTVSPropertyOp1
70
1
102
RTVSPropertyOp2
70
1
102
RTVSPropertyOp3
70
1
102
RTVSPropertyOp4
70
1
102
RTVSPropertyOp5
70
1
102
RTVSPropertyOp6
70
1
102
RTVSPropertyOp7
70
1
102
RTVSPropertyOp8
70
1
102
RTVSPropertyOp9
70
1
102
RTVSPropertyOp10
70
1
102
RTVSPropertyOp11
70
1
102
RTVSPropertyOp12
70
1
102
RTVSPropertyOp13
70
1
102
RTVSPropertyOp14
70
1
102
RTVSPropertyOp15
70
1
102
RTVSPropertyOp16
70
1
102
RTVSPropertyOp17
70
1
102
RTVSPropertyOp18
70
1
102
RTVSPropertyOp19
70
1
102
RTVSPropertyOp20
70
1
102
RTVSPropertyOp21
70
1
102
RTVSPropertyOp22
70
1
102
RTVSPropertyOp23
70
1
102
RTVSPropertyOp24
70
1
102
RTVSPropertyOp25
70
1
102
RTVSPropertyOp26
70
1
102
RTVSPropertyOp27
70
1
0
XRECORD
5
1099
102
{ACAD_REACTORS
330
1098
102
}
330
1098
100
AcDbXrecord
280
1
102
RTVSPropertyOp0
70
1
102
RTVSPropertyOp1
70
1
102
RTVSPropertyOp2
70
1
102
RTVSPropertyOp3
70
1
102
RTVSPropertyOp4
70
1
102
RTVSPropertyOp5
70
1
102
RTVSPropertyOp6
70
1
102
RTVSPropertyOp7
70
1
102
RTVSPropertyOp8
70
1
102
RTVSPropertyOp9
70
1
102
RTVSPropertyOp10
70
1
102
RTVSPropertyOp11
70
1
102
RTVSPropertyOp12
70
1
102
RTVSPropertyOp13
70
1
102
RTVSPropertyOp14
70
1
102
RTVSPropertyOp15
70
1
102
RTVSPropertyOp16
70
1
102
RTVSPropertyOp17
70
1
102
RTVSPropertyOp18
70
1
102
RTVSPropertyOp19
70
1
102
RTVSPropertyOp20
70
1
102
RTVSPropertyOp21
70
1
102
RTVSPropertyOp22
70
1
102
RTVSPropertyOp23
70
1
102
RTVSPropertyOp24
70
1
102
RTVSPropertyOp25
70
1
102
RTVSPropertyOp26
70
1
102
RTVSPropertyOp27
70
1
0
ENDSEC
0
EOF
