0
SECTION
2
HEADER
9
$ACADVER
1
AC1015
9
$ACADMAINTVER
70
20
9
$DWGCODEPAGE
3
ANSI_1252
9
$INSBASE
10
0.0
20
0.0
30
0.0
9
$EXTMIN
10
-150.000000000000
20
-105.000000000000
30
0.0
9
$EXTMAX
10
150.000000000000
20
105.000000000000
30
0.0
9
$LIMMIN
10
0.0
20
0.0
9
$LIMMAX
10
12.0
20
9.0
9
$ORTHOMODE
70
0
9
$REGENMODE
70
1
9
$FILLMODE
70
1
9
$QTEXTMODE
70
0
9
$MIRRTEXT
70
1
9
$LTSCALE
40
1.0
9
$ATTMODE
70
1
9
$TEXTSIZE
40
0.2
9
$TRACEWID
40
0.05
9
$TEXTSTYLE
7
Standard
9
$CLAYER
8
0
9
$CELTYPE
6
ByLayer
9
$CECOLOR
62
256
9
$CELTSCALE
40
1.0
9
$DISPSILH
70
0
9
$DIMSCALE
40
1.0
9
$DIMASZ
40
2.5
9
$DIMEXO
40
0.625
9
$DIMDLI
40
0.38
9
$DIMRND
40
0.0
9
$DIMDLE
40
0.0
9
$DIMEXE
40
1.25
9
$DIMTP
40
0.0
9
$DIMTM
40
0.000000001
9
$DIMTXT
40
2.5
9
$DIMCEN
40
0.09
9
$DIMTSZ
40
0.0
9
$DIMTOL
70
1
9
$DIMLIM
70
0
9
$DIMTIH
70
0
9
$DIMTOH
70
0
9
$DIMSE1
70
0
9
$DIMSE2
70
0
9
$DIMTAD
70
1
9
$DIMZIN
70
0
9
$DIMBLK
1
VDDIM_DEFAULT
9
$DIMASO
70
1
9
$DIMSHO
70
1
9
$DIMPOST
1

9
$DIMAPOST
1

9
$DIMALT
70
0
9
$DIMALTD
70
2
9
$DIMALTF
40
25.4
9
$DIMLFAC
40
1.00000000000000
9
$DIMTOFL
70
0
9
$DIMTVP
40
0.0
9
$DIMTIX
70
0
9
$DIMSOXD
70
0
9
$DIMSAH
70
0
9
$DIMBLK1
1

9
$DIMBLK2
1

9
$DIMSTYLE
2
BEM-ISBE
9
$DIMCLRD
70
0
9
$DIMCLRE
70
0
9
$DIMCLRT
70
0
9
$DIMTFAC
40
0.5
9
$DIMGAP
40
0.625
9
$DIMJUST
70
0
9
$DIMSD1
70
0
9
$DIMSD2
70
0
9
$DIMTOLJ
70
1
9
$DIMTZIN
70
0
9
$DIMALTZ
70
0
9
$DIMALTTZ
70
0
9
$DIMUPT
70
0
9
$DIMDEC
70
3
9
$DIMTDEC
70
3
9
$DIMALTU
70
2
9
$DIMALTTD
70
2
9
$DIMTXSTY
7
Standard
9
$DIMAUNIT
70
0
9
$DIMADEC
70
3
9
$DIMALTRND
40
0.0
9
$DIMAZIN
70
0
9
$DIMDSEP
70
46
9
$DIMATFIT
70
3
9
$DIMFRAC
70
0
9
$DIMLDRBLK
1

9
$DIMLUNIT
70
2
9
$DIMLWD
70
-2
9
$DIMLWE
70
-2
9
$DIMTMOVE
70
0
9
$LUNITS
70
2
9
$LUPREC
70
4
9
$SKETCHINC
40
0.1
9
$FILLETRAD
40
0.5
9
$AUNITS
70
0
9
$AUPREC
70
0
9
$MENU
1
.
9
$ELEVATION
40
0.0
9
$PELEVATION
40
0.0
9
$THICKNESS
40
0.0
9
$LIMCHECK
70
0
9
$CHAMFERA
40
0.5
9
$CHAMFERB
40
0.5
9
$CHAMFERC
40
1.0
9
$CHAMFERD
40
0.0
9
$SKPOLY
70
0
9
$TDCREATE
40
0.0
9
$TDUCREATE
40
0.0
9
$TDUPDATE
40
0.0
9
$TDUUPDATE
40
0.0
9
$TDINDWG
40
0.0
9
$TDUSRTIMER
40
0.0
9
$USRTIMER
70
1
9
$ANGBASE
50
0.0
9
$ANGDIR
70
0
9
$PDMODE
70
0
9
$PDSIZE
40
0.0
9
$PLINEWID
40
0.0
9
$SPLFRAME
70
0
9
$SPLINETYPE
70
6
9
$SPLINESEGS
70
8
9
$HANDSEED
5
10AB
9
$SURFTAB1
70
6
9
$SURFTAB2
70
6
9
$SURFTYPE
70
6
9
$SURFU
70
6
9
$SURFV
70
6
9
$UCSBASE
2

9
$UCSNAME
2

9
$UCSORG
10
0.0
20
0.0
30
0.0
9
$UCSXDIR
10
1.0
20
0.0
30
0.0
9
$UCSYDIR
10
0.0
20
1.0
30
0.0
9
$UCSORTHOREF
2

9
$UCSORTHOVIEW
70
0
9
$UCSORGTOP
10
0.0
20
0.0
30
0.0
9
$UCSORGBOTTOM
10
0.0
20
0.0
30
0.0
9
$UCSORGLEFT
10
0.0
20
0.0
30
0.0
9
$UCSORGRIGHT
10
0.0
20
0.0
30
0.0
9
$UCSORGFRONT
10
0.0
20
0.0
30
0.0
9
$UCSORGBACK
10
0.0
20
0.0
30
0.0
9
$PUCSBASE
2

9
$PUCSNAME
2

9
$PUCSORG
10
0.0
20
0.0
30
0.0
9
$PUCSXDIR
10
1.0
20
0.0
30
0.0
9
$PUCSYDIR
10
0.0
20
1.0
30
0.0
9
$PUCSORTHOREF
2

9
$PUCSORTHOVIEW
70
0
9
$PUCSORGTOP
10
0.0
20
0.0
30
0.0
9
$PUCSORGBOTTOM
10
0.0
20
0.0
30
0.0
9
$PUCSORGLEFT
10
0.0
20
0.0
30
0.0
9
$PUCSORGRIGHT
10
0.0
20
0.0
30
0.0
9
$PUCSORGFRONT
10
0.0
20
0.0
30
0.0
9
$PUCSORGBACK
10
0.0
20
0.0
30
0.0
9
$USERI1
70
0
9
$USERI2
70
0
9
$USERI3
70
0
9
$USERI4
70
0
9
$USERI5
70
0
9
$USERR1
40
0.0
9
$USERR2
40
0.0
9
$USERR3
40
0.0
9
$USERR4
40
0.0
9
$USERR5
40
0.0
9
$WORLDVIEW
70
1
9
$SHADEDGE
70
3
9
$SHADEDIF
70
70
9
$TILEMODE
70
1
9
$MAXACTVP
70
64
9
$PINSBASE
10
0.0
20
0.0
30
0.0
9
$PLIMCHECK
70
0
9
$PEXTMIN
10
1.000000000000000E+20
20
1.000000000000000E+20
30
1.000000000000000E+20
9
$PEXTMAX
10
-1.000000000000000E+20
20
-1.000000000000000E+20
30
-1.000000000000000E+20
9
$PLIMMIN
10
0.0
20
0.0
9
$PLIMMAX
10
12.0
20
9.0
9
$UNITMODE
70
0
9
$VISRETAIN
70
1
9
$PLINEGEN
70
0
9
$PSLTSCALE
70
1
9
$TREEDEPTH
70
3020
9
$CMLSTYLE
2
Standard
9
$CMLJUST
70
0
9
$CMLSCALE
40
1.0
9
$PROXYGRAPHICS
70
1
9
$MEASUREMENT
70
0
9
$CELWEIGHT
370
-1
9
$ENDCAPS
280
0
9
$JOINSTYLE
280
0
9
$LWDISPLAY
290
0
9
$INSUNITS
70
4
9
$HYPERLINKBASE
1

9
$STYLESHEET
1

9
$XEDIT
290
1
9
$CEPSNTYPE
380
0
9
$PSTYLEMODE
290
0
9
$FINGERPRINTGUID
2
{FAEB1C30-E019-11D5-929B-00C0DF256EC4}
9
$VERSIONGUID
2
{04C5C4E4-4947-4D90-8812-D401569E61F7}
9
$EXTNAMES
290
1
9
$PSVPSCALE
40
0.0
9
$OLESTARTUP
290
0
0
ENDSEC
0
SECTION
2
CLASSES
0
CLASS
1
ACDBDICTIONARYWDFLT
2
AcDbDictionaryWithDefault
3
ObjectDBX Classes
90
0
280
0
281
0
0
CLASS
1
ACDBPLACEHOLDER
2
AcDbPlaceHolder
3
ObjectDBX Classes
90
0
280
0
281
0
0
CLASS
1
LAYOUT
2
AcDbLayout
3
ObjectDBX Classes
90
0
280
0
281
0
0
CLASS
1
MATERIAL
2
AcDbMaterial
3
ObjectDBX Classes
90
1153
280
0
281
0
0
CLASS
1
VISUALSTYLE
2
AcDbVisualStyle
3
ObjectDBX Classes
90
4095
280
0
281
0
0
CLASS
1
TABLESTYLE
2
AcDbTableStyle
3
ObjectDBX Classes
90
4095
280
0
281
0
0
CLASS
1
SCALE
2
AcDbScale
3
ObjectDBX Classes
90
1153
280
0
281
0
0
CLASS
1
MLEADERSTYLE
2
AcDbMLeaderStyle
3
ACDB_MLEADERSTYLE_CLASS
90
4095
280
0
281
0
0
CLASS
1
DICTIONARYVAR
2
AcDbDictionaryVar
3
ObjectDBX Classes
90
0
280
0
281
0
0
CLASS
1
CELLSTYLEMAP
2
AcDbCellStyleMap
3
ObjectDBX Classes
90
1152
280
0
281
0
0
ENDSEC
0
SECTION
2
TABLES
0
TABLE
2
VPORT
5
24A
330
0
100
AcDbSymbolTable
70
1
0
VPORT
5
26B
330
24A
100
AcDbSymbolTableRecord
100
AcDbViewportTableRecord
2
*Active
70
0
10
0.0
20
0.0
11
1.0
21
1.0
12
0.00000000000000
22
0.00000000000000
13
0.0
23
0.0
14
10.0
24
10.0
15
10.0
25
10.0
16
0.0
26
0.0
36
1.0
17
0.0
27
0.0
37
0.0
40
210.000000000000
41
1.42857142857143
42
1.0
43
0.0
44
0.0
50
0.0
51
0.0000000000007958
71
0
72
100
73
1
74
3
75
0
76
0
77
0
78
1
281
0
65
1
110
0.0
120
0.0
130
0.0
111
1.0
121
0.0
131
0.0
112
0.0
122
1.0
132
0.0
79
0
146
0.0
0
ENDTAB
0
TABLE
2
LTYPE
5
247
330
0
100
AcDbSymbolTable
70
25
0
LTYPE
5
256
330
247
100
AcDbSymbolTableRecord
100
AcDbLinetypeTableRecord
2
ByBlock
70
0
3

72
65
73
0
40
0.0
0
LTYPE
5
257
330
247
100
AcDbSymbolTableRecord
100
AcDbLinetypeTableRecord
2
ByLayer
70
0
3

72
65
73
0
40
0.0
0
LTYPE
5
258
330
247
100
AcDbSymbolTableRecord
100
AcDbLinetypeTableRecord
2
Continuous
70
0
3
Solid line
72
65
73
0
40
0.0
0
LTYPE
5
273
330
247
100
AcDbSymbolTableRecord
100
AcDbLinetypeTableRecord
2
CENTER
70
0
3
Center ____ _ ____ _ ____ _ ____ _ ____ _ ____
72
65
73
4
40
2.0
49
1.25
74
0
49
-0.25
74
0
49
0.25
74
0
49
-0.25
74
0
0
LTYPE
5
274
330
247
100
AcDbSymbolTableRecord
100
AcDbLinetypeTableRecord
2
DASHDOT
70
0
3
Dashdot __ . __ . __ . __ . __ . __ . __ . __
72
65
73
4
40
1.0
49
0.5
74
0
49
-0.25
74
0
49
0.0
74
0
49
-0.25
74
0
0
LTYPE
5
275
330
247
100
AcDbSymbolTableRecord
100
AcDbLinetypeTableRecord
2
DASHED
70
0
3
Dashed __ __ __ __ __ __ __ __ __ __ __ __ __ _
72
65
73
2
40
0.75
49
0.5
74
0
49
-0.25
74
0
0
LTYPE
5
276
330
247
100
AcDbSymbolTableRecord
100
AcDbLinetypeTableRecord
2
HIDDEN
70
0
3
Hidden __ __ __ __ __ __ __ __ __ __ __ __ __ __
72
65
73
2
40
0.375
49
0.25
74
0
49
-0.125
74
0
0
LTYPE
5
277
330
247
100
AcDbSymbolTableRecord
100
AcDbLinetypeTableRecord
2
HIDDEN2
70
0
3
Hidden2 _ _ _ _ _ _ _ _ _ _ _ _ _ _ _ _ _
72
65
73
2
40
0.1875
49
0.125
74
0
49
-0.0625
74
0
0
LTYPE
5
278
330
247
100
AcDbSymbolTableRecord
100
AcDbLinetypeTableRecord
2
BORDER
70
0
3
Border __ __ . __ __ . __ __ . __ __ . __ __ .
72
65
73
6
40
1.75
49
0.5
74
0
49
-0.25
74
0
49
0.5
74
0
49
-0.25
74
0
49
0.0
74
0
49
-0.25
74
0
0
LTYPE
5
279
330
247
100
AcDbSymbolTableRecord
100
AcDbLinetypeTableRecord
2
BORDER2
70
0
3
Border2 __.__.__.__.__.__.__.__.__.__.__.
72
65
73
6
40
0.875
49
0.25
74
0
49
-0.125
74
0
49
0.25
74
0
49
-0.125
74
0
49
0.0
74
0
49
-0.125
74
0
0
LTYPE
5
27A
330
247
100
AcDbSymbolTableRecord
100
AcDbLinetypeTableRecord
2
BORDERX2
70
0
3
Borderx2  ____  ____  .  ____  ____  .  ___
72
65
73
6
40
3.5
49
1.0
74
0
49
-0.5
74
0
49
1.0
74
0
49
-0.5
74
0
49
0.0
74
0
49
-0.5
74
0
0
LTYPE
5
27B
330
247
100
AcDbSymbolTableRecord
100
AcDbLinetypeTableRecord
2
CENTER2
70
0
3
Center2  ___ _ ___ _ ___ _ ___ _ ___ _ ___
72
65
73
4
40
1.125
49
0.75
74
0
49
-0.125
74
0
49
0.125
74
0
49
-0.125
74
0
0
LTYPE
5
27C
330
247
100
AcDbSymbolTableRecord
100
AcDbLinetypeTableRecord
2
CENTERX2
70
0
3
Centerx2  ________  __  ________  __  _____
72
65
73
4
40
4.0
49
2.5
74
0
49
-0.5
74
0
49
0.5
74
0
49
-0.5
74
0
0
LTYPE
5
27D
330
247
100
AcDbSymbolTableRecord
100
AcDbLinetypeTableRecord
2
DASHDOT2
70
0
3
Dashdot2  _._._._._._._._._._._._._._._.
72
65
73
4
40
0.5
49
0.25
74
0
49
-0.125
74
0
49
0.0
74
0
49
-0.125
74
0
0
LTYPE
5
27E
330
247
100
AcDbSymbolTableRecord
100
AcDbLinetypeTableRecord
2
DASHDOTX2
70
0
3
Dashdotx2 ____  .  ____  .  ____  .  ___
72
65
73
4
40
2.0
49
1.0
74
0
49
-0.5
74
0
49
0.0
74
0
49
-0.5
74
0
0
LTYPE
5
27F
330
247
100
AcDbSymbolTableRecord
100
AcDbLinetypeTableRecord
2
DASHED2
70
0
3
Dashed2 _ _ _ _ _ _ _ _ _ _ _ _ _ _ _ _ _
72
65
73
2
40
0.375
49
0.25
74
0
49
-0.125
74
0
0
LTYPE
5
280
330
247
100
AcDbSymbolTableRecord
100
AcDbLinetypeTableRecord
2
DASHEDX2
70
0
3
Dashedx2 ____  ____  ____  ____  ____  ___
72
65
73
2
40
1.5
49
1.0
74
0
49
-0.5
74
0
0
LTYPE
5
281
330
247
100
AcDbSymbolTableRecord
100
AcDbLinetypeTableRecord
2
DIVIDE
70
0
3
Divide ____ . . ____ . . ____ . . ____ . . ____
72
65
73
6
40
1.25
49
0.5
74
0
49
-0.25
74
0
49
0.0
74
0
49
-0.25
74
0
49
0.0
74
0
49
-0.25
74
0
0
LTYPE
5
282
330
247
100
AcDbSymbolTableRecord
100
AcDbLinetypeTableRecord
2
DIVIDE2
70
0
3
Divide2 __..__..__..__..__..__..__..__.._
72
65
73
6
40
0.625
49
0.25
74
0
49
-0.125
74
0
49
0.0
74
0
49
-0.125
74
0
49
0.0
74
0
49
-0.125
74
0
0
LTYPE
5
283
330
247
100
AcDbSymbolTableRecord
100
AcDbLinetypeTableRecord
2
DIVIDEX2
70
0
3
Dividex2 ________  .  .  ________  .  .  _
72
65
73
6
40
2.5
49
1.0
74
0
49
-0.5
74
0
49
0.0
74
0
49
-0.5
74
0
49
0.0
74
0
49
-0.5
74
0
0
LTYPE
5
284
330
247
100
AcDbSymbolTableRecord
100
AcDbLinetypeTableRecord
2
DOT
70
0
3
Dot . . . . . . . . . . . . . . . . . . . . . . . .
72
65
73
2
40
0.25
49
0.0
74
0
49
-0.25
74
0
0
LTYPE
5
285
330
247
100
AcDbSymbolTableRecord
100
AcDbLinetypeTableRecord
2
DOT2
70
0
3
Dot2 ........................................
72
65
73
2
40
0.125
49
0.0
74
0
49
-0.125
74
0
0
LTYPE
5
286
330
247
100
AcDbSymbolTableRecord
100
AcDbLinetypeTableRecord
2
DOTX2
70
0
3
Dotx2 .  .  .  .  .  .  .  .  .  .  .  .  .  .
72
65
73
2
40
0.5
49
0.0
74
0
49
-0.5
74
0
0
LTYPE
5
287
330
247
100
AcDbSymbolTableRecord
100
AcDbLinetypeTableRecord
2
HIDDENX2
70
0
3
Hiddenx2 ____ ____ ____ ____ ____ ____ ____
72
65
73
2
40
0.75
49
0.5
74
0
49
-0.25
74
0
0
LTYPE
5
288
330
247
100
AcDbSymbolTableRecord
100
AcDbLinetypeTableRecord
2
PHANTOM
70
0
3
Phantom ______  __  __  ______  __  __  ______
72
65
73
6
40
2.5
49
1.25
74
0
49
-0.25
74
0
49
0.25
74
0
49
-0.25
74
0
49
0.25
74
0
49
-0.25
74
0
0
LTYPE
5
289
330
247
100
AcDbSymbolTableRecord
100
AcDbLinetypeTableRecord
2
PHANTOM2
70
0
3
Phantom2 ___ _ _ ___ _ _ ___ _ _ ___ _ _
72
65
73
6
40
1.25
49
0.625
74
0
49
-0.125
74
0
49
0.125
74
0
49
-0.125
74
0
49
0.125
74
0
49
-0.125
74
0
0
LTYPE
5
28A
330
247
100
AcDbSymbolTableRecord
100
AcDbLinetypeTableRecord
2
PHANTOMX2
70
0
3
Phantomx2 ____________    ____    ____   _
72
65
73
6
40
5.0
49
2.5
74
0
49
-0.5
74
0
49
0.5
74
0
49
-0.5
74
0
49
0.5
74
0
49
-0.5
74
0
0
ENDTAB
0
TABLE
2
LAYER
5
244
330
0
100
AcDbSymbolTable
70
6
0
LAYER
5
252
330
244
100
AcDbSymbolTableRecord
100
AcDbLayerTableRecord
2
0
70
0
62
7
6
Continuous
370
0
390
251
0
LAYER
5
23F
330
244
100
AcDbSymbolTableRecord
100
AcDbLayerTableRecord
2
Bemassung
70
0
 62
   7
6
Continuous
370
0
390
251
0
LAYER
5
240
330
244
100
AcDbSymbolTableRecord
100
AcDbLayerTableRecord
2
Rahmen
70
0
 62
   7
6
Continuous
370
0
390
251
0
LAYER
5
241
330
244
100
AcDbSymbolTableRecord
100
AcDbLayerTableRecord
2
Geo
70
0
 62
   7
6
Continuous
370
0
390
251
0
LAYER
5
33A
330
244
100
AcDbSymbolTableRecord
100
AcDbLayerTableRecord
2
Defpoints
70
0
62
7
6
Continuous
290
0
370
-3
390
251
0
LAYER
5
57E
330
244
100
AcDbSymbolTableRecord
100
AcDbLayerTableRecord
2
Text
70
0
 62
   7
6
Continuous
370
0
390
251
1001
AcAecLayerStandard
1000

1000

0
ENDTAB
0
TABLE
2
STYLE
5
245
330
0
100
AcDbSymbolTable
70
2
0
STYLE
5
253
330
245
100
AcDbSymbolTableRecord
100
AcDbTextStyleTableRecord
2
Standard
70
0
40
0.0
41
1.0
50
0.0
71
0
42
0.2
3
Arial
4

1001
ACAD
1000
Arial
1071
0
0
STYLE
5
132
330
245
100
AcDbSymbolTableRecord
100
AcDbTextStyleTableRecord
2
Beschriftung
70
0
40
0.0
41
1.0
50
0.0
71
0
42
0.2
3
Arial
4

1001
ACAD
1000
Arial
1071
0
1001
AcadAnnotative
1000
AnnotativeData
1070
1
1070
1
0
ENDTAB
0
TABLE
2
VIEW
5
248
330
0
100
AcDbSymbolTable
70
0
0
ENDTAB
0
TABLE
2
UCS
5
249
330
0
100
AcDbSymbolTable
70
0
0
ENDTAB
0
TABLE
2
APPID
5
24B
330
0
100
AcDbSymbolTable
70
13
0
APPID
5
254
330
24B
100
AcDbSymbolTableRecord
100
AcDbRegAppTableRecord
2
ACAD
70
0
0
APPID
5
26C
330
24B
100
AcDbSymbolTableRecord
100
AcDbRegAppTableRecord
2
VD_INVISIBLE_NOT_FOR_READ
70
0
0
APPID
5
26D
330
24B
100
AcDbSymbolTableRecord
100
AcDbRegAppTableRecord
2
VD_TEMPHATCH
70
0
0
APPID
5
26E
330
24B
100
AcDbSymbolTableRecord
100
AcDbRegAppTableRecord
2
VDEXTRAPARAM
70
0
0
APPID
5
26F
330
24B
100
AcDbSymbolTableRecord
100
AcDbRegAppTableRecord
2
PE_URL
70
0
0
APPID
5
270
330
24B
100
AcDbSymbolTableRecord
100
AcDbRegAppTableRecord
2
VD_UNKNOWN
70
0
0
APPID
5
28F
330
24B
100
AcDbSymbolTableRecord
100
AcDbRegAppTableRecord
2
AcadAnnotative
70
0
0
APPID
5
290
330
24B
100
AcDbSymbolTableRecord
100
AcDbRegAppTableRecord
2
ACAD_DSTYLE_DIMJAG
70
0
0
APPID
5
291
330
24B
100
AcDbSymbolTableRecord
100
AcDbRegAppTableRecord
2
ACAD_DSTYLE_DIMTALN
70
0
0
APPID
5
293
330
24B
100
AcDbSymbolTableRecord
100
AcDbRegAppTableRecord
2
ACAD_PSEXT
70
0
0
APPID
5
42A
330
24B
100
AcDbSymbolTableRecord
100
AcDbRegAppTableRecord
2
ACAD_MLEADERVER
70
0
0
APPID
5
532
330
24B
100
AcDbSymbolTableRecord
100
AcDbRegAppTableRecord
2
ACAD_EXEMPT_FROM_CAD_STANDARDS
70
0
0
APPID
5
57F
330
24B
100
AcDbSymbolTableRecord
100
AcDbRegAppTableRecord
2
AcAecLayerStandard
70
0
0
ENDTAB
0
TABLE
2
DIMSTYLE
5
24C
330
0
100
AcDbSymbolTable
70
3
100
AcDbDimStyleTable
71
2
340
27
340
269
0
DIMSTYLE
105
269
330
24C
100
AcDbSymbolTableRecord
100
AcDbDimStyleTableRecord
2
Standard
70
0
172
1
174
1
288
1
340
253
342
23C
0
DIMSTYLE
105
137
330
24C
100
AcDbSymbolTableRecord
100
AcDbDimStyleTableRecord
2
Beschriftung
70
0
41
2.5
42
0.625
44
1.25
73
0
74
0
77
1
140
2.5
147
0.625
172
1
174
1
271
2
288
1
340
253
342
23C
1001
AcadAnnotative
1000
AnnotativeData
1070
1
1070
1
1001
ACAD_DSTYLE_DIMJAG
1070
388
1040
1.5
1001
ACAD_DSTYLE_DIMTALN
1070
392
1070
0
0
DIMSTYLE
105
27
102
{ACAD_REACTORS
102
}
330
24C
100
AcDbSymbolTableRecord
100
AcDbDimStyleTableRecord
2
BEM-ISBE
70
0
41
2.5
42
0.625
44
1.25
48
0.000000001
71
1
73
0
74
0
77
1
140
2.5
144
1.00000000000000
146
0.5
147
0.625
171
 3
172
 1
179
 3
271
 3
272
 3
274
 3
340
253
342
23C
1001
ACAD_DSTYLE_DIMJAG
1070
388
1040
1.5
1001
ACAD_DSTYLE_DIMTALN
1070
392
1070
1
0
ENDTAB
0
TABLE
2
BLOCK_RECORD
5
243
330
0
100
AcDbSymbolTable
70
5
0
BLOCK_RECORD
5
261
330
243
100
AcDbSymbolTableRecord
100
AcDbBlockTableRecord
2
*Model_Space
340
FD0
0
BLOCK_RECORD
5
25D
330
243
100
AcDbSymbolTableRecord
100
AcDbBlockTableRecord
2
*Paper_Space
340
FD1
0
BLOCK_RECORD
5
265
330
243
100
AcDbSymbolTableRecord
100
AcDbBlockTableRecord
2
*Paper_Space0
340
0
0
BLOCK_RECORD
5
23C
330
243
100
AcDbSymbolTableRecord
100
AcDbBlockTableRecord
2
VDDIM_DEFAULT
340
0
102
{BLKREFS
102
}
0
BLOCK_RECORD
5
23E
330
243
100
AcDbSymbolTableRecord
100
AcDbBlockTableRecord
2
VDDIM_NONE
340
0
0
ENDTAB
0
ENDSEC
0
SECTION
2
BLOCKS
0
BLOCK
5
262
330
261
100
AcDbEntity
8
0
100
AcDbBlockBegin
2
*Model_Space
70
0
10
0.0
20
0.0
30
0.0
3
*Model_Space
1

0
ENDBLK
5
263
330
261
100
AcDbEntity
8
0
100
AcDbBlockEnd
0
BLOCK
5
25E
330
25D
100
AcDbEntity
67
1
8
0
100
AcDbBlockBegin
2
*Paper_Space
70
0
10
0.0
20
0.0
30
0.0
3
*Paper_Space
1

0
ENDBLK
5
25F
330
25D
100
AcDbEntity
67
1
8
0
100
AcDbBlockEnd
0
BLOCK
5
266
330
265
100
AcDbEntity
8
0
100
AcDbBlockBegin
2
*Paper_Space0
70
0
10
0.0
20
0.0
30
0.0
3
*Paper_Space0
1

0
VIEWPORT
5
296
102
{ACAD_XDICTIONARY
360
58E
102
}
330
265
100
AcDbEntity
8
0
60
1
100
AcDbViewport
10
0.0
20
0.0
30
0.0
40
10.0
41
10.0
69
0
12
0.0
22
0.0
13
0.0
23
0.0
14
1.0
24
1.0
15
0.0
25
0.0
16
0.0
26
0.0
36
1.0
17
0.0
27
0.0
37
0.0
42
0.0
43
0.0
44
0.0
45
10.0
50
0.0
51
0.0000000000007958
72
100
90
163872
1

281
0
71
0
74
0
110
0.0
120
0.0
130
0.0
111
1.0
121
0.0
131
0.0
112
0.0
122
1.0
132
0.0
79
0
146
0.0
1001
VD_INVISIBLE_NOT_FOR_READ
1000
VD_INVISIBLE_NOT_FOR_READ
0
VIEWPORT
5
297
102
{ACAD_XDICTIONARY
360
590
102
}
330
265
100
AcDbEntity
8
0
60
1
100
AcDbViewport
10
0.0
20
0.0
30
0.0
40
10.0
41
10.0
69
0
12
0.0
22
0.0
13
0.0
23
0.0
14
1.0
24
1.0
15
0.0
25
0.0
16
0.0
26
0.0
36
1.0
17
0.0
27
0.0
37
0.0
42
0.0
43
0.0
44
0.0
45
10.0
50
0.0
51
0.0000000000007958
72
100
90
163872
1

281
0
71
0
74
0
110
0.0
120
0.0
130
0.0
111
1.0
121
0.0
131
0.0
112
0.0
122
1.0
132
0.0
79
0
146
0.0
1001
VD_INVISIBLE_NOT_FOR_READ
1000
VD_INVISIBLE_NOT_FOR_READ
0
ENDBLK
5
267
330
265
100
AcDbEntity
8
0
100
AcDbBlockEnd
0
BLOCK
5
28B
330
23C
100
AcDbEntity
8
0
100
AcDbBlockBegin
2
VDDIM_DEFAULT
70
0
10
0.0
20
0.0
30
0.0
3
VDDIM_DEFAULT
1

0
LWPOLYLINE
5
23D
330
23C
100
AcDbEntity
8
0
6
Continuous
62
0
100
AcDbPolyline
90
4
70
0
43
0.0
10
0.0
20
0.0
10
-1.0
20
-0.1665
10
-1.0
20
0.1665
10
0.0
20
0.0
1001
VDEXTRAPARAM
1071
1
1071
0
1071
0
1040
1.0
1000

1000

1040
0.0
1040
0.0
0
HATCH
5
292
330
23C
100
AcDbEntity
8
0
6
Continuous
62
0
100
AcDbHatch
10
0.0
20
0.0
30
0.0
210
0.0
220
0.0
230
1.0
2
SOLID
70
1
71
0
91
1
92
2
72
0
73
1
93
3
10
0.0
20
0.0
10
-1.0
20
-0.1665
10
-1.0
20
0.1665
97
0
75
0
76
1
98
1
10
0.0
20
0.0
1001
VDEXTRAPARAM
1071
1
1071
0
1071
0
1040
1.0
1000

1000

1040
0.0
1040
0.0
1001
VD_TEMPHATCH
1000
VD_TEMPHATCH
0
ENDBLK
5
28C
330
23C
100
AcDbEntity
8
0
100
AcDbBlockEnd
0
BLOCK
5
28D
330
23E
100
AcDbEntity
8
0
100
AcDbBlockBegin
2
VDDIM_NONE
70
0
10
0.0
20
0.0
30
0.0
3
VDDIM_NONE
1

0
ENDBLK
5
28E
330
23E
100
AcDbEntity
8
0
100
AcDbBlockEnd
0
ENDSEC
0
SECTION
2
ENTITIES
  0
ARC
  5
F10002
330
F10003
100
AcDbEntity
8
Geo
100
AcDbCircle
10
-68.8024802329248
20
17.7317545888673
30
0.00000000000000
 40
0.750000000000000
100
AcDbArc
 50
90.0000000000000
 51
180.000000000000
  0
LINE
  5
F10004
330
F10005
100
AcDbEntity
8
Geo
100
AcDbLine
10
-68.8024802329248
20
18.4817545888673
30
0.00000000000000
11
-65.5524802329248
21
18.4817545888673
31
0.00000000000000
  0
LINE
  5
F10006
330
F10007
100
AcDbEntity
8
Geo
100
AcDbLine
10
-65.5524802329248
20
18.4817545888673
30
0.00000000000000
11
-65.5515945499547
21
18.4817545888673
31
0.00000000000000
  0
LINE
  5
F10008
330
F10009
100
AcDbEntity
8
Geo
100
AcDbLine
10
-65.5515945499547
20
18.4817545888673
30
0.00000000000000
11
-57.1544802329248
21
20.7317545888673
31
0.00000000000000
  0
LINE
  5
F1000A
330
F1000B
100
AcDbEntity
8
Geo
100
AcDbLine
10
-57.1544802329248
20
20.7317545888673
30
0.00000000000000
11
-20.1524802329248
21
20.7317545888673
31
0.00000000000000
  0
LINE
  5
F1000C
330
F1000D
100
AcDbEntity
8
Geo
100
AcDbLine
10
-20.1524802329248
20
20.7317545888673
30
0.00000000000000
11
-19.5524802329248
21
20.1317545888673
31
0.00000000000000
  0
LINE
  5
F1000E
330
F1000F
100
AcDbEntity
8
Geo
100
AcDbLine
10
-69.4378135662581
20
18.1303164480004
30
0.00000000000000
11
-69.4378135662581
21
18.1300245623550
31
0.00000000000000
  0
LINE
  5
F10010
330
F10011
100
AcDbEntity
8
Geo
100
AcDbLine
10
-69.4378135662581
20
18.1300245623550
30
0.00000000000000
11
-69.4234802329248
21
18.1501031858344
31
0.00000000000000
  0
LINE
  5
F10012
330
F10013
100
AcDbEntity
8
Geo
100
AcDbLine
10
-69.4234802329248
20
18.1501031858344
30
0.00000000000000
11
-69.4091468995914
21
18.1682483090131
31
0.00000000000000
  0
LINE
  5
F10014
330
F10015
100
AcDbEntity
8
Geo
100
AcDbLine
10
-69.4091468995914
20
18.1682483090131
30
0.00000000000000
11
-69.3948135662581
21
18.1851140764815
31
0.00000000000000
  0
LINE
  5
F10016
330
F10017
100
AcDbEntity
8
Geo
100
AcDbLine
10
-69.3948135662581
20
18.1851140764815
30
0.00000000000000
11
-69.3804802329248
21
18.2009891722377
31
0.00000000000000
  0
LINE
  5
F10018
330
F10019
100
AcDbEntity
8
Geo
100
AcDbLine
10
-69.3804802329248
20
18.2009891722377
30
0.00000000000000
11
-69.3661468995914
21
18.2160420268957
31
0.00000000000000
  0
LINE
  5
F1001A
330
F1001B
100
AcDbEntity
8
Geo
100
AcDbLine
10
-69.3661468995914
20
18.2160420268957
30
0.00000000000000
11
-69.3518135662581
21
18.2303794104768
31
0.00000000000000
  0
LINE
  5
F1001C
330
F1001D
100
AcDbEntity
8
Geo
100
AcDbLine
10
-69.3518135662581
20
18.2303794104768
30
0.00000000000000
11
-69.3374802329248
21
18.2440828902312
31
0.00000000000000
  0
LINE
  5
F1001E
330
F1001F
100
AcDbEntity
8
Geo
100
AcDbLine
10
-69.3374802329248
20
18.2440828902312
30
0.00000000000000
11
-69.3231468995914
21
18.2571744721604
31
0.00000000000000
  0
LINE
  5
F10020
330
F10021
100
AcDbEntity
8
Geo
100
AcDbLine
10
-69.3231468995914
20
18.2571744721604
30
0.00000000000000
11
-69.3088135662581
21
18.2694792015058
31
0.00000000000000
  0
LINE
  5
F10022
330
F10023
100
AcDbEntity
8
Geo
100
AcDbLine
10
-69.3088135662581
20
18.2694792015058
30
0.00000000000000
11
-69.2944802329248
21
18.2809980823482
31
0.00000000000000
  0
LINE
  5
F10024
330
F10025
100
AcDbEntity
8
Geo
100
AcDbLine
10
-69.2944802329248
20
18.2809980823482
30
0.00000000000000
11
-69.2801468995914
21
18.2917762170025
31
0.00000000000000
  0
LINE
  5
F10026
330
F10027
100
AcDbEntity
8
Geo
100
AcDbLine
10
-69.2801468995914
20
18.2917762170025
30
0.00000000000000
11
-69.2658135662581
21
18.3018526075769
31
0.00000000000000
  0
LINE
  5
F10028
330
F10029
100
AcDbEntity
8
Geo
100
AcDbLine
10
-69.2658135662581
20
18.3018526075769
30
0.00000000000000
11
-69.2514802329248
21
18.3112612562722
31
0.00000000000000
  0
LINE
  5
F1002A
330
F1002B
100
AcDbEntity
8
Geo
100
AcDbLine
10
-69.2514802329248
20
18.3112612562722
30
0.00000000000000
11
-69.2371468995915
21
18.3200320265648
31
0.00000000000000
  0
LINE
  5
F1002C
330
F1002D
100
AcDbEntity
8
Geo
100
AcDbLine
10
-69.2371468995915
20
18.3200320265648
30
0.00000000000000
11
-69.2228135662581
21
18.3281913258114
31
0.00000000000000
  0
LINE
  5
F1002E
330
F1002F
100
AcDbEntity
8
Geo
100
AcDbLine
10
-69.2228135662581
20
18.3281913258114
30
0.00000000000000
11
-69.2084802329248
21
18.3357626524962
31
0.00000000000000
  0
LINE
  5
F10030
330
F10031
100
AcDbEntity
8
Geo
100
AcDbLine
10
-69.2084802329248
20
18.3357626524962
30
0.00000000000000
11
-69.1941468995914
21
18.3427670394911
31
0.00000000000000
  0
LINE
  5
F10032
330
F10033
100
AcDbEntity
8
Geo
100
AcDbLine
10
-69.1941468995914
20
18.3427670394911
30
0.00000000000000
11
-69.1798135662581
21
18.3492234164554
31
0.00000000000000
  0
LINE
  5
F10034
330
F10035
100
AcDbEntity
8
Geo
100
AcDbLine
10
-69.1798135662581
20
18.3492234164554
30
0.00000000000000
11
-69.1654802329248
21
18.3551489086546
31
0.00000000000000
  0
LINE
  5
F10036
330
F10037
100
AcDbEntity
8
Geo
100
AcDbLine
10
-69.1654802329248
20
18.3551489086546
30
0.00000000000000
11
-69.1511468995915
21
18.3605590852767
31
0.00000000000000
  0
LINE
  5
F10038
330
F10039
100
AcDbEntity
8
Geo
100
AcDbLine
10
-69.1511468995915
20
18.3605590852767
30
0.00000000000000
11
-69.1368135662581
21
18.3654681672563
31
0.00000000000000
  0
LINE
  5
F1003A
330
F1003B
100
AcDbEntity
8
Geo
100
AcDbLine
10
-69.1368135662581
20
18.3654681672563
30
0.00000000000000
11
-69.1224802329248
21
18.3698892023534
31
0.00000000000000
  0
LINE
  5
F1003C
330
F1003D
100
AcDbEntity
8
Geo
100
AcDbLine
10
-69.1224802329248
20
18.3698892023534
30
0.00000000000000
11
-69.1081468995914
21
18.3738342135378
31
0.00000000000000
  0
LINE
  5
F1003E
330
F1003F
100
AcDbEntity
8
Geo
100
AcDbLine
10
-69.1081468995914
20
18.3738342135378
30
0.00000000000000
11
-69.0938135662581
21
18.3773143254498
31
0.00000000000000
  0
LINE
  5
F10040
330
F10041
100
AcDbEntity
8
Geo
100
AcDbLine
10
-69.0938135662581
20
18.3773143254498
30
0.00000000000000
11
-69.0794802329248
21
18.3803398727309
31
0.00000000000000
  0
LINE
  5
F10042
330
F10043
100
AcDbEntity
8
Geo
100
AcDbLine
10
-69.0794802329248
20
18.3803398727309
30
0.00000000000000
11
-69.0651468995914
21
18.3829204932620
31
0.00000000000000
  0
LINE
  5
F10044
330
F10045
100
AcDbEntity
8
Geo
100
AcDbLine
10
-69.0651468995914
20
18.3829204932620
30
0.00000000000000
11
-69.0508135662581
21
18.3850652087629
31
0.00000000000000
  0
LINE
  5
F10046
330
F10047
100
AcDbEntity
8
Geo
100
AcDbLine
10
-69.0508135662581
20
18.3850652087629
30
0.00000000000000
11
-69.0364802329248
21
18.3867824947436
31
0.00000000000000
  0
LINE
  5
F10048
330
F10049
100
AcDbEntity
8
Geo
100
AcDbLine
10
-69.0364802329248
20
18.3867824947436
30
0.00000000000000
11
-69.0221468995914
21
18.3880803414379
31
0.00000000000000
  0
LINE
  5
F1004A
330
F1004B
100
AcDbEntity
8
Geo
100
AcDbLine
10
-69.0221468995914
20
18.3880803414379
30
0.00000000000000
11
-69.0078135662581
21
18.3889663070579
31
0.00000000000000
  0
LINE
  5
F1004C
330
F1004D
100
AcDbEntity
8
Geo
100
AcDbLine
10
-69.0078135662581
20
18.3889663070579
30
0.00000000000000
11
-68.9934802329248
21
18.3894475644757
31
0.00000000000000
  0
LINE
  5
F1004E
330
F1004F
100
AcDbEntity
8
Geo
100
AcDbLine
10
-68.9934802329248
20
18.3894475644757
30
0.00000000000000
11
-68.9791468995914
21
18.3895309422549
31
0.00000000000000
  0
LINE
  5
F10050
330
F10051
100
AcDbEntity
8
Geo
100
AcDbLine
10
-68.9791468995914
20
18.3895309422549
30
0.00000000000000
11
-68.9648135662581
21
18.3892229607967
31
0.00000000000000
  0
LINE
  5
F10052
330
F10053
100
AcDbEntity
8
Geo
100
AcDbLine
10
-68.9648135662581
20
18.3892229607967
30
0.00000000000000
11
-68.9504802329248
21
18.3885298642472
31
0.00000000000000
  0
LINE
  5
F10054
330
F10055
100
AcDbEntity
8
Geo
100
AcDbLine
10
-68.9504802329248
20
18.3885298642472
30
0.00000000000000
11
-68.9361468995914
21
18.3874576487052
31
0.00000000000000
  0
LINE
  5
F10056
330
F10057
100
AcDbEntity
8
Geo
100
AcDbLine
10
-68.9361468995914
20
18.3874576487052
30
0.00000000000000
11
-68.9218135662581
21
18.3860120871885
31
0.00000000000000
  0
LINE
  5
F10058
330
F10059
100
AcDbEntity
8
Geo
100
AcDbLine
10
-68.9218135662581
20
18.3860120871885
30
0.00000000000000
11
-68.9074802329248
21
18.3841987517464
31
0.00000000000000
  0
LINE
  5
F1005A
330
F1005B
100
AcDbEntity
8
Geo
100
AcDbLine
10
-68.9074802329248
20
18.3841987517464
30
0.00000000000000
11
-68.8931468995914
21
18.3820230330448
31
0.00000000000000
  0
LINE
  5
F1005C
330
F1005D
100
AcDbEntity
8
Geo
100
AcDbLine
10
-68.8931468995914
20
18.3820230330448
30
0.00000000000000
11
-68.8788135662581
21
18.3794901577036
31
0.00000000000000
  0
LINE
  5
F1005E
330
F1005F
100
AcDbEntity
8
Geo
100
AcDbLine
10
-68.8788135662581
20
18.3794901577036
30
0.00000000000000
11
-68.8644802329248
21
18.3766052036231
31
0.00000000000000
  0
LINE
  5
F10060
330
F10061
100
AcDbEntity
8
Geo
100
AcDbLine
10
-68.8644802329248
20
18.3766052036231
30
0.00000000000000
11
-68.8501468995915
21
18.3733731135003
31
0.00000000000000
  0
LINE
  5
F10062
330
F10063
100
AcDbEntity
8
Geo
100
AcDbLine
10
-68.8501468995915
20
18.3733731135003
30
0.00000000000000
11
-68.8358135662581
21
18.3697987067059
31
0.00000000000000
  0
LINE
  5
F10064
330
F10065
100
AcDbEntity
8
Geo
100
AcDbLine
10
-68.8358135662581
20
18.3697987067059
30
0.00000000000000
11
-68.8214802329248
21
18.3658866896642
31
0.00000000000000
  0
LINE
  5
F10066
330
F10067
100
AcDbEntity
8
Geo
100
AcDbLine
10
-68.8214802329248
20
18.3658866896642
30
0.00000000000000
11
-68.8071468995914
21
18.3616416648584
31
0.00000000000000
  0
LINE
  5
F10068
330
F10069
100
AcDbEntity
8
Geo
100
AcDbLine
10
-68.8071468995914
20
18.3616416648584
30
0.00000000000000
11
-68.7928135662581
21
18.3571249183849
31
0.00000000000000
  0
LINE
  5
F1006A
330
F1006B
100
AcDbEntity
8
Geo
100
AcDbLine
10
-68.7928135662581
20
18.3571249183849
30
0.00000000000000
11
-68.7784802329248
21
18.3525187357679
31
0.00000000000000
  0
LINE
  5
F1006C
330
F1006D
100
AcDbEntity
8
Geo
100
AcDbLine
10
-68.7784802329248
20
18.3525187357679
30
0.00000000000000
11
-68.7641468995915
21
18.3478369790759
31
0.00000000000000
  0
LINE
  5
F1006E
330
F1006F
100
AcDbEntity
8
Geo
100
AcDbLine
10
-68.7641468995915
20
18.3478369790759
30
0.00000000000000
11
-68.7498135662581
21
18.3430802182830
31
0.00000000000000
  0
LINE
  5
F10070
330
F10071
100
AcDbEntity
8
Geo
100
AcDbLine
10
-68.7498135662581
20
18.3430802182830
30
0.00000000000000
11
-68.7354802329248
21
18.3382490324945
31
0.00000000000000
  0
LINE
  5
F10072
330
F10073
100
AcDbEntity
8
Geo
100
AcDbLine
10
-68.7354802329248
20
18.3382490324945
30
0.00000000000000
11
-68.7211468995914
21
18.3333440098764
31
0.00000000000000
  0
LINE
  5
F10074
330
F10075
100
AcDbEntity
8
Geo
100
AcDbLine
10
-68.7211468995914
20
18.3333440098764
30
0.00000000000000
11
-68.7068135662581
21
18.3283657475840
31
0.00000000000000
  0
LINE
  5
F10076
330
F10077
100
AcDbEntity
8
Geo
100
AcDbLine
10
-68.7068135662581
20
18.3283657475840
30
0.00000000000000
11
-68.6924802329248
21
18.3233148516888
31
0.00000000000000
  0
LINE
  5
F10078
330
F10079
100
AcDbEntity
8
Geo
100
AcDbLine
10
-68.6924802329248
20
18.3233148516888
30
0.00000000000000
11
-68.6781468995915
21
18.3181919371054
31
0.00000000000000
  0
LINE
  5
F1007A
330
F1007B
100
AcDbEntity
8
Geo
100
AcDbLine
10
-68.6781468995915
20
18.3181919371054
30
0.00000000000000
11
-68.6638135662581
21
18.3129976275157
31
0.00000000000000
  0
LINE
  5
F1007C
330
F1007D
100
AcDbEntity
8
Geo
100
AcDbLine
10
-68.6638135662581
20
18.3129976275157
30
0.00000000000000
11
-68.6494802329248
21
18.3077325552940
31
0.00000000000000
  0
LINE
  5
F1007E
330
F1007F
100
AcDbEntity
8
Geo
100
AcDbLine
10
-68.6494802329248
20
18.3077325552940
30
0.00000000000000
11
-68.6351468995914
21
18.3023973614291
31
0.00000000000000
  0
LINE
  5
F10080
330
F10081
100
AcDbEntity
8
Geo
100
AcDbLine
10
-68.6351468995914
20
18.3023973614291
30
0.00000000000000
11
-68.6208135662581
21
18.2969926954469
31
0.00000000000000
  0
LINE
  5
F10082
330
F10083
100
AcDbEntity
8
Geo
100
AcDbLine
10
-68.6208135662581
20
18.2969926954469
30
0.00000000000000
11
-68.6064802329248
21
18.2915192153310
31
0.00000000000000
  0
LINE
  5
F10084
330
F10085
100
AcDbEntity
8
Geo
100
AcDbLine
10
-68.6064802329248
20
18.2915192153310
30
0.00000000000000
11
-68.5921468995914
21
18.2859775874427
31
0.00000000000000
  0
LINE
  5
F10086
330
F10087
100
AcDbEntity
8
Geo
100
AcDbLine
10
-68.5921468995914
20
18.2859775874427
30
0.00000000000000
11
-68.5778135662581
21
18.2803684864397
31
0.00000000000000
  0
LINE
  5
F10088
330
F10089
100
AcDbEntity
8
Geo
100
AcDbLine
10
-68.5778135662581
20
18.2803684864397
30
0.00000000000000
11
-68.5634802329248
21
18.2746925951944
31
0.00000000000000
  0
LINE
  5
F1008A
330
F1008B
100
AcDbEntity
8
Geo
100
AcDbLine
10
-68.5634802329248
20
18.2746925951944
30
0.00000000000000
11
-68.5491468995914
21
18.2689506047104
31
0.00000000000000
  0
LINE
  5
F1008C
330
F1008D
100
AcDbEntity
8
Geo
100
AcDbLine
10
-68.5491468995914
20
18.2689506047104
30
0.00000000000000
11
-68.5348135662581
21
18.2631432140383
31
0.00000000000000
  0
LINE
  5
F1008E
330
F1008F
100
AcDbEntity
8
Geo
100
AcDbLine
10
-68.5348135662581
20
18.2631432140383
30
0.00000000000000
11
-68.5204802329248
21
18.2572711301909
31
0.00000000000000
  0
LINE
  5
F10090
330
F10091
100
AcDbEntity
8
Geo
100
AcDbLine
10
-68.5204802329248
20
18.2572711301909
30
0.00000000000000
11
-68.5061468995914
21
18.2513350680570
31
0.00000000000000
  0
LINE
  5
F10092
330
F10093
100
AcDbEntity
8
Geo
100
AcDbLine
10
-68.5061468995914
20
18.2513350680570
30
0.00000000000000
11
-68.4918135662581
21
18.2453357503142
31
0.00000000000000
  0
LINE
  5
F10094
330
F10095
100
AcDbEntity
8
Geo
100
AcDbLine
10
-68.4918135662581
20
18.2453357503142
30
0.00000000000000
11
-68.4774802329248
21
18.2392739073413
31
0.00000000000000
  0
LINE
  5
F10096
330
F10097
100
AcDbEntity
8
Geo
100
AcDbLine
10
-68.4774802329248
20
18.2392739073413
30
0.00000000000000
11
-68.4631468995915
21
18.2331502771288
31
0.00000000000000
  0
LINE
  5
F10098
330
F10099
100
AcDbEntity
8
Geo
100
AcDbLine
10
-68.4631468995915
20
18.2331502771288
30
0.00000000000000
11
-68.4488135662581
21
18.2269656051899
31
0.00000000000000
  0
LINE
  5
F1009A
330
F1009B
100
AcDbEntity
8
Geo
100
AcDbLine
10
-68.4488135662581
20
18.2269656051899
30
0.00000000000000
11
-68.4344802329248
21
18.2207206444687
31
0.00000000000000
  0
LINE
  5
F1009C
330
F1009D
100
AcDbEntity
8
Geo
100
AcDbLine
10
-68.4344802329248
20
18.2207206444687
30
0.00000000000000
11
-68.4201468995914
21
18.2144161552494
31
0.00000000000000
  0
LINE
  5
F1009E
330
F1009F
100
AcDbEntity
8
Geo
100
AcDbLine
10
-68.4201468995914
20
18.2144161552494
30
0.00000000000000
11
-68.4058135662581
21
18.2080529050635
31
0.00000000000000
  0
LINE
  5
F100A0
330
F100A1
100
AcDbEntity
8
Geo
100
AcDbLine
10
-68.4058135662581
20
18.2080529050635
30
0.00000000000000
11
-68.3914802329248
21
18.2016316685959
31
0.00000000000000
  0
LINE
  5
F100A2
330
F100A3
100
AcDbEntity
8
Geo
100
AcDbLine
10
-68.3914802329248
20
18.2016316685959
30
0.00000000000000
11
-68.3771468995915
21
18.1951532275913
31
0.00000000000000
  0
LINE
  5
F100A4
330
F100A5
100
AcDbEntity
8
Geo
100
AcDbLine
10
-68.3771468995915
20
18.1951532275913
30
0.00000000000000
11
-68.3628135662581
21
18.1886183707585
31
0.00000000000000
  0
LINE
  5
F100A6
330
F100A7
100
AcDbEntity
8
Geo
100
AcDbLine
10
-68.3628135662581
20
18.1886183707585
30
0.00000000000000
11
-68.3484802329248
21
18.1820278936748
31
0.00000000000000
  0
LINE
  5
F100A8
330
F100A9
100
AcDbEntity
8
Geo
100
AcDbLine
10
-68.3484802329248
20
18.1820278936748
30
0.00000000000000
11
-68.3341468995914
21
18.1753825986885
31
0.00000000000000
  0
LINE
  5
F100AA
330
F100AB
100
AcDbEntity
8
Geo
100
AcDbLine
10
-68.3341468995914
20
18.1753825986885
30
0.00000000000000
11
-68.3198135662581
21
18.1686832948220
31
0.00000000000000
  0
LINE
  5
F100AC
330
F100AD
100
AcDbEntity
8
Geo
100
AcDbLine
10
-68.3198135662581
20
18.1686832948220
30
0.00000000000000
11
-68.3054802329248
21
18.1619307976728
31
0.00000000000000
  0
LINE
  5
F100AE
330
F100AF
100
AcDbEntity
8
Geo
100
AcDbLine
10
-68.3054802329248
20
18.1619307976728
30
0.00000000000000
11
-68.2911468995915
21
18.1551259293144
31
0.00000000000000
  0
LINE
  5
F100B0
330
F100B1
100
AcDbEntity
8
Geo
100
AcDbLine
10
-68.2911468995915
20
18.1551259293144
30
0.00000000000000
11
-68.2768135662581
21
18.1482695181960
31
0.00000000000000
  0
LINE
  5
F100B2
330
F100B3
100
AcDbEntity
8
Geo
100
AcDbLine
10
-68.2768135662581
20
18.1482695181960
30
0.00000000000000
11
-68.2624802329248
21
18.1413623990420
31
0.00000000000000
  0
LINE
  5
F100B4
330
F100B5
100
AcDbEntity
8
Geo
100
AcDbLine
10
-68.2624802329248
20
18.1413623990420
30
0.00000000000000
11
-68.2481468995914
21
18.1344054127500
31
0.00000000000000
  0
LINE
  5
F100B6
330
F100B7
100
AcDbEntity
8
Geo
100
AcDbLine
10
-68.2481468995914
20
18.1344054127500
30
0.00000000000000
11
-68.2338135662581
21
18.1273994062889
31
0.00000000000000
  0
LINE
  5
F100B8
330
F100B9
100
AcDbEntity
8
Geo
100
AcDbLine
10
-68.2338135662581
20
18.1273994062889
30
0.00000000000000
11
-68.2194802329248
21
18.1203452325951
31
0.00000000000000
  0
LINE
  5
F100BA
330
F100BB
100
AcDbEntity
8
Geo
100
AcDbLine
10
-68.2194802329248
20
18.1203452325951
30
0.00000000000000
11
-68.2051468995915
21
18.1132437504693
31
0.00000000000000
  0
LINE
  5
F100BC
330
F100BD
100
AcDbEntity
8
Geo
100
AcDbLine
10
-68.2051468995915
20
18.1132437504693
30
0.00000000000000
11
-68.1908135662581
21
18.1060958244717
31
0.00000000000000
  0
LINE
  5
F100BE
330
F100BF
100
AcDbEntity
8
Geo
100
AcDbLine
10
-68.1908135662581
20
18.1060958244717
30
0.00000000000000
11
-68.1764802329248
21
18.0989023248167
31
0.00000000000000
  0
LINE
  5
F100C0
330
F100C1
100
AcDbEntity
8
Geo
100
AcDbLine
10
-68.1764802329248
20
18.0989023248167
30
0.00000000000000
11
-68.1621468995914
21
18.0916641272668
31
0.00000000000000
  0
LINE
  5
F100C2
330
F100C3
100
AcDbEntity
8
Geo
100
AcDbLine
10
-68.1621468995914
20
18.0916641272668
30
0.00000000000000
11
-68.1478135662581
21
18.0843821130267
31
0.00000000000000
  0
LINE
  5
F100C4
330
F100C5
100
AcDbEntity
8
Geo
100
AcDbLine
10
-68.1478135662581
20
18.0843821130267
30
0.00000000000000
11
-68.1334802329248
21
18.0770571686349
31
0.00000000000000
  0
LINE
  5
F100C6
330
F100C7
100
AcDbEntity
8
Geo
100
AcDbLine
10
-68.1334802329248
20
18.0770571686349
30
0.00000000000000
11
-68.1191468995914
21
18.0696901858568
31
0.00000000000000
  0
LINE
  5
F100C8
330
F100C9
100
AcDbEntity
8
Geo
100
AcDbLine
10
-68.1191468995914
20
18.0696901858568
30
0.00000000000000
11
-68.1048135662581
21
18.0622820615755
31
0.00000000000000
  0
LINE
  5
F100CA
330
F100CB
100
AcDbEntity
8
Geo
100
AcDbLine
10
-68.1048135662581
20
18.0622820615755
30
0.00000000000000
11
-68.0904802329248
21
18.0548336976829
31
0.00000000000000
  0
LINE
  5
F100CC
330
F100CD
100
AcDbEntity
8
Geo
100
AcDbLine
10
-68.0904802329248
20
18.0548336976829
30
0.00000000000000
11
-68.0761468995914
21
18.0473460009698
31
0.00000000000000
  0
LINE
  5
F100CE
330
F100CF
100
AcDbEntity
8
Geo
100
AcDbLine
10
-68.0761468995914
20
18.0473460009698
30
0.00000000000000
11
-68.0618135662581
21
18.0398198830154
31
0.00000000000000
  0
LINE
  5
F100D0
330
F100D1
100
AcDbEntity
8
Geo
100
AcDbLine
10
-68.0618135662581
20
18.0398198830154
30
0.00000000000000
11
-68.0474802329248
21
18.0322562600767
31
0.00000000000000
  0
LINE
  5
F100D2
330
F100D3
100
AcDbEntity
8
Geo
100
AcDbLine
10
-68.0474802329248
20
18.0322562600767
30
0.00000000000000
11
-68.0331468995914
21
18.0246560529765
31
0.00000000000000
  0
LINE
  5
F100D4
330
F100D5
100
AcDbEntity
8
Geo
100
AcDbLine
10
-68.0331468995914
20
18.0246560529765
30
0.00000000000000
11
-68.0188135662581
21
18.0170201869915
31
0.00000000000000
  0
LINE
  5
F100D6
330
F100D7
100
AcDbEntity
8
Geo
100
AcDbLine
10
-68.0188135662581
20
18.0170201869915
30
0.00000000000000
11
-68.0044802329248
21
18.0093495917397
31
0.00000000000000
  0
LINE
  5
F100D8
330
F100D9
100
AcDbEntity
8
Geo
100
AcDbLine
10
-68.0044802329248
20
18.0093495917397
30
0.00000000000000
11
-67.9901468995915
21
18.0016452010672
31
0.00000000000000
  0
LINE
  5
F100DA
330
F100DB
100
AcDbEntity
8
Geo
100
AcDbLine
10
-67.9901468995915
20
18.0016452010672
30
0.00000000000000
11
-67.9758135662581
21
17.9939079529342
31
0.00000000000000
  0
LINE
  5
F100DC
330
F100DD
100
AcDbEntity
8
Geo
100
AcDbLine
10
-67.9758135662581
20
17.9939079529342
30
0.00000000000000
11
-67.9614802329248
21
17.9861387893016
31
0.00000000000000
  0
LINE
  5
F100DE
330
F100DF
100
AcDbEntity
8
Geo
100
AcDbLine
10
-67.9614802329248
20
17.9861387893016
30
0.00000000000000
11
-67.9471468995914
21
17.9783386560152
31
0.00000000000000
  0
LINE
  5
F100E0
330
F100E1
100
AcDbEntity
8
Geo
100
AcDbLine
10
-67.9471468995914
20
17.9783386560152
30
0.00000000000000
11
-67.9328135662581
21
17.9705085026917
31
0.00000000000000
  0
LINE
  5
F100E2
330
F100E3
100
AcDbEntity
8
Geo
100
AcDbLine
10
-67.9328135662581
20
17.9705085026917
30
0.00000000000000
11
-67.9184802329248
21
17.9626492826023
31
0.00000000000000
  0
LINE
  5
F100E4
330
F100E5
100
AcDbEntity
8
Geo
100
AcDbLine
10
-67.9184802329248
20
17.9626492826023
30
0.00000000000000
11
-67.9041468995915
21
17.9547619525568
31
0.00000000000000
  0
LINE
  5
F100E6
330
F100E7
100
AcDbEntity
8
Geo
100
AcDbLine
10
-67.9041468995915
20
17.9547619525568
30
0.00000000000000
11
-67.8898135662581
21
17.9468474727874
31
0.00000000000000
  0
LINE
  5
F100E8
330
F100E9
100
AcDbEntity
8
Geo
100
AcDbLine
10
-67.8898135662581
20
17.9468474727874
30
0.00000000000000
11
-67.8754802329248
21
17.9389068068315
31
0.00000000000000
  0
LINE
  5
F100EA
330
F100EB
100
AcDbEntity
8
Geo
100
AcDbLine
10
-67.8754802329248
20
17.9389068068315
30
0.00000000000000
11
-67.8611468995914
21
17.9309409214145
31
0.00000000000000
  0
LINE
  5
F100EC
330
F100ED
100
AcDbEntity
8
Geo
100
AcDbLine
10
-67.8611468995914
20
17.9309409214145
30
0.00000000000000
11
-67.8468135662581
21
17.9229507863321
31
0.00000000000000
  0
LINE
  5
F100EE
330
F100EF
100
AcDbEntity
8
Geo
100
AcDbLine
10
-67.8468135662581
20
17.9229507863321
30
0.00000000000000
11
-67.8324802329248
21
17.9149373743324
31
0.00000000000000
  0
LINE
  5
F100F0
330
F100F1
100
AcDbEntity
8
Geo
100
AcDbLine
10
-67.8324802329248
20
17.9149373743324
30
0.00000000000000
11
-67.8181468995915
21
17.9069016609972
31
0.00000000000000
  0
LINE
  5
F100F2
330
F100F3
100
AcDbEntity
8
Geo
100
AcDbLine
10
-67.8181468995915
20
17.9069016609972
30
0.00000000000000
11
-67.8038135662581
21
17.8988446246232
31
0.00000000000000
  0
LINE
  5
F100F4
330
F100F5
100
AcDbEntity
8
Geo
100
AcDbLine
10
-67.8038135662581
20
17.8988446246232
30
0.00000000000000
11
-67.7894802329248
21
17.8907672461032
31
0.00000000000000
  0
LINE
  5
F100F6
330
F100F7
100
AcDbEntity
8
Geo
100
AcDbLine
10
-67.7894802329248
20
17.8907672461032
30
0.00000000000000
11
-67.7751468995914
21
17.8826705088066
31
0.00000000000000
  0
LINE
  5
F100F8
330
F100F9
100
AcDbEntity
8
Geo
100
AcDbLine
10
-67.7751468995914
20
17.8826705088066
30
0.00000000000000
11
-67.7608135662581
21
17.8745553984594
31
0.00000000000000
  0
LINE
  5
F100FA
330
F100FB
100
AcDbEntity
8
Geo
100
AcDbLine
10
-67.7608135662581
20
17.8745553984594
30
0.00000000000000
11
-67.7464802329248
21
17.8664229030246
31
0.00000000000000
  0
LINE
  5
F100FC
330
F100FD
100
AcDbEntity
8
Geo
100
AcDbLine
10
-67.7464802329248
20
17.8664229030246
30
0.00000000000000
11
-67.7321468995915
21
17.8582740125817
31
0.00000000000000
  0
LINE
  5
F100FE
330
F100FF
100
AcDbEntity
8
Geo
100
AcDbLine
10
-67.7321468995915
20
17.8582740125817
30
0.00000000000000
11
-67.7178135662581
21
17.8501097192060
31
0.00000000000000
  0
LINE
  5
F10100
330
F10101
100
AcDbEntity
8
Geo
100
AcDbLine
10
-67.7178135662581
20
17.8501097192060
30
0.00000000000000
11
-67.7034802329248
21
17.8419310168482
31
0.00000000000000
  0
LINE
  5
F10102
330
F10103
100
AcDbEntity
8
Geo
100
AcDbLine
10
-67.7034802329248
20
17.8419310168482
30
0.00000000000000
11
-67.6891468995914
21
17.8337389012131
31
0.00000000000000
  0
LINE
  5
F10104
330
F10105
100
AcDbEntity
8
Geo
100
AcDbLine
10
-67.6891468995914
20
17.8337389012131
30
0.00000000000000
11
-67.6748135662581
21
17.8255343696386
31
0.00000000000000
  0
LINE
  5
F10106
330
F10107
100
AcDbEntity
8
Geo
100
AcDbLine
10
-67.6748135662581
20
17.8255343696386
30
0.00000000000000
11
-67.6604802329248
21
17.8173184209740
31
0.00000000000000
  0
LINE
  5
F10108
330
F10109
100
AcDbEntity
8
Geo
100
AcDbLine
10
-67.6604802329248
20
17.8173184209740
30
0.00000000000000
11
-67.6461468995914
21
17.8090920554587
31
0.00000000000000
  0
LINE
  5
F1010A
330
F1010B
100
AcDbEntity
8
Geo
100
AcDbLine
10
-67.6461468995914
20
17.8090920554587
30
0.00000000000000
11
-67.6318135662581
21
17.8008562746002
31
0.00000000000000
  0
LINE
  5
F1010C
330
F1010D
100
AcDbEntity
8
Geo
100
AcDbLine
10
-67.6318135662581
20
17.8008562746002
30
0.00000000000000
11
-67.6174802329248
21
17.7926120810522
31
0.00000000000000
  0
LINE
  5
F1010E
330
F1010F
100
AcDbEntity
8
Geo
100
AcDbLine
10
-67.6174802329248
20
17.7926120810522
30
0.00000000000000
11
-67.6031468995915
21
17.7843604784928
31
0.00000000000000
  0
LINE
  5
F10110
330
F10111
100
AcDbEntity
8
Geo
100
AcDbLine
10
-67.6031468995915
20
17.7843604784928
30
0.00000000000000
11
-67.5888135662581
21
17.7761024715019
31
0.00000000000000
  0
LINE
  5
F10112
330
F10113
100
AcDbEntity
8
Geo
100
AcDbLine
10
-67.5888135662581
20
17.7761024715019
30
0.00000000000000
11
-67.5744802329248
21
17.7678390654392
31
0.00000000000000
  0
LINE
  5
F10114
330
F10115
100
AcDbEntity
8
Geo
100
AcDbLine
10
-67.5744802329248
20
17.7678390654392
30
0.00000000000000
11
-67.5601468995914
21
17.7595712663217
31
0.00000000000000
  0
LINE
  5
F10116
330
F10117
100
AcDbEntity
8
Geo
100
AcDbLine
10
-67.5601468995914
20
17.7595712663217
30
0.00000000000000
11
-67.5458135662581
21
17.7513000807011
31
0.00000000000000
  0
LINE
  5
F10118
330
F10119
100
AcDbEntity
8
Geo
100
AcDbLine
10
-67.5458135662581
20
17.7513000807011
30
0.00000000000000
11
-67.5314802329248
21
17.7430265155416
31
0.00000000000000
  0
LINE
  5
F1011A
330
F1011B
100
AcDbEntity
8
Geo
100
AcDbLine
10
-67.5314802329248
20
17.7430265155416
30
0.00000000000000
11
-67.5171468995915
21
17.7347515780969
31
0.00000000000000
  0
LINE
  5
F1011C
330
F1011D
100
AcDbEntity
8
Geo
100
AcDbLine
10
-67.5171468995915
20
17.7347515780969
30
0.00000000000000
11
-67.5028135662581
21
17.7264762757879
31
0.00000000000000
  0
LINE
  5
F1011E
330
F1011F
100
AcDbEntity
8
Geo
100
AcDbLine
10
-67.5028135662581
20
17.7264762757879
30
0.00000000000000
11
-67.4884802329248
21
17.7182016160798
31
0.00000000000000
  0
LINE
  5
F10120
330
F10121
100
AcDbEntity
8
Geo
100
AcDbLine
10
-67.4884802329248
20
17.7182016160798
30
0.00000000000000
11
-67.4741468995914
21
17.7099286063598
31
0.00000000000000
  0
LINE
  5
F10122
330
F10123
100
AcDbEntity
8
Geo
100
AcDbLine
10
-67.4741468995914
20
17.7099286063598
30
0.00000000000000
11
-67.4598135662581
21
17.7016582538138
31
0.00000000000000
  0
LINE
  5
F10124
330
F10125
100
AcDbEntity
8
Geo
100
AcDbLine
10
-67.4598135662581
20
17.7016582538138
30
0.00000000000000
11
-67.4454802329248
21
17.6933915653047
31
0.00000000000000
  0
LINE
  5
F10126
330
F10127
100
AcDbEntity
8
Geo
100
AcDbLine
10
-67.4454802329248
20
17.6933915653047
30
0.00000000000000
11
-67.4311468995915
21
17.6851295472490
31
0.00000000000000
  0
LINE
  5
F10128
330
F10129
100
AcDbEntity
8
Geo
100
AcDbLine
10
-67.4311468995915
20
17.6851295472490
30
0.00000000000000
11
-67.4168135662581
21
17.6768732054946
31
0.00000000000000
  0
LINE
  5
F1012A
330
F1012B
100
AcDbEntity
8
Geo
100
AcDbLine
10
-67.4168135662581
20
17.6768732054946
30
0.00000000000000
11
-67.4024802329248
21
17.6686235451986
31
0.00000000000000
  0
LINE
  5
F1012C
330
F1012D
100
AcDbEntity
8
Geo
100
AcDbLine
10
-67.4024802329248
20
17.6686235451986
30
0.00000000000000
11
-67.3881468995914
21
17.6603815707044
31
0.00000000000000
  0
LINE
  5
F1012E
330
F1012F
100
AcDbEntity
8
Geo
100
AcDbLine
10
-67.3881468995914
20
17.6603815707044
30
0.00000000000000
11
-67.3738135662581
21
17.6521482854199
31
0.00000000000000
  0
LINE
  5
F10130
330
F10131
100
AcDbEntity
8
Geo
100
AcDbLine
10
-67.3738135662581
20
17.6521482854199
30
0.00000000000000
11
-67.3594802329248
21
17.6439246916950
31
0.00000000000000
  0
LINE
  5
F10132
330
F10133
100
AcDbEntity
8
Geo
100
AcDbLine
10
-67.3594802329248
20
17.6439246916950
30
0.00000000000000
11
-67.3451468995915
21
17.6357117906998
31
0.00000000000000
  0
LINE
  5
F10134
330
F10135
100
AcDbEntity
8
Geo
100
AcDbLine
10
-67.3451468995915
20
17.6357117906998
30
0.00000000000000
11
-67.3308135662581
21
17.6275105823026
31
0.00000000000000
  0
LINE
  5
F10136
330
F10137
100
AcDbEntity
8
Geo
100
AcDbLine
10
-67.3308135662581
20
17.6275105823026
30
0.00000000000000
11
-67.3164802329248
21
17.6193220649482
31
0.00000000000000
  0
LINE
  5
F10138
330
F10139
100
AcDbEntity
8
Geo
100
AcDbLine
10
-67.3164802329248
20
17.6193220649482
30
0.00000000000000
11
-67.3021468995914
21
17.6111472355364
31
0.00000000000000
  0
LINE
  5
F1013A
330
F1013B
100
AcDbEntity
8
Geo
100
AcDbLine
10
-67.3021468995914
20
17.6111472355364
30
0.00000000000000
11
-67.2878135662581
21
17.6029870893004
31
0.00000000000000
  0
LINE
  5
F1013C
330
F1013D
100
AcDbEntity
8
Geo
100
AcDbLine
10
-67.2878135662581
20
17.6029870893004
30
0.00000000000000
11
-67.2734802329248
21
17.5948426196861
31
0.00000000000000
  0
LINE
  5
F1013E
330
F1013F
100
AcDbEntity
8
Geo
100
AcDbLine
10
-67.2734802329248
20
17.5948426196861
30
0.00000000000000
11
-67.2591468995914
21
17.5867148182307
31
0.00000000000000
  0
LINE
  5
F10140
330
F10141
100
AcDbEntity
8
Geo
100
AcDbLine
10
-67.2591468995914
20
17.5867148182307
30
0.00000000000000
11
-67.2448135662581
21
17.5786046744421
31
0.00000000000000
  0
LINE
  5
F10142
330
F10143
100
AcDbEntity
8
Geo
100
AcDbLine
10
-67.2448135662581
20
17.5786046744421
30
0.00000000000000
11
-67.2304802329248
21
17.5705131756786
31
0.00000000000000
  0
LINE
  5
F10144
330
F10145
100
AcDbEntity
8
Geo
100
AcDbLine
10
-67.2304802329248
20
17.5705131756786
30
0.00000000000000
11
-67.2161468995915
21
17.5624413070286
31
0.00000000000000
  0
LINE
  5
F10146
330
F10147
100
AcDbEntity
8
Geo
100
AcDbLine
10
-67.2161468995915
20
17.5624413070286
30
0.00000000000000
11
-67.2018135662581
21
17.5543900511906
31
0.00000000000000
  0
LINE
  5
F10148
330
F10149
100
AcDbEntity
8
Geo
100
AcDbLine
10
-67.2018135662581
20
17.5543900511906
30
0.00000000000000
11
-67.1874802329248
21
17.5463603883536
31
0.00000000000000
  0
LINE
  5
F1014A
330
F1014B
100
AcDbEntity
8
Geo
100
AcDbLine
10
-67.1874802329248
20
17.5463603883536
30
0.00000000000000
11
-67.1731468995914
21
17.5383532960778
31
0.00000000000000
  0
LINE
  5
F1014C
330
F1014D
100
AcDbEntity
8
Geo
100
AcDbLine
10
-67.1731468995914
20
17.5383532960778
30
0.00000000000000
11
-67.1588135662581
21
17.5303697491757
31
0.00000000000000
  0
LINE
  5
F1014E
330
F1014F
100
AcDbEntity
8
Geo
100
AcDbLine
10
-67.1588135662581
20
17.5303697491757
30
0.00000000000000
11
-67.1444802329248
21
17.5224107195932
31
0.00000000000000
  0
LINE
  5
F10150
330
F10151
100
AcDbEntity
8
Geo
100
AcDbLine
10
-67.1444802329248
20
17.5224107195932
30
0.00000000000000
11
-67.1301468995914
21
17.5144771762913
31
0.00000000000000
  0
LINE
  5
F10152
330
F10153
100
AcDbEntity
8
Geo
100
AcDbLine
10
-67.1301468995914
20
17.5144771762913
30
0.00000000000000
11
-67.1158135662581
21
17.5065700851283
31
0.00000000000000
  0
LINE
  5
F10154
330
F10155
100
AcDbEntity
8
Geo
100
AcDbLine
10
-67.1158135662581
20
17.5065700851283
30
0.00000000000000
11
-67.1014802329248
21
17.4986904087422
31
0.00000000000000
  0
LINE
  5
F10156
330
F10157
100
AcDbEntity
8
Geo
100
AcDbLine
10
-67.1014802329248
20
17.4986904087422
30
0.00000000000000
11
-67.0871468995914
21
17.4908391064332
31
0.00000000000000
  0
LINE
  5
F10158
330
F10159
100
AcDbEntity
8
Geo
100
AcDbLine
10
-67.0871468995914
20
17.4908391064332
30
0.00000000000000
11
-67.0728135662581
21
17.4830171340474
31
0.00000000000000
  0
LINE
  5
F1015A
330
F1015B
100
AcDbEntity
8
Geo
100
AcDbLine
10
-67.0728135662581
20
17.4830171340474
30
0.00000000000000
11
-67.0584802329248
21
17.4752254438600
31
0.00000000000000
  0
LINE
  5
F1015C
330
F1015D
100
AcDbEntity
8
Geo
100
AcDbLine
10
-67.0584802329248
20
17.4752254438600
30
0.00000000000000
11
-67.0441468995914
21
17.4674649844595
31
0.00000000000000
  0
LINE
  5
F1015E
330
F1015F
100
AcDbEntity
8
Geo
100
AcDbLine
10
-67.0441468995914
20
17.4674649844595
30
0.00000000000000
11
-67.0298135662581
21
17.4597367006324
31
0.00000000000000
  0
LINE
  5
F10160
330
F10161
100
AcDbEntity
8
Geo
100
AcDbLine
10
-67.0298135662581
20
17.4597367006324
30
0.00000000000000
11
-67.0154802329248
21
17.4520415332480
31
0.00000000000000
  0
LINE
  5
F10162
330
F10163
100
AcDbEntity
8
Geo
100
AcDbLine
10
-67.0154802329248
20
17.4520415332480
30
0.00000000000000
11
-67.0011468995914
21
17.4443804191437
31
0.00000000000000
  0
LINE
  5
F10164
330
F10165
100
AcDbEntity
8
Geo
100
AcDbLine
10
-67.0011468995914
20
17.4443804191437
30
0.00000000000000
11
-66.9868135662581
21
17.4367542910114
31
0.00000000000000
  0
LINE
  5
F10166
330
F10167
100
AcDbEntity
8
Geo
100
AcDbLine
10
-66.9868135662581
20
17.4367542910114
30
0.00000000000000
11
-66.9724802329248
21
17.4291640772835
31
0.00000000000000
  0
LINE
  5
F10168
330
F10169
100
AcDbEntity
8
Geo
100
AcDbLine
10
-66.9724802329248
20
17.4291640772835
30
0.00000000000000
11
-66.9581468995914
21
17.4216107020201
31
0.00000000000000
  0
LINE
  5
F1016A
330
F1016B
100
AcDbEntity
8
Geo
100
AcDbLine
10
-66.9581468995914
20
17.4216107020201
30
0.00000000000000
11
-66.9438135662581
21
17.4140950847964
31
0.00000000000000
  0
LINE
  5
F1016C
330
F1016D
100
AcDbEntity
8
Geo
100
AcDbLine
10
-66.9438135662581
20
17.4140950847964
30
0.00000000000000
11
-66.9294802329248
21
17.4066181405910
31
0.00000000000000
  0
LINE
  5
F1016E
330
F1016F
100
AcDbEntity
8
Geo
100
AcDbLine
10
-66.9294802329248
20
17.4066181405910
30
0.00000000000000
11
-66.9151468995914
21
17.3991807796741
31
0.00000000000000
  0
LINE
  5
F10170
330
F10171
100
AcDbEntity
8
Geo
100
AcDbLine
10
-66.9151468995914
20
17.3991807796741
30
0.00000000000000
11
-66.9008135662581
21
17.3917839074968
31
0.00000000000000
  0
LINE
  5
F10172
330
F10173
100
AcDbEntity
8
Geo
100
AcDbLine
10
-66.9008135662581
20
17.3917839074968
30
0.00000000000000
11
-66.8864802329248
21
17.3844284245813
31
0.00000000000000
  0
LINE
  5
F10174
330
F10175
100
AcDbEntity
8
Geo
100
AcDbLine
10
-66.8864802329248
20
17.3844284245813
30
0.00000000000000
11
-66.8721468995914
21
17.3771152264107
31
0.00000000000000
  0
LINE
  5
F10176
330
F10177
100
AcDbEntity
8
Geo
100
AcDbLine
10
-66.8721468995914
20
17.3771152264107
30
0.00000000000000
11
-66.8578135662581
21
17.3698452033201
31
0.00000000000000
  0
LINE
  5
F10178
330
F10179
100
AcDbEntity
8
Geo
100
AcDbLine
10
-66.8578135662581
20
17.3698452033201
30
0.00000000000000
11
-66.8434802329248
21
17.3626192403885
31
0.00000000000000
  0
LINE
  5
F1017A
330
F1017B
100
AcDbEntity
8
Geo
100
AcDbLine
10
-66.8434802329248
20
17.3626192403885
30
0.00000000000000
11
-66.8291468995914
21
17.3554382173308
31
0.00000000000000
  0
LINE
  5
F1017C
330
F1017D
100
AcDbEntity
8
Geo
100
AcDbLine
10
-66.8291468995914
20
17.3554382173308
30
0.00000000000000
11
-66.8148135662581
21
17.3483030083908
31
0.00000000000000
  0
LINE
  5
F1017E
330
F1017F
100
AcDbEntity
8
Geo
100
AcDbLine
10
-66.8148135662581
20
17.3483030083908
30
0.00000000000000
11
-66.8004802329248
21
17.3412144822345
31
0.00000000000000
  0
LINE
  5
F10180
330
F10181
100
AcDbEntity
8
Geo
100
AcDbLine
10
-66.8004802329248
20
17.3412144822345
30
0.00000000000000
11
-66.7861468995914
21
17.3341735018450
31
0.00000000000000
  0
LINE
  5
F10182
330
F10183
100
AcDbEntity
8
Geo
100
AcDbLine
10
-66.7861468995914
20
17.3341735018450
30
0.00000000000000
11
-66.7718135662581
21
17.3271809244165
31
0.00000000000000
  0
LINE
  5
F10184
330
F10185
100
AcDbEntity
8
Geo
100
AcDbLine
10
-66.7718135662581
20
17.3271809244165
30
0.00000000000000
11
-66.7574802329248
21
17.3202376012508
31
0.00000000000000
  0
LINE
  5
F10186
330
F10187
100
AcDbEntity
8
Geo
100
AcDbLine
10
-66.7574802329248
20
17.3202376012508
30
0.00000000000000
11
-66.7431468995914
21
17.3133443776533
31
0.00000000000000
  0
LINE
  5
F10188
330
F10189
100
AcDbEntity
8
Geo
100
AcDbLine
10
-66.7431468995914
20
17.3133443776533
30
0.00000000000000
11
-66.7288135662581
21
17.3065020928298
31
0.00000000000000
  0
LINE
  5
F1018A
330
F1018B
100
AcDbEntity
8
Geo
100
AcDbLine
10
-66.7288135662581
20
17.3065020928298
30
0.00000000000000
11
-66.7144802329248
21
17.2997115797850
31
0.00000000000000
  0
LINE
  5
F1018C
330
F1018D
100
AcDbEntity
8
Geo
100
AcDbLine
10
-66.7144802329248
20
17.2997115797850
30
0.00000000000000
11
-66.7001468995914
21
17.2929736652204
31
0.00000000000000
  0
LINE
  5
F1018E
330
F1018F
100
AcDbEntity
8
Geo
100
AcDbLine
10
-66.7001468995914
20
17.2929736652204
30
0.00000000000000
11
-66.6858135662581
21
17.2862891694343
31
0.00000000000000
  0
LINE
  5
F10190
330
F10191
100
AcDbEntity
8
Geo
100
AcDbLine
10
-66.6858135662581
20
17.2862891694343
30
0.00000000000000
11
-66.6714802329248
21
17.2796589062212
31
0.00000000000000
  0
LINE
  5
F10192
330
F10193
100
AcDbEntity
8
Geo
100
AcDbLine
10
-66.6714802329248
20
17.2796589062212
30
0.00000000000000
11
-66.6571468995914
21
17.2730836827735
31
0.00000000000000
  0
LINE
  5
F10194
330
F10195
100
AcDbEntity
8
Geo
100
AcDbLine
10
-66.6571468995914
20
17.2730836827735
30
0.00000000000000
11
-66.6428135662581
21
17.2665642995827
31
0.00000000000000
  0
LINE
  5
F10196
330
F10197
100
AcDbEntity
8
Geo
100
AcDbLine
10
-66.6428135662581
20
17.2665642995827
30
0.00000000000000
11
-66.6284802329248
21
17.2601015503421
31
0.00000000000000
  0
LINE
  5
F10198
330
F10199
100
AcDbEntity
8
Geo
100
AcDbLine
10
-66.6284802329248
20
17.2601015503421
30
0.00000000000000
11
-66.6141468995914
21
17.2536962218502
31
0.00000000000000
  0
LINE
  5
F1019A
330
F1019B
100
AcDbEntity
8
Geo
100
AcDbLine
10
-66.6141468995914
20
17.2536962218502
30
0.00000000000000
11
-66.5998135662581
21
17.2473490939148
31
0.00000000000000
  0
LINE
  5
F1019C
330
F1019D
100
AcDbEntity
8
Geo
100
AcDbLine
10
-66.5998135662581
20
17.2473490939148
30
0.00000000000000
11
-66.5854802329248
21
17.2410609392583
31
0.00000000000000
  0
LINE
  5
F1019E
330
F1019F
100
AcDbEntity
8
Geo
100
AcDbLine
10
-66.5854802329248
20
17.2410609392583
30
0.00000000000000
11
-66.5711468995914
21
17.2348325234235
31
0.00000000000000
  0
LINE
  5
F101A0
330
F101A1
100
AcDbEntity
8
Geo
100
AcDbLine
10
-66.5711468995914
20
17.2348325234235
30
0.00000000000000
11
-66.5568135662581
21
17.2286646046801
31
0.00000000000000
  0
LINE
  5
F101A2
330
F101A3
100
AcDbEntity
8
Geo
100
AcDbLine
10
-66.5568135662581
20
17.2286646046801
30
0.00000000000000
11
-66.5424802329248
21
17.2225579339330
31
0.00000000000000
  0
LINE
  5
F101A4
330
F101A5
100
AcDbEntity
8
Geo
100
AcDbLine
10
-66.5424802329248
20
17.2225579339330
30
0.00000000000000
11
-66.5281468995914
21
17.2165132546304
31
0.00000000000000
  0
LINE
  5
F101A6
330
F101A7
100
AcDbEntity
8
Geo
100
AcDbLine
10
-66.5281468995914
20
17.2165132546304
30
0.00000000000000
11
-66.5138135662581
21
17.2105313026735
31
0.00000000000000
  0
LINE
  5
F101A8
330
F101A9
100
AcDbEntity
8
Geo
100
AcDbLine
10
-66.5138135662581
20
17.2105313026735
30
0.00000000000000
11
-66.4994802329248
21
17.2046128063266
31
0.00000000000000
  0
LINE
  5
F101AA
330
F101AB
100
AcDbEntity
8
Geo
100
AcDbLine
10
-66.4994802329248
20
17.2046128063266
30
0.00000000000000
11
-66.4851468995914
21
17.1987584861291
31
0.00000000000000
  0
LINE
  5
F101AC
330
F101AD
100
AcDbEntity
8
Geo
100
AcDbLine
10
-66.4851468995914
20
17.1987584861291
30
0.00000000000000
11
-66.4708135662581
21
17.1929690548070
31
0.00000000000000
  0
LINE
  5
F101AE
330
F101AF
100
AcDbEntity
8
Geo
100
AcDbLine
10
-66.4708135662581
20
17.1929690548070
30
0.00000000000000
11
-66.4564802329248
21
17.1872452171866
31
0.00000000000000
  0
LINE
  5
F101B0
330
F101B1
100
AcDbEntity
8
Geo
100
AcDbLine
10
-66.4564802329248
20
17.1872452171866
30
0.00000000000000
11
-66.4421468995914
21
17.1815876701087
31
0.00000000000000
  0
LINE
  5
F101B2
330
F101B3
100
AcDbEntity
8
Geo
100
AcDbLine
10
-66.4421468995914
20
17.1815876701087
30
0.00000000000000
11
-66.4278135662581
21
17.1759971023436
31
0.00000000000000
  0
LINE
  5
F101B4
330
F101B5
100
AcDbEntity
8
Geo
100
AcDbLine
10
-66.4278135662581
20
17.1759971023436
30
0.00000000000000
11
-66.4134802329248
21
17.1704741945072
31
0.00000000000000
  0
LINE
  5
F101B6
330
F101B7
100
AcDbEntity
8
Geo
100
AcDbLine
10
-66.4134802329248
20
17.1704741945072
30
0.00000000000000
11
-66.3991468995914
21
17.1650196189782
31
0.00000000000000
  0
LINE
  5
F101B8
330
F101B9
100
AcDbEntity
8
Geo
100
AcDbLine
10
-66.3991468995914
20
17.1650196189782
30
0.00000000000000
11
-66.3848135662581
21
17.1596340398166
31
0.00000000000000
  0
LINE
  5
F101BA
330
F101BB
100
AcDbEntity
8
Geo
100
AcDbLine
10
-66.3848135662581
20
17.1596340398166
30
0.00000000000000
11
-66.3704802329248
21
17.1543181126821
31
0.00000000000000
  0
LINE
  5
F101BC
330
F101BD
100
AcDbEntity
8
Geo
100
AcDbLine
10
-66.3704802329248
20
17.1543181126821
30
0.00000000000000
11
-66.3561468995914
21
17.1490724847551
31
0.00000000000000
  0
LINE
  5
F101BE
330
F101BF
100
AcDbEntity
8
Geo
100
AcDbLine
10
-66.3561468995914
20
17.1490724847551
30
0.00000000000000
11
-66.3418135662581
21
17.1438977946572
31
0.00000000000000
  0
LINE
  5
F101C0
330
F101C1
100
AcDbEntity
8
Geo
100
AcDbLine
10
-66.3418135662581
20
17.1438977946572
30
0.00000000000000
11
-66.3274802329248
21
17.1387946723739
31
0.00000000000000
  0
LINE
  5
F101C2
330
F101C3
100
AcDbEntity
8
Geo
100
AcDbLine
10
-66.3274802329248
20
17.1387946723739
30
0.00000000000000
11
-66.3131468995914
21
17.1337637391779
31
0.00000000000000
  0
LINE
  5
F101C4
330
F101C5
100
AcDbEntity
8
Geo
100
AcDbLine
10
-66.3131468995914
20
17.1337637391779
30
0.00000000000000
11
-66.2988135662581
21
17.1288056075532
31
0.00000000000000
  0
LINE
  5
F101C6
330
F101C7
100
AcDbEntity
8
Geo
100
AcDbLine
10
-66.2988135662581
20
17.1288056075532
30
0.00000000000000
11
-66.2844802329248
21
17.1239208811206
31
0.00000000000000
  0
LINE
  5
F101C8
330
F101C9
100
AcDbEntity
8
Geo
100
AcDbLine
10
-66.2844802329248
20
17.1239208811206
30
0.00000000000000
11
-66.2701468995914
21
17.1191101545644
31
0.00000000000000
  0
LINE
  5
F101CA
330
F101CB
100
AcDbEntity
8
Geo
100
AcDbLine
10
-66.2701468995914
20
17.1191101545644
30
0.00000000000000
11
-66.2558135662581
21
17.1143740135599
31
0.00000000000000
  0
LINE
  5
F101CC
330
F101CD
100
AcDbEntity
8
Geo
100
AcDbLine
10
-66.2558135662581
20
17.1143740135599
30
0.00000000000000
11
-66.2414802329248
21
17.1097130347021
31
0.00000000000000
  0
LINE
  5
F101CE
330
F101CF
100
AcDbEntity
8
Geo
100
AcDbLine
10
-66.2414802329248
20
17.1097130347021
30
0.00000000000000
11
-66.2271468995914
21
17.1051277854355
31
0.00000000000000
  0
LINE
  5
F101D0
330
F101D1
100
AcDbEntity
8
Geo
100
AcDbLine
10
-66.2271468995914
20
17.1051277854355
30
0.00000000000000
11
-66.2128135662581
21
17.1006188239847
31
0.00000000000000
  0
LINE
  5
F101D2
330
F101D3
100
AcDbEntity
8
Geo
100
AcDbLine
10
-66.2128135662581
20
17.1006188239847
30
0.00000000000000
11
-66.1984802329248
21
17.0961866992872
31
0.00000000000000
  0
LINE
  5
F101D4
330
F101D5
100
AcDbEntity
8
Geo
100
AcDbLine
10
-66.1984802329248
20
17.0961866992872
30
0.00000000000000
11
-66.1841468995914
21
17.0918319509259
31
0.00000000000000
  0
LINE
  5
F101D6
330
F101D7
100
AcDbEntity
8
Geo
100
AcDbLine
10
-66.1841468995914
20
17.0918319509259
30
0.00000000000000
11
-66.1698135662581
21
17.0875551090635
31
0.00000000000000
  0
LINE
  5
F101D8
330
F101D9
100
AcDbEntity
8
Geo
100
AcDbLine
10
-66.1698135662581
20
17.0875551090635
30
0.00000000000000
11
-66.1554802329248
21
17.0833566943784
31
0.00000000000000
  0
LINE
  5
F101DA
330
F101DB
100
AcDbEntity
8
Geo
100
AcDbLine
10
-66.1554802329248
20
17.0833566943784
30
0.00000000000000
11
-66.1411468995914
21
17.0792372180007
31
0.00000000000000
  0
LINE
  5
F101DC
330
F101DD
100
AcDbEntity
8
Geo
100
AcDbLine
10
-66.1411468995914
20
17.0792372180007
30
0.00000000000000
11
-66.1268135662581
21
17.0751971814503
31
0.00000000000000
  0
LINE
  5
F101DE
330
F101DF
100
AcDbEntity
8
Geo
100
AcDbLine
10
-66.1268135662581
20
17.0751971814503
30
0.00000000000000
11
-66.1124802329248
21
17.0712370765760
31
0.00000000000000
  0
LINE
  5
F101E0
330
F101E1
100
AcDbEntity
8
Geo
100
AcDbLine
10
-66.1124802329248
20
17.0712370765760
30
0.00000000000000
11
-66.0981468995914
21
17.0673573854953
31
0.00000000000000
  0
LINE
  5
F101E2
330
F101E3
100
AcDbEntity
8
Geo
100
AcDbLine
10
-66.0981468995914
20
17.0673573854953
30
0.00000000000000
11
-66.0838135662581
21
17.0635585805357
31
0.00000000000000
  0
LINE
  5
F101E4
330
F101E5
100
AcDbEntity
8
Geo
100
AcDbLine
10
-66.0838135662581
20
17.0635585805357
30
0.00000000000000
11
-66.0694802329248
21
17.0598411241777
31
0.00000000000000
  0
LINE
  5
F101E6
330
F101E7
100
AcDbEntity
8
Geo
100
AcDbLine
10
-66.0694802329248
20
17.0598411241777
30
0.00000000000000
11
-66.0551468995914
21
17.0562054689977
31
0.00000000000000
  0
LINE
  5
F101E8
330
F101E9
100
AcDbEntity
8
Geo
100
AcDbLine
10
-66.0551468995914
20
17.0562054689977
30
0.00000000000000
11
-66.0408135662581
21
17.0526520576136
31
0.00000000000000
  0
LINE
  5
F101EA
330
F101EB
100
AcDbEntity
8
Geo
100
AcDbLine
10
-66.0408135662581
20
17.0526520576136
30
0.00000000000000
11
-66.0264802329248
21
17.0491813226305
31
0.00000000000000
  0
LINE
  5
F101EC
330
F101ED
100
AcDbEntity
8
Geo
100
AcDbLine
10
-66.0264802329248
20
17.0491813226305
30
0.00000000000000
11
-66.0121468995914
21
17.0457936865884
31
0.00000000000000
  0
LINE
  5
F101EE
330
F101EF
100
AcDbEntity
8
Geo
100
AcDbLine
10
-66.0121468995914
20
17.0457936865884
30
0.00000000000000
11
-65.9978135662581
21
17.0424895619103
31
0.00000000000000
  0
LINE
  5
F101F0
330
F101F1
100
AcDbEntity
8
Geo
100
AcDbLine
10
-65.9978135662581
20
17.0424895619103
30
0.00000000000000
11
-65.9834802329248
21
17.0392693508522
31
0.00000000000000
  0
LINE
  5
F101F2
330
F101F3
100
AcDbEntity
8
Geo
100
AcDbLine
10
-65.9834802329248
20
17.0392693508522
30
0.00000000000000
11
-65.9691468995914
21
17.0361334454544
31
0.00000000000000
  0
LINE
  5
F101F4
330
F101F5
100
AcDbEntity
8
Geo
100
AcDbLine
10
-65.9691468995914
20
17.0361334454544
30
0.00000000000000
11
-65.9548135662581
21
17.0330822274933
31
0.00000000000000
  0
LINE
  5
F101F6
330
F101F7
100
AcDbEntity
8
Geo
100
AcDbLine
10
-65.9548135662581
20
17.0330822274933
30
0.00000000000000
11
-65.9404802329248
21
17.0301160684353
31
0.00000000000000
  0
LINE
  5
F101F8
330
F101F9
100
AcDbEntity
8
Geo
100
AcDbLine
10
-65.9404802329248
20
17.0301160684353
30
0.00000000000000
11
-65.9261468995914
21
17.0272353293912
31
0.00000000000000
  0
LINE
  5
F101FA
330
F101FB
100
AcDbEntity
8
Geo
100
AcDbLine
10
-65.9261468995914
20
17.0272353293912
30
0.00000000000000
11
-65.9118135662581
21
17.0244403610727
31
0.00000000000000
  0
LINE
  5
F101FC
330
F101FD
100
AcDbEntity
8
Geo
100
AcDbLine
10
-65.9118135662581
20
17.0244403610727
30
0.00000000000000
11
-65.8974802329248
21
17.0217315037494
31
0.00000000000000
  0
LINE
  5
F101FE
330
F101FF
100
AcDbEntity
8
Geo
100
AcDbLine
10
-65.8974802329248
20
17.0217315037494
30
0.00000000000000
11
-65.8831468995914
21
17.0191090872073
31
0.00000000000000
  0
LINE
  5
F10200
330
F10201
100
AcDbEntity
8
Geo
100
AcDbLine
10
-65.8831468995914
20
17.0191090872073
30
0.00000000000000
11
-65.8688135662581
21
17.0165734307089
31
0.00000000000000
  0
LINE
  5
F10202
330
F10203
100
AcDbEntity
8
Geo
100
AcDbLine
10
-65.8688135662581
20
17.0165734307089
30
0.00000000000000
11
-65.8544802329248
21
17.0141248429543
31
0.00000000000000
  0
LINE
  5
F10204
330
F10205
100
AcDbEntity
8
Geo
100
AcDbLine
10
-65.8544802329248
20
17.0141248429543
30
0.00000000000000
11
-65.8401468995914
21
17.0117636220434
31
0.00000000000000
  0
LINE
  5
F10206
330
F10207
100
AcDbEntity
8
Geo
100
AcDbLine
10
-65.8401468995914
20
17.0117636220434
30
0.00000000000000
11
-65.8258135662581
21
17.0094900554397
31
0.00000000000000
  0
LINE
  5
F10208
330
F10209
100
AcDbEntity
8
Geo
100
AcDbLine
10
-65.8258135662581
20
17.0094900554397
30
0.00000000000000
11
-65.8114802329248
21
17.0073044199355
31
0.00000000000000
  0
LINE
  5
F1020A
330
F1020B
100
AcDbEntity
8
Geo
100
AcDbLine
10
-65.8114802329248
20
17.0073044199355
30
0.00000000000000
11
-65.7971468995914
21
17.0052069816180
31
0.00000000000000
  0
LINE
  5
F1020C
330
F1020D
100
AcDbEntity
8
Geo
100
AcDbLine
10
-65.7971468995914
20
17.0052069816180
30
0.00000000000000
11
-65.7828135662581
21
17.0031979958369
31
0.00000000000000
  0
LINE
  5
F1020E
330
F1020F
100
AcDbEntity
8
Geo
100
AcDbLine
10
-65.7828135662581
20
17.0031979958369
30
0.00000000000000
11
-65.7684802329248
21
17.0012777071734
31
0.00000000000000
  0
LINE
  5
F10210
330
F10211
100
AcDbEntity
8
Geo
100
AcDbLine
10
-65.7684802329248
20
17.0012777071734
30
0.00000000000000
11
-65.7541468995914
21
16.9994463494104
31
0.00000000000000
  0
LINE
  5
F10212
330
F10213
100
AcDbEntity
8
Geo
100
AcDbLine
10
-65.7541468995914
20
16.9994463494104
30
0.00000000000000
11
-65.7398135662581
21
16.9977041455041
31
0.00000000000000
  0
LINE
  5
F10214
330
F10215
100
AcDbEntity
8
Geo
100
AcDbLine
10
-65.7398135662581
20
16.9977041455041
30
0.00000000000000
11
-65.7254802329248
21
16.9960513075565
31
0.00000000000000
  0
LINE
  5
F10216
330
F10217
100
AcDbEntity
8
Geo
100
AcDbLine
10
-65.7254802329248
20
16.9960513075565
30
0.00000000000000
11
-65.7111468995914
21
16.9944880367903
31
0.00000000000000
  0
LINE
  5
F10218
330
F10219
100
AcDbEntity
8
Geo
100
AcDbLine
10
-65.7111468995914
20
16.9944880367903
30
0.00000000000000
11
-65.6968135662581
21
16.9930145235237
31
0.00000000000000
  0
LINE
  5
F1021A
330
F1021B
100
AcDbEntity
8
Geo
100
AcDbLine
10
-65.6968135662581
20
16.9930145235237
30
0.00000000000000
11
-65.6824802329248
21
16.9916309471474
31
0.00000000000000
  0
LINE
  5
F1021C
330
F1021D
100
AcDbEntity
8
Geo
100
AcDbLine
10
-65.6824802329248
20
16.9916309471474
30
0.00000000000000
11
-65.6681468995914
21
16.9903374761032
31
0.00000000000000
  0
LINE
  5
F1021E
330
F1021F
100
AcDbEntity
8
Geo
100
AcDbLine
10
-65.6681468995914
20
16.9903374761032
30
0.00000000000000
11
-65.6538135662581
21
16.9891342678628
31
0.00000000000000
  0
LINE
  5
F10220
330
F10221
100
AcDbEntity
8
Geo
100
AcDbLine
10
-65.6538135662581
20
16.9891342678628
30
0.00000000000000
11
-65.6394802329248
21
16.9880214689091
31
0.00000000000000
  0
LINE
  5
F10222
330
F10223
100
AcDbEntity
8
Geo
100
AcDbLine
10
-65.6394802329248
20
16.9880214689091
30
0.00000000000000
11
-65.6251468995914
21
16.9869992147185
31
0.00000000000000
  0
LINE
  5
F10224
330
F10225
100
AcDbEntity
8
Geo
100
AcDbLine
10
-65.6251468995914
20
16.9869992147185
30
0.00000000000000
11
-65.6108135662581
21
16.9860676297437
31
0.00000000000000
  0
LINE
  5
F10226
330
F10227
100
AcDbEntity
8
Geo
100
AcDbLine
10
-65.6108135662581
20
16.9860676297437
30
0.00000000000000
11
-65.5964802329248
21
16.9852268273992
31
0.00000000000000
  0
LINE
  5
F10228
330
F10229
100
AcDbEntity
8
Geo
100
AcDbLine
10
-65.5964802329248
20
16.9852268273992
30
0.00000000000000
11
-65.5821468995914
21
16.9844769100476
31
0.00000000000000
  0
LINE
  5
F1022A
330
F1022B
100
AcDbEntity
8
Geo
100
AcDbLine
10
-65.5821468995914
20
16.9844769100476
30
0.00000000000000
11
-65.5678135662581
21
16.9838179689863
31
0.00000000000000
  0
LINE
  5
F1022C
330
F1022D
100
AcDbEntity
8
Geo
100
AcDbLine
10
-65.5678135662581
20
16.9838179689863
30
0.00000000000000
11
-65.5534802329248
21
16.9832500844372
31
0.00000000000000
  0
LINE
  5
F1022E
330
F1022F
100
AcDbEntity
8
Geo
100
AcDbLine
10
-69.4378135662581
20
17.8985666857659
30
0.00000000000000
11
-69.4378135662581
21
17.3331927297343
31
0.00000000000000
  0
LINE
  5
F10230
330
F10231
100
AcDbEntity
8
Geo
100
AcDbLine
10
-69.4378135662581
20
18.1300245623550
30
0.00000000000000
11
-69.4378135662581
21
18.1303164480004
31
0.00000000000000
  0
LINE
  5
F10232
330
F10233
100
AcDbEntity
8
Geo
100
AcDbLine
10
-65.9248814851803
20
18.4817545888673
30
0.00000000000000
11
-65.9118135662581
21
18.4817166400743
31
0.00000000000000
  0
LINE
  5
F10234
330
F10235
100
AcDbEntity
8
Geo
100
AcDbLine
10
-65.9118135662581
20
18.4817166400743
30
0.00000000000000
11
-65.8974802329248
21
18.4815877440134
31
0.00000000000000
  0
LINE
  5
F10236
330
F10237
100
AcDbEntity
8
Geo
100
AcDbLine
10
-65.8974802329248
20
18.4815877440134
30
0.00000000000000
11
-65.8831468995914
21
18.4813675605492
31
0.00000000000000
  0
LINE
  5
F10238
330
F10239
100
AcDbEntity
8
Geo
100
AcDbLine
10
-65.8831468995914
20
18.4813675605492
30
0.00000000000000
11
-65.8688135662581
21
18.4810561164876
31
0.00000000000000
  0
LINE
  5
F1023A
330
F1023B
100
AcDbEntity
8
Geo
100
AcDbLine
10
-65.8688135662581
20
18.4810561164876
30
0.00000000000000
11
-65.8544802329248
21
18.4806534497449
31
0.00000000000000
  0
LINE
  5
F1023C
330
F1023D
100
AcDbEntity
8
Geo
100
AcDbLine
10
-65.8544802329248
20
18.4806534497449
30
0.00000000000000
11
-65.8401468995914
21
18.4801596093433
31
0.00000000000000
  0
LINE
  5
F1023E
330
F1023F
100
AcDbEntity
8
Geo
100
AcDbLine
10
-65.8401468995914
20
18.4801596093433
30
0.00000000000000
11
-65.8258135662581
21
18.4795746554046
31
0.00000000000000
  0
LINE
  5
F10240
330
F10241
100
AcDbEntity
8
Geo
100
AcDbLine
10
-65.8258135662581
20
18.4795746554046
30
0.00000000000000
11
-65.8114802329248
21
18.4788986591434
31
0.00000000000000
  0
LINE
  5
F10242
330
F10243
100
AcDbEntity
8
Geo
100
AcDbLine
10
-65.8114802329248
20
18.4788986591434
30
0.00000000000000
11
-65.7971468995914
21
18.4781317028577
31
0.00000000000000
  0
LINE
  5
F10244
330
F10245
100
AcDbEntity
8
Geo
100
AcDbLine
10
-65.7971468995914
20
18.4781317028577
30
0.00000000000000
11
-65.7828135662581
21
18.4772738799197
31
0.00000000000000
  0
LINE
  5
F10246
330
F10247
100
AcDbEntity
8
Geo
100
AcDbLine
10
-65.7828135662581
20
18.4772738799197
30
0.00000000000000
11
-65.7684802329248
21
18.4763252947638
31
0.00000000000000
  0
LINE
  5
F10248
330
F10249
100
AcDbEntity
8
Geo
100
AcDbLine
10
-65.7684802329248
20
18.4763252947638
30
0.00000000000000
11
-65.7541468995914
21
18.4752860628742
31
0.00000000000000
  0
LINE
  5
F1024A
330
F1024B
100
AcDbEntity
8
Geo
100
AcDbLine
10
-65.7541468995914
20
18.4752860628742
30
0.00000000000000
11
-65.7398135662581
21
18.4741563107707
31
0.00000000000000
  0
LINE
  5
F1024C
330
F1024D
100
AcDbEntity
8
Geo
100
AcDbLine
10
-65.7398135662581
20
18.4741563107707
30
0.00000000000000
11
-65.7254802329248
21
18.4729361759935
31
0.00000000000000
  0
LINE
  5
F1024E
330
F1024F
100
AcDbEntity
8
Geo
100
AcDbLine
10
-65.7254802329248
20
18.4729361759935
30
0.00000000000000
11
-65.7111468995914
21
18.4716258070863
31
0.00000000000000
  0
LINE
  5
F10250
330
F10251
100
AcDbEntity
8
Geo
100
AcDbLine
10
-65.7111468995914
20
18.4716258070863
30
0.00000000000000
11
-65.6968135662581
21
18.4702253635779
31
0.00000000000000
  0
LINE
  5
F10252
330
F10253
100
AcDbEntity
8
Geo
100
AcDbLine
10
-65.6968135662581
20
18.4702253635779
30
0.00000000000000
11
-65.6824802329248
21
18.4687350159636
31
0.00000000000000
  0
LINE
  5
F10254
330
F10255
100
AcDbEntity
8
Geo
100
AcDbLine
10
-65.6824802329248
20
18.4687350159636
30
0.00000000000000
11
-65.6681468995914
21
18.4671549456837
31
0.00000000000000
  0
LINE
  5
F10256
330
F10257
100
AcDbEntity
8
Geo
100
AcDbLine
10
-65.6681468995914
20
18.4671549456837
30
0.00000000000000
11
-65.6538135662581
21
18.4654853451015
31
0.00000000000000
  0
LINE
  5
F10258
330
F10259
100
AcDbEntity
8
Geo
100
AcDbLine
10
-65.6538135662581
20
18.4654853451015
30
0.00000000000000
11
-65.6394802329248
21
18.4637264174804
31
0.00000000000000
  0
LINE
  5
F1025A
330
F1025B
100
AcDbEntity
8
Geo
100
AcDbLine
10
-65.6394802329248
20
18.4637264174804
30
0.00000000000000
11
-65.6251468995914
21
18.4618783769585
31
0.00000000000000
  0
LINE
  5
F1025C
330
F1025D
100
AcDbEntity
8
Geo
100
AcDbLine
10
-65.6251468995914
20
18.4618783769585
30
0.00000000000000
11
-65.6108135662581
21
18.4599414485230
31
0.00000000000000
  0
LINE
  5
F1025E
330
F1025F
100
AcDbEntity
8
Geo
100
AcDbLine
10
-65.6108135662581
20
18.4599414485230
30
0.00000000000000
11
-65.5964802329248
21
18.4579158679825
31
0.00000000000000
  0
LINE
  5
F10260
330
F10261
100
AcDbEntity
8
Geo
100
AcDbLine
10
-65.5964802329248
20
18.4579158679825
30
0.00000000000000
11
-65.5821468995914
21
18.4558018819387
31
0.00000000000000
  0
LINE
  5
F10262
330
F10263
100
AcDbEntity
8
Geo
100
AcDbLine
10
-65.5821468995914
20
18.4558018819387
30
0.00000000000000
11
-65.5678135662581
21
18.4535997477557
31
0.00000000000000
  0
LINE
  5
F10264
330
F10265
100
AcDbEntity
8
Geo
100
AcDbLine
10
-65.5678135662581
20
18.4535997477557
30
0.00000000000000
11
-65.5534802329248
21
18.4513097335294
31
0.00000000000000
  0
LINE
  5
F10266
330
F10267
100
AcDbEntity
8
Geo
100
AcDbLine
10
-69.4378135662581
20
17.3331927297343
30
0.00000000000000
11
-69.4378135662581
21
17.8985666857659
31
0.00000000000000
  0
LINE
  5
F10268
330
F10269
100
AcDbEntity
8
Geo
100
AcDbLine
10
-69.4378135662581
20
17.8985666857659
30
0.00000000000000
11
-69.4234802329248
21
17.9497526652531
31
0.00000000000000
  0
LINE
  5
F1026A
330
F1026B
100
AcDbEntity
8
Geo
100
AcDbLine
10
-69.4234802329248
20
17.9497526652531
30
0.00000000000000
11
-69.4091468995914
21
17.9873473648852
31
0.00000000000000
  0
LINE
  5
F1026C
330
F1026D
100
AcDbEntity
8
Geo
100
AcDbLine
10
-69.4091468995914
20
17.9873473648852
30
0.00000000000000
11
-69.3948135662581
21
18.0177928185631
31
0.00000000000000
  0
LINE
  5
F1026E
330
F1026F
100
AcDbEntity
8
Geo
100
AcDbLine
10
-69.3948135662581
20
18.0177928185631
30
0.00000000000000
11
-69.3804802329248
21
18.0435802211753
31
0.00000000000000
  0
LINE
  5
F10270
330
F10271
100
AcDbEntity
8
Geo
100
AcDbLine
10
-69.3804802329248
20
18.0435802211753
30
0.00000000000000
11
-69.3661468995914
21
18.0659871268150
31
0.00000000000000
  0
LINE
  5
F10272
330
F10273
100
AcDbEntity
8
Geo
100
AcDbLine
10
-69.3661468995914
20
18.0659871268150
30
0.00000000000000
11
-69.3518135662581
21
18.0857725801327
31
0.00000000000000
  0
LINE
  5
F10274
330
F10275
100
AcDbEntity
8
Geo
100
AcDbLine
10
-69.3518135662581
20
18.0857725801327
30
0.00000000000000
11
-69.3374802329248
21
18.1034311710051
31
0.00000000000000
  0
LINE
  5
F10276
330
F10277
100
AcDbEntity
8
Geo
100
AcDbLine
10
-69.3374802329248
20
18.1034311710051
30
0.00000000000000
11
-69.3231468995914
21
18.1193064010606
31
0.00000000000000
  0
LINE
  5
F10278
330
F10279
100
AcDbEntity
8
Geo
100
AcDbLine
10
-69.3231468995914
20
18.1193064010606
30
0.00000000000000
11
-69.3088135662581
21
18.1336482937327
31
0.00000000000000
  0
LINE
  5
F1027A
330
F1027B
100
AcDbEntity
8
Geo
100
AcDbLine
10
-69.3088135662581
20
18.1336482937327
30
0.00000000000000
11
-69.2944802329248
21
18.1466455066200
31
0.00000000000000
  0
LINE
  5
F1027C
330
F1027D
100
AcDbEntity
8
Geo
100
AcDbLine
10
-69.2944802329248
20
18.1466455066200
30
0.00000000000000
11
-69.2801468995914
21
18.1584445204005
31
0.00000000000000
  0
LINE
  5
F1027E
330
F1027F
100
AcDbEntity
8
Geo
100
AcDbLine
10
-69.2801468995914
20
18.1584445204005
30
0.00000000000000
11
-69.2658135662581
21
18.1691617460733
31
0.00000000000000
  0
LINE
  5
F10280
330
F10281
100
AcDbEntity
8
Geo
100
AcDbLine
10
-69.2658135662581
20
18.1691617460733
30
0.00000000000000
11
-69.2514802329248
21
18.1788915057830
31
0.00000000000000
  0
LINE
  5
F10282
330
F10283
100
AcDbEntity
8
Geo
100
AcDbLine
10
-69.2514802329248
20
18.1788915057830
30
0.00000000000000
11
-69.2371468995915
21
18.1877114865812
31
0.00000000000000
  0
LINE
  5
F10284
330
F10285
100
AcDbEntity
8
Geo
100
AcDbLine
10
-69.2371468995915
20
18.1877114865812
30
0.00000000000000
11
-69.2228135662581
21
18.1956865815393
31
0.00000000000000
  0
LINE
  5
F10286
330
F10287
100
AcDbEntity
8
Geo
100
AcDbLine
10
-69.2228135662581
20
18.1956865815393
30
0.00000000000000
11
-69.2084802329248
21
18.2028716654380
31
0.00000000000000
  0
LINE
  5
F10288
330
F10289
100
AcDbEntity
8
Geo
100
AcDbLine
10
-69.2084802329248
20
18.2028716654380
30
0.00000000000000
11
-69.1941468995914
21
18.2093136454012
31
0.00000000000000
  0
LINE
  5
F1028A
330
F1028B
100
AcDbEntity
8
Geo
100
AcDbLine
10
-69.1941468995914
20
18.2093136454012
30
0.00000000000000
11
-69.1798135662581
21
18.2150530053043
31
0.00000000000000
  0
LINE
  5
F1028C
330
F1028D
100
AcDbEntity
8
Geo
100
AcDbLine
10
-69.1798135662581
20
18.2150530053043
30
0.00000000000000
11
-69.1654802329248
21
18.2201249887362
31
0.00000000000000
  0
LINE
  5
F1028E
330
F1028F
100
AcDbEntity
8
Geo
100
AcDbLine
10
-69.1654802329248
20
18.2201249887362
30
0.00000000000000
11
-69.1511468995915
21
18.2245605187496
31
0.00000000000000
  0
LINE
  5
F10290
330
F10291
100
AcDbEntity
8
Geo
100
AcDbLine
10
-69.1511468995915
20
18.2245605187496
30
0.00000000000000
11
-69.1368135662581
21
18.2283869225389
31
0.00000000000000
  0
LINE
  5
F10292
330
F10293
100
AcDbEntity
8
Geo
100
AcDbLine
10
-69.1368135662581
20
18.2283869225389
30
0.00000000000000
11
-69.1224802329248
21
18.2316285092637
31
0.00000000000000
  0
LINE
  5
F10294
330
F10295
100
AcDbEntity
8
Geo
100
AcDbLine
10
-69.1224802329248
20
18.2316285092637
30
0.00000000000000
11
-69.1081468995914
21
18.2343070357389
31
0.00000000000000
  0
LINE
  5
F10296
330
F10297
100
AcDbEntity
8
Geo
100
AcDbLine
10
-69.1081468995914
20
18.2343070357389
30
0.00000000000000
11
-69.0938135662581
21
18.2364420854040
31
0.00000000000000
  0
LINE
  5
F10298
330
F10299
100
AcDbEntity
8
Geo
100
AcDbLine
10
-69.0938135662581
20
18.2364420854040
30
0.00000000000000
11
-69.0794802329248
21
18.2380513794336
31
0.00000000000000
  0
LINE
  5
F1029A
330
F1029B
100
AcDbEntity
8
Geo
100
AcDbLine
10
-69.0794802329248
20
18.2380513794336
30
0.00000000000000
11
-69.0651468995914
21
18.2391510341811
31
0.00000000000000
  0
LINE
  5
F1029C
330
F1029D
100
AcDbEntity
8
Geo
100
AcDbLine
10
-69.0651468995914
20
18.2391510341811
30
0.00000000000000
11
-69.0508135662581
21
18.2397557757591
31
0.00000000000000
  0
LINE
  5
F1029E
330
F1029F
100
AcDbEntity
8
Geo
100
AcDbLine
10
-69.0508135662581
20
18.2397557757591
30
0.00000000000000
11
-69.0364802329248
21
18.2398791200703
31
0.00000000000000
  0
LINE
  5
F102A0
330
F102A1
100
AcDbEntity
8
Geo
100
AcDbLine
10
-69.0364802329248
20
18.2398791200703
30
0.00000000000000
11
-69.0221468995914
21
18.2395335247549
31
0.00000000000000
  0
LINE
  5
F102A2
330
F102A3
100
AcDbEntity
8
Geo
100
AcDbLine
10
-69.0221468995914
20
18.2395335247549
30
0.00000000000000
11
-69.0078135662581
21
18.2387305181269
31
0.00000000000000
  0
LINE
  5
F102A4
330
F102A5
100
AcDbEntity
8
Geo
100
AcDbLine
10
-69.0078135662581
20
18.2387305181269
30
0.00000000000000
11
-68.9934802329248
21
18.2374808091150
31
0.00000000000000
  0
LINE
  5
F102A6
330
F102A7
100
AcDbEntity
8
Geo
100
AcDbLine
10
-68.9934802329248
20
18.2374808091150
30
0.00000000000000
11
-68.9791468995914
21
18.2357943814086
31
0.00000000000000
  0
LINE
  5
F102A8
330
F102A9
100
AcDbEntity
8
Geo
100
AcDbLine
10
-68.9791468995914
20
18.2357943814086
30
0.00000000000000
11
-68.9648135662581
21
18.2336805743829
31
0.00000000000000
  0
LINE
  5
F102AA
330
F102AB
100
AcDbEntity
8
Geo
100
AcDbLine
10
-68.9648135662581
20
18.2336805743829
30
0.00000000000000
11
-68.9504802329248
21
18.2311481528819
31
0.00000000000000
  0
LINE
  5
F102AC
330
F102AD
100
AcDbEntity
8
Geo
100
AcDbLine
10
-68.9504802329248
20
18.2311481528819
30
0.00000000000000
11
-68.9361468995914
21
18.2282053675498
31
0.00000000000000
  0
LINE
  5
F102AE
330
F102AF
100
AcDbEntity
8
Geo
100
AcDbLine
10
-68.9361468995914
20
18.2282053675498
30
0.00000000000000
11
-68.9218135662581
21
18.2248600070957
31
0.00000000000000
  0
LINE
  5
F102B0
330
F102B1
100
AcDbEntity
8
Geo
100
AcDbLine
10
-68.9218135662581
20
18.2248600070957
30
0.00000000000000
11
-68.9074802329248
21
18.2211194436233
31
0.00000000000000
  0
LINE
  5
F102B2
330
F102B3
100
AcDbEntity
8
Geo
100
AcDbLine
10
-68.9074802329248
20
18.2211194436233
30
0.00000000000000
11
-68.8931468995914
21
18.2169906719633
31
0.00000000000000
  0
LINE
  5
F102B4
330
F102B5
100
AcDbEntity
8
Geo
100
AcDbLine
10
-68.8931468995914
20
18.2169906719633
30
0.00000000000000
11
-68.8788135662581
21
18.2124803437794
31
0.00000000000000
  0
LINE
  5
F102B6
330
F102B7
100
AcDbEntity
8
Geo
100
AcDbLine
10
-68.8788135662581
20
18.2124803437794
30
0.00000000000000
11
-68.8644802329248
21
18.2075947970870
31
0.00000000000000
  0
LINE
  5
F102B8
330
F102B9
100
AcDbEntity
8
Geo
100
AcDbLine
10
-68.8644802329248
20
18.2075947970870
30
0.00000000000000
11
-68.8501468995915
21
18.2023400817120
31
0.00000000000000
  0
LINE
  5
F102BA
330
F102BB
100
AcDbEntity
8
Geo
100
AcDbLine
10
-68.8501468995915
20
18.2023400817120
30
0.00000000000000
11
-68.8358135662581
21
18.1967219811255
31
0.00000000000000
  0
LINE
  5
F102BC
330
F102BD
100
AcDbEntity
8
Geo
100
AcDbLine
10
-68.8358135662581
20
18.1967219811255
30
0.00000000000000
11
-68.8214802329248
21
18.1907460310100
31
0.00000000000000
  0
LINE
  5
F102BE
330
F102BF
100
AcDbEntity
8
Geo
100
AcDbLine
10
-68.8214802329248
20
18.1907460310100
30
0.00000000000000
11
-68.8071468995914
21
18.1844175348473
31
0.00000000000000
  0
LINE
  5
F102C0
330
F102C1
100
AcDbEntity
8
Geo
100
AcDbLine
10
-68.8071468995914
20
18.1844175348473
30
0.00000000000000
11
-68.7928135662581
21
18.1778075447623
31
0.00000000000000
  0
LINE
  5
F102C2
330
F102C3
100
AcDbEntity
8
Geo
100
AcDbLine
10
-68.7928135662581
20
18.1778075447623
30
0.00000000000000
11
-68.7784802329248
21
18.1711278041558
31
0.00000000000000
  0
LINE
  5
F102C4
330
F102C5
100
AcDbEntity
8
Geo
100
AcDbLine
10
-68.7784802329248
20
18.1711278041558
30
0.00000000000000
11
-68.7641468995915
21
18.1643945726633
31
0.00000000000000
  0
LINE
  5
F102C6
330
F102C7
100
AcDbEntity
8
Geo
100
AcDbLine
10
-68.7641468995915
20
18.1643945726633
30
0.00000000000000
11
-68.7498135662581
21
18.1576086700126
31
0.00000000000000
  0
LINE
  5
F102C8
330
F102C9
100
AcDbEntity
8
Geo
100
AcDbLine
10
-68.7498135662581
20
18.1576086700126
30
0.00000000000000
11
-68.7354802329248
21
18.1507709223441
31
0.00000000000000
  0
LINE
  5
F102CA
330
F102CB
100
AcDbEntity
8
Geo
100
AcDbLine
10
-68.7354802329248
20
18.1507709223441
30
0.00000000000000
11
-68.7211468995914
21
18.1438821621099
31
0.00000000000000
  0
LINE
  5
F102CC
330
F102CD
100
AcDbEntity
8
Geo
100
AcDbLine
10
-68.7211468995914
20
18.1438821621099
30
0.00000000000000
11
-68.7068135662581
21
18.1369432279728
31
0.00000000000000
  0
LINE
  5
F102CE
330
F102CF
100
AcDbEntity
8
Geo
100
AcDbLine
10
-68.7068135662581
20
18.1369432279728
30
0.00000000000000
11
-68.6924802329248
21
18.1299549647037
31
0.00000000000000
  0
LINE
  5
F102D0
330
F102D1
100
AcDbEntity
8
Geo
100
AcDbLine
10
-68.6924802329248
20
18.1299549647037
30
0.00000000000000
11
-68.6781468995915
21
18.1229182230789
31
0.00000000000000
  0
LINE
  5
F102D2
330
F102D3
100
AcDbEntity
8
Geo
100
AcDbLine
10
-68.6781468995915
20
18.1229182230789
30
0.00000000000000
11
-68.6638135662581
21
18.1158338597771
31
0.00000000000000
  0
LINE
  5
F102D4
330
F102D5
100
AcDbEntity
8
Geo
100
AcDbLine
10
-68.6638135662581
20
18.1158338597771
30
0.00000000000000
11
-68.6494802329248
21
18.1087027372740
31
0.00000000000000
  0
LINE
  5
F102D6
330
F102D7
100
AcDbEntity
8
Geo
100
AcDbLine
10
-68.6494802329248
20
18.1087027372740
30
0.00000000000000
11
-68.6351468995914
21
18.1015257237386
31
0.00000000000000
  0
LINE
  5
F102D8
330
F102D9
100
AcDbEntity
8
Geo
100
AcDbLine
10
-68.6351468995914
20
18.1015257237386
30
0.00000000000000
11
-68.6208135662581
21
18.0943036929263
31
0.00000000000000
  0
LINE
  5
F102DA
330
F102DB
100
AcDbEntity
8
Geo
100
AcDbLine
10
-68.6208135662581
20
18.0943036929263
30
0.00000000000000
11
-68.6064802329248
21
18.0870375240733
31
0.00000000000000
  0
LINE
  5
F102DC
330
F102DD
100
AcDbEntity
8
Geo
100
AcDbLine
10
-68.6064802329248
20
18.0870375240733
30
0.00000000000000
11
-68.5921468995914
21
18.0797281017894
31
0.00000000000000
  0
LINE
  5
F102DE
330
F102DF
100
AcDbEntity
8
Geo
100
AcDbLine
10
-68.5921468995914
20
18.0797281017894
30
0.00000000000000
11
-68.5778135662581
21
18.0723763159501
31
0.00000000000000
  0
LINE
  5
F102E0
330
F102E1
100
AcDbEntity
8
Geo
100
AcDbLine
10
-68.5778135662581
20
18.0723763159501
30
0.00000000000000
11
-68.5634802329248
21
18.0649830615884
31
0.00000000000000
  0
LINE
  5
F102E2
330
F102E3
100
AcDbEntity
8
Geo
100
AcDbLine
10
-68.5634802329248
20
18.0649830615884
30
0.00000000000000
11
-68.5491468995914
21
18.0575492387859
31
0.00000000000000
  0
LINE
  5
F102E4
330
F102E5
100
AcDbEntity
8
Geo
100
AcDbLine
10
-68.5491468995914
20
18.0575492387859
30
0.00000000000000
11
-68.5348135662581
21
18.0500757525631
31
0.00000000000000
  0
LINE
  5
F102E6
330
F102E7
100
AcDbEntity
8
Geo
100
AcDbLine
10
-68.5348135662581
20
18.0500757525631
30
0.00000000000000
11
-68.5204802329248
21
18.0425635127692
31
0.00000000000000
  0
LINE
  5
F102E8
330
F102E9
100
AcDbEntity
8
Geo
100
AcDbLine
10
-68.5204802329248
20
18.0425635127692
30
0.00000000000000
11
-68.5061468995914
21
18.0350134339715
31
0.00000000000000
  0
LINE
  5
F102EA
330
F102EB
100
AcDbEntity
8
Geo
100
AcDbLine
10
-68.5061468995914
20
18.0350134339715
30
0.00000000000000
11
-68.4918135662581
21
18.0274264353439
31
0.00000000000000
  0
LINE
  5
F102EC
330
F102ED
100
AcDbEntity
8
Geo
100
AcDbLine
10
-68.4918135662581
20
18.0274264353439
30
0.00000000000000
11
-68.4774802329248
21
18.0198034405553
31
0.00000000000000
  0
LINE
  5
F102EE
330
F102EF
100
AcDbEntity
8
Geo
100
AcDbLine
10
-68.4774802329248
20
18.0198034405553
30
0.00000000000000
11
-68.4631468995915
21
18.0121453776564
31
0.00000000000000
  0
LINE
  5
F102F0
330
F102F1
100
AcDbEntity
8
Geo
100
AcDbLine
10
-68.4631468995915
20
18.0121453776564
30
0.00000000000000
11
-68.4488135662581
21
18.0044531789676
31
0.00000000000000
  0
LINE
  5
F102F2
330
F102F3
100
AcDbEntity
8
Geo
100
AcDbLine
10
-68.4488135662581
20
18.0044531789676
30
0.00000000000000
11
-68.4344802329248
21
17.9967277809651
31
0.00000000000000
  0
LINE
  5
F102F4
330
F102F5
100
AcDbEntity
8
Geo
100
AcDbLine
10
-68.4344802329248
20
17.9967277809651
30
0.00000000000000
11
-68.4201468995914
21
17.9889701241668
31
0.00000000000000
  0
LINE
  5
F102F6
330
F102F7
100
AcDbEntity
8
Geo
100
AcDbLine
10
-68.4201468995914
20
17.9889701241668
30
0.00000000000000
11
-68.4058135662581
21
17.9811811530179
31
0.00000000000000
  0
LINE
  5
F102F8
330
F102F9
100
AcDbEntity
8
Geo
100
AcDbLine
10
-68.4058135662581
20
17.9811811530179
30
0.00000000000000
11
-68.3914802329248
21
17.9733618157759
31
0.00000000000000
  0
LINE
  5
F102FA
330
F102FB
100
AcDbEntity
8
Geo
100
AcDbLine
10
-68.3914802329248
20
17.9733618157759
30
0.00000000000000
11
-68.3771468995915
21
17.9655130643953
31
0.00000000000000
  0
LINE
  5
F102FC
330
F102FD
100
AcDbEntity
8
Geo
100
AcDbLine
10
-68.3771468995915
20
17.9655130643953
30
0.00000000000000
11
-68.3628135662581
21
17.9576358544115
31
0.00000000000000
  0
LINE
  5
F102FE
330
F102FF
100
AcDbEntity
8
Geo
100
AcDbLine
10
-68.3628135662581
20
17.9576358544115
30
0.00000000000000
11
-68.3484802329248
21
17.9497311448246
31
0.00000000000000
  0
LINE
  5
F10300
330
F10301
100
AcDbEntity
8
Geo
100
AcDbLine
10
-68.3484802329248
20
17.9497311448246
30
0.00000000000000
11
-68.3341468995914
21
17.9417998979825
31
0.00000000000000
  0
LINE
  5
F10302
330
F10303
100
AcDbEntity
8
Geo
100
AcDbLine
10
-68.3341468995914
20
17.9417998979825
30
0.00000000000000
11
-68.3198135662581
21
17.9338430794639
31
0.00000000000000
  0
LINE
  5
F10304
330
F10305
100
AcDbEntity
8
Geo
100
AcDbLine
10
-68.3198135662581
20
17.9338430794639
30
0.00000000000000
11
-68.3054802329248
21
17.9258616579607
31
0.00000000000000
  0
LINE
  5
F10306
330
F10307
100
AcDbEntity
8
Geo
100
AcDbLine
10
-68.3054802329248
20
17.9258616579607
30
0.00000000000000
11
-68.2911468995915
21
17.9178566051601
31
0.00000000000000
  0
LINE
  5
F10308
330
F10309
100
AcDbEntity
8
Geo
100
AcDbLine
10
-68.2911468995915
20
17.9178566051601
30
0.00000000000000
11
-68.2768135662581
21
17.9098288956263
31
0.00000000000000
  0
LINE
  5
F1030A
330
F1030B
100
AcDbEntity
8
Geo
100
AcDbLine
10
-68.2768135662581
20
17.9098288956263
30
0.00000000000000
11
-68.2624802329248
21
17.9017795066815
31
0.00000000000000
  0
LINE
  5
F1030C
330
F1030D
100
AcDbEntity
8
Geo
100
AcDbLine
10
-68.2624802329248
20
17.9017795066815
30
0.00000000000000
11
-68.2481468995914
21
17.8937094182876
31
0.00000000000000
  0
LINE
  5
F1030E
330
F1030F
100
AcDbEntity
8
Geo
100
AcDbLine
10
-68.2481468995914
20
17.8937094182876
30
0.00000000000000
11
-68.2338135662581
21
17.8856196129264
31
0.00000000000000
  0
LINE
  5
F10310
330
F10311
100
AcDbEntity
8
Geo
100
AcDbLine
10
-68.2338135662581
20
17.8856196129264
30
0.00000000000000
11
-68.2194802329248
21
17.8775110754800
31
0.00000000000000
  0
LINE
  5
F10312
330
F10313
100
AcDbEntity
8
Geo
100
AcDbLine
10
-68.2194802329248
20
17.8775110754800
30
0.00000000000000
11
-68.2051468995915
21
17.8693847931112
31
0.00000000000000
  0
LINE
  5
F10314
330
F10315
100
AcDbEntity
8
Geo
100
AcDbLine
10
-68.2051468995915
20
17.8693847931112
30
0.00000000000000
11
-68.1908135662581
21
17.8612417551430
31
0.00000000000000
  0
LINE
  5
F10316
330
F10317
100
AcDbEntity
8
Geo
100
AcDbLine
10
-68.1908135662581
20
17.8612417551430
30
0.00000000000000
11
-68.1764802329248
21
17.8530829529383
31
0.00000000000000
  0
LINE
  5
F10318
330
F10319
100
AcDbEntity
8
Geo
100
AcDbLine
10
-68.1764802329248
20
17.8530829529383
30
0.00000000000000
11
-68.1621468995914
21
17.8449093797792
31
0.00000000000000
  0
LINE
  5
F1031A
330
F1031B
100
AcDbEntity
8
Geo
100
AcDbLine
10
-68.1621468995914
20
17.8449093797792
30
0.00000000000000
11
-68.1478135662581
21
17.8367220307462
31
0.00000000000000
  0
LINE
  5
F1031C
330
F1031D
100
AcDbEntity
8
Geo
100
AcDbLine
10
-68.1478135662581
20
17.8367220307462
30
0.00000000000000
11
-68.1334802329248
21
17.8285219025968
31
0.00000000000000
  0
LINE
  5
F1031E
330
F1031F
100
AcDbEntity
8
Geo
100
AcDbLine
10
-68.1334802329248
20
17.8285219025968
30
0.00000000000000
11
-68.1191468995914
21
17.8203099936442
31
0.00000000000000
  0
LINE
  5
F10320
330
F10321
100
AcDbEntity
8
Geo
100
AcDbLine
10
-68.1191468995914
20
17.8203099936442
30
0.00000000000000
11
-68.1048135662581
21
17.8120873036360
31
0.00000000000000
  0
LINE
  5
F10322
330
F10323
100
AcDbEntity
8
Geo
100
AcDbLine
10
-68.1048135662581
20
17.8120873036360
30
0.00000000000000
11
-68.0904802329248
21
17.8038548336322
31
0.00000000000000
  0
LINE
  5
F10324
330
F10325
100
AcDbEntity
8
Geo
100
AcDbLine
10
-68.0904802329248
20
17.8038548336322
30
0.00000000000000
11
-68.0761468995914
21
17.7956135858836
31
0.00000000000000
  0
LINE
  5
F10326
330
F10327
100
AcDbEntity
8
Geo
100
AcDbLine
10
-68.0761468995914
20
17.7956135858836
30
0.00000000000000
11
-68.0618135662581
21
17.7873645637094
31
0.00000000000000
  0
LINE
  5
F10328
330
F10329
100
AcDbEntity
8
Geo
100
AcDbLine
10
-68.0618135662581
20
17.7873645637094
30
0.00000000000000
11
-68.0474802329248
21
17.7791087713756
31
0.00000000000000
  0
LINE
  5
F1032A
330
F1032B
100
AcDbEntity
8
Geo
100
AcDbLine
10
-68.0474802329248
20
17.7791087713756
30
0.00000000000000
11
-68.0331468995914
21
17.7708472139721
31
0.00000000000000
  0
LINE
  5
F1032C
330
F1032D
100
AcDbEntity
8
Geo
100
AcDbLine
10
-68.0331468995914
20
17.7708472139721
30
0.00000000000000
11
-68.0188135662581
21
17.7625808972909
31
0.00000000000000
  0
LINE
  5
F1032E
330
F1032F
100
AcDbEntity
8
Geo
100
AcDbLine
10
-68.0188135662581
20
17.7625808972909
30
0.00000000000000
11
-68.0044802329248
21
17.7543108277033
31
0.00000000000000
  0
LINE
  5
F10330
330
F10331
100
AcDbEntity
8
Geo
100
AcDbLine
10
-68.0044802329248
20
17.7543108277033
30
0.00000000000000
11
-67.9901468995915
21
17.7460380120375
31
0.00000000000000
  0
LINE
  5
F10332
330
F10333
100
AcDbEntity
8
Geo
100
AcDbLine
10
-67.9901468995915
20
17.7460380120375
30
0.00000000000000
11
-67.9758135662581
21
17.7377634574560
31
0.00000000000000
  0
LINE
  5
F10334
330
F10335
100
AcDbEntity
8
Geo
100
AcDbLine
10
-67.9758135662581
20
17.7377634574560
30
0.00000000000000
11
-67.9614802329248
21
17.7294881713331
31
0.00000000000000
  0
LINE
  5
F10336
330
F10337
100
AcDbEntity
8
Geo
100
AcDbLine
10
-67.9614802329248
20
17.7294881713331
30
0.00000000000000
11
-67.9471468995914
21
17.7212131611321
31
0.00000000000000
  0
LINE
  5
F10338
330
F10339
100
AcDbEntity
8
Geo
100
AcDbLine
10
-67.9471468995914
20
17.7212131611321
30
0.00000000000000
11
-67.9328135662581
21
17.7129394342827
31
0.00000000000000
  0
LINE
  5
F1033A
330
F1033B
100
AcDbEntity
8
Geo
100
AcDbLine
10
-67.9328135662581
20
17.7129394342827
30
0.00000000000000
11
-67.9184802329248
21
17.7046679980583
31
0.00000000000000
  0
LINE
  5
F1033C
330
F1033D
100
AcDbEntity
8
Geo
100
AcDbLine
10
-67.9184802329248
20
17.7046679980583
30
0.00000000000000
11
-67.9041468995915
21
17.6963998594536
31
0.00000000000000
  0
LINE
  5
F1033E
330
F1033F
100
AcDbEntity
8
Geo
100
AcDbLine
10
-67.9041468995915
20
17.6963998594536
30
0.00000000000000
11
-67.8898135662581
21
17.6881360250616
31
0.00000000000000
  0
LINE
  5
F10340
330
F10341
100
AcDbEntity
8
Geo
100
AcDbLine
10
-67.8898135662581
20
17.6881360250616
30
0.00000000000000
11
-67.8754802329248
21
17.6798775009515
31
0.00000000000000
  0
LINE
  5
F10342
330
F10343
100
AcDbEntity
8
Geo
100
AcDbLine
10
-67.8754802329248
20
17.6798775009515
30
0.00000000000000
11
-67.8611468995914
21
17.6716252925460
31
0.00000000000000
  0
LINE
  5
F10344
330
F10345
100
AcDbEntity
8
Geo
100
AcDbLine
10
-67.8611468995914
20
17.6716252925460
30
0.00000000000000
11
-67.8468135662581
21
17.6633804044987
31
0.00000000000000
  0
LINE
  5
F10346
330
F10347
100
AcDbEntity
8
Geo
100
AcDbLine
10
-67.8468135662581
20
17.6633804044987
30
0.00000000000000
11
-67.8324802329248
21
17.6551438405722
31
0.00000000000000
  0
LINE
  5
F10348
330
F10349
100
AcDbEntity
8
Geo
100
AcDbLine
10
-67.8324802329248
20
17.6551438405722
30
0.00000000000000
11
-67.8181468995915
21
17.6469166035155
31
0.00000000000000
  0
LINE
  5
F1034A
330
F1034B
100
AcDbEntity
8
Geo
100
AcDbLine
10
-67.8181468995915
20
17.6469166035155
30
0.00000000000000
11
-67.8038135662581
21
17.6386996949424
31
0.00000000000000
  0
LINE
  5
F1034C
330
F1034D
100
AcDbEntity
8
Geo
100
AcDbLine
10
-67.8038135662581
20
17.6386996949424
30
0.00000000000000
11
-67.7894802329248
21
17.6304941152090
31
0.00000000000000
  0
LINE
  5
F1034E
330
F1034F
100
AcDbEntity
8
Geo
100
AcDbLine
10
-67.7894802329248
20
17.6304941152090
30
0.00000000000000
11
-67.7751468995914
21
17.6223008632924
31
0.00000000000000
  0
LINE
  5
F10350
330
F10351
100
AcDbEntity
8
Geo
100
AcDbLine
10
-67.7751468995914
20
17.6223008632924
30
0.00000000000000
11
-67.7608135662581
21
17.6141209366685
31
0.00000000000000
  0
LINE
  5
F10352
330
F10353
100
AcDbEntity
8
Geo
100
AcDbLine
10
-67.7608135662581
20
17.6141209366685
30
0.00000000000000
11
-67.7464802329248
21
17.6059553311915
31
0.00000000000000
  0
LINE
  5
F10354
330
F10355
100
AcDbEntity
8
Geo
100
AcDbLine
10
-67.7464802329248
20
17.6059553311915
30
0.00000000000000
11
-67.7321468995915
21
17.5978050409715
31
0.00000000000000
  0
LINE
  5
F10356
330
F10357
100
AcDbEntity
8
Geo
100
AcDbLine
10
-67.7321468995915
20
17.5978050409715
30
0.00000000000000
11
-67.7178135662581
21
17.5896710582546
31
0.00000000000000
  0
LINE
  5
F10358
330
F10359
100
AcDbEntity
8
Geo
100
AcDbLine
10
-67.7178135662581
20
17.5896710582546
30
0.00000000000000
11
-67.7034802329248
21
17.5815543733011
31
0.00000000000000
  0
LINE
  5
F1035A
330
F1035B
100
AcDbEntity
8
Geo
100
AcDbLine
10
-67.7034802329248
20
17.5815543733011
30
0.00000000000000
11
-67.6891468995914
21
17.5734559742656
31
0.00000000000000
  0
LINE
  5
F1035C
330
F1035D
100
AcDbEntity
8
Geo
100
AcDbLine
10
-67.6891468995914
20
17.5734559742656
30
0.00000000000000
11
-67.6748135662581
21
17.5653768470768
31
0.00000000000000
  0
LINE
  5
F1035E
330
F1035F
100
AcDbEntity
8
Geo
100
AcDbLine
10
-67.6748135662581
20
17.5653768470768
30
0.00000000000000
11
-67.6604802329248
21
17.5573179753166
31
0.00000000000000
  0
LINE
  5
F10360
330
F10361
100
AcDbEntity
8
Geo
100
AcDbLine
10
-67.6604802329248
20
17.5573179753166
30
0.00000000000000
11
-67.6461468995914
21
17.5492803401013
31
0.00000000000000
  0
LINE
  5
F10362
330
F10363
100
AcDbEntity
8
Geo
100
AcDbLine
10
-67.6461468995914
20
17.5492803401013
30
0.00000000000000
11
-67.6318135662581
21
17.5412649199618
31
0.00000000000000
  0
LINE
  5
F10364
330
F10365
100
AcDbEntity
8
Geo
100
AcDbLine
10
-67.6318135662581
20
17.5412649199618
30
0.00000000000000
11
-67.6174802329248
21
17.5332726907244
31
0.00000000000000
  0
LINE
  5
F10366
330
F10367
100
AcDbEntity
8
Geo
100
AcDbLine
10
-67.6174802329248
20
17.5332726907244
30
0.00000000000000
11
-67.6031468995915
21
17.5253046253918
31
0.00000000000000
  0
LINE
  5
F10368
330
F10369
100
AcDbEntity
8
Geo
100
AcDbLine
10
-67.6031468995915
20
17.5253046253918
30
0.00000000000000
11
-67.5888135662581
21
17.5173616940254
31
0.00000000000000
  0
LINE
  5
F1036A
330
F1036B
100
AcDbEntity
8
Geo
100
AcDbLine
10
-67.5888135662581
20
17.5173616940254
30
0.00000000000000
11
-67.5744802329248
21
17.5094448636262
31
0.00000000000000
  0
LINE
  5
F1036C
330
F1036D
100
AcDbEntity
8
Geo
100
AcDbLine
10
-67.5744802329248
20
17.5094448636262
30
0.00000000000000
11
-67.5601468995914
21
17.5015550980180
31
0.00000000000000
  0
LINE
  5
F1036E
330
F1036F
100
AcDbEntity
8
Geo
100
AcDbLine
10
-67.5601468995914
20
17.5015550980180
30
0.00000000000000
11
-67.5458135662581
21
17.4936933577292
31
0.00000000000000
  0
LINE
  5
F10370
330
F10371
100
AcDbEntity
8
Geo
100
AcDbLine
10
-67.5458135662581
20
17.4936933577292
30
0.00000000000000
11
-67.5314802329248
21
17.4858605998767
31
0.00000000000000
  0
LINE
  5
F10372
330
F10373
100
AcDbEntity
8
Geo
100
AcDbLine
10
-67.5314802329248
20
17.4858605998767
30
0.00000000000000
11
-67.5171468995915
21
17.4780577780488
31
0.00000000000000
  0
LINE
  5
F10374
330
F10375
100
AcDbEntity
8
Geo
100
AcDbLine
10
-67.5171468995915
20
17.4780577780488
30
0.00000000000000
11
-67.5028135662581
21
17.4702858421892
31
0.00000000000000
  0
LINE
  5
F10376
330
F10377
100
AcDbEntity
8
Geo
100
AcDbLine
10
-67.5028135662581
20
17.4702858421892
30
0.00000000000000
11
-67.4884802329248
21
17.4625457384816
31
0.00000000000000
  0
LINE
  5
F10378
330
F10379
100
AcDbEntity
8
Geo
100
AcDbLine
10
-67.4884802329248
20
17.4625457384816
30
0.00000000000000
11
-67.4741468995914
21
17.4548384092342
31
0.00000000000000
  0
LINE
  5
F1037A
330
F1037B
100
AcDbEntity
8
Geo
100
AcDbLine
10
-67.4741468995914
20
17.4548384092342
30
0.00000000000000
11
-67.4598135662581
21
17.4471647927651
31
0.00000000000000
  0
LINE
  5
F1037C
330
F1037D
100
AcDbEntity
8
Geo
100
AcDbLine
10
-67.4598135662581
20
17.4471647927651
30
0.00000000000000
11
-67.4454802329248
21
17.4395258232883
31
0.00000000000000
  0
LINE
  5
F1037E
330
F1037F
100
AcDbEntity
8
Geo
100
AcDbLine
10
-67.4454802329248
20
17.4395258232883
30
0.00000000000000
11
-67.4311468995915
21
17.4319224307995
31
0.00000000000000
  0
LINE
  5
F10380
330
F10381
100
AcDbEntity
8
Geo
100
AcDbLine
10
-67.4311468995915
20
17.4319224307995
30
0.00000000000000
11
-67.4168135662581
21
17.4243555409633
31
0.00000000000000
  0
LINE
  5
F10382
330
F10383
100
AcDbEntity
8
Geo
100
AcDbLine
10
-67.4168135662581
20
17.4243555409633
30
0.00000000000000
11
-67.4024802329248
21
17.4168260750001
31
0.00000000000000
  0
LINE
  5
F10384
330
F10385
100
AcDbEntity
8
Geo
100
AcDbLine
10
-67.4024802329248
20
17.4168260750001
30
0.00000000000000
11
-67.3881468995914
21
17.4093349495746
31
0.00000000000000
  0
LINE
  5
F10386
330
F10387
100
AcDbEntity
8
Geo
100
AcDbLine
10
-67.3881468995914
20
17.4093349495746
30
0.00000000000000
11
-67.3738135662581
21
17.4018830766834
31
0.00000000000000
  0
LINE
  5
F10388
330
F10389
100
AcDbEntity
8
Geo
100
AcDbLine
10
-67.3738135662581
20
17.4018830766834
30
0.00000000000000
11
-67.3594802329248
21
17.3944713635445
31
0.00000000000000
  0
LINE
  5
F1038A
330
F1038B
100
AcDbEntity
8
Geo
100
AcDbLine
10
-67.3594802329248
20
17.3944713635445
30
0.00000000000000
11
-67.3451468995915
21
17.3871007124867
31
0.00000000000000
  0
LINE
  5
F1038C
330
F1038D
100
AcDbEntity
8
Geo
100
AcDbLine
10
-67.3451468995915
20
17.3871007124867
30
0.00000000000000
11
-67.3308135662581
21
17.3797720208397
31
0.00000000000000
  0
LINE
  5
F1038E
330
F1038F
100
AcDbEntity
8
Geo
100
AcDbLine
10
-67.3308135662581
20
17.3797720208397
30
0.00000000000000
11
-67.3164802329248
21
17.3724861808250
31
0.00000000000000
  0
LINE
  5
F10390
330
F10391
100
AcDbEntity
8
Geo
100
AcDbLine
10
-67.3164802329248
20
17.3724861808250
30
0.00000000000000
11
-67.3021468995914
21
17.3652440794471
31
0.00000000000000
  0
LINE
  5
F10392
330
F10393
100
AcDbEntity
8
Geo
100
AcDbLine
10
-67.3021468995914
20
17.3652440794471
30
0.00000000000000
11
-67.2878135662581
21
17.3580465983858
31
0.00000000000000
  0
LINE
  5
F10394
330
F10395
100
AcDbEntity
8
Geo
100
AcDbLine
10
-67.2878135662581
20
17.3580465983858
30
0.00000000000000
11
-67.2734802329248
21
17.3508946138883
31
0.00000000000000
  0
LINE
  5
F10396
330
F10397
100
AcDbEntity
8
Geo
100
AcDbLine
10
-67.2734802329248
20
17.3508946138883
30
0.00000000000000
11
-67.2591468995914
21
17.3437889966632
31
0.00000000000000
  0
LINE
  5
F10398
330
F10399
100
AcDbEntity
8
Geo
100
AcDbLine
10
-67.2591468995914
20
17.3437889966632
30
0.00000000000000
11
-67.2448135662581
21
17.3367306117741
31
0.00000000000000
  0
LINE
  5
F1039A
330
F1039B
100
AcDbEntity
8
Geo
100
AcDbLine
10
-67.2448135662581
20
17.3367306117741
30
0.00000000000000
11
-67.2304802329248
21
17.3297203185342
31
0.00000000000000
  0
LINE
  5
F1039C
330
F1039D
100
AcDbEntity
8
Geo
100
AcDbLine
10
-67.2304802329248
20
17.3297203185342
30
0.00000000000000
11
-67.2161468995915
21
17.3227589704021
31
0.00000000000000
  0
LINE
  5
F1039E
330
F1039F
100
AcDbEntity
8
Geo
100
AcDbLine
10
-67.2161468995915
20
17.3227589704021
30
0.00000000000000
11
-67.2018135662581
21
17.3158474148775
31
0.00000000000000
  0
LINE
  5
F103A0
330
F103A1
100
AcDbEntity
8
Geo
100
AcDbLine
10
-67.2018135662581
20
17.3158474148775
30
0.00000000000000
11
-67.1874802329248
21
17.3089864933982
31
0.00000000000000
  0
LINE
  5
F103A2
330
F103A3
100
AcDbEntity
8
Geo
100
AcDbLine
10
-67.1874802329248
20
17.3089864933982
30
0.00000000000000
11
-67.1731468995914
21
17.3021770412376
31
0.00000000000000
  0
LINE
  5
F103A4
330
F103A5
100
AcDbEntity
8
Geo
100
AcDbLine
10
-67.1731468995914
20
17.3021770412376
30
0.00000000000000
11
-67.1588135662581
21
17.2954198874031
31
0.00000000000000
  0
LINE
  5
F103A6
330
F103A7
100
AcDbEntity
8
Geo
100
AcDbLine
10
-67.1588135662581
20
17.2954198874031
30
0.00000000000000
11
-67.1444802329248
21
17.2887158545350
31
0.00000000000000
  0
LINE
  5
F103A8
330
F103A9
100
AcDbEntity
8
Geo
100
AcDbLine
10
-67.1444802329248
20
17.2887158545350
30
0.00000000000000
11
-67.1301468995914
21
17.2820657588066
31
0.00000000000000
  0
LINE
  5
F103AA
330
F103AB
100
AcDbEntity
8
Geo
100
AcDbLine
10
-67.1301468995914
20
17.2820657588066
30
0.00000000000000
11
-67.1158135662581
21
17.2754704098246
31
0.00000000000000
  0
LINE
  5
F103AC
330
F103AD
100
AcDbEntity
8
Geo
100
AcDbLine
10
-67.1158135662581
20
17.2754704098246
30
0.00000000000000
11
-67.1014802329248
21
17.2689306105307
31
0.00000000000000
  0
LINE
  5
F103AE
330
F103AF
100
AcDbEntity
8
Geo
100
AcDbLine
10
-67.1014802329248
20
17.2689306105307
30
0.00000000000000
11
-67.0871468995914
21
17.2624471571037
31
0.00000000000000
  0
LINE
  5
F103B0
330
F103B1
100
AcDbEntity
8
Geo
100
AcDbLine
10
-67.0871468995914
20
17.2624471571037
30
0.00000000000000
11
-67.0728135662581
21
17.2560208388627
31
0.00000000000000
  0
LINE
  5
F103B2
330
F103B3
100
AcDbEntity
8
Geo
100
AcDbLine
10
-67.0728135662581
20
17.2560208388627
30
0.00000000000000
11
-67.0584802329248
21
17.2496524381710
31
0.00000000000000
  0
LINE
  5
F103B4
330
F103B5
100
AcDbEntity
8
Geo
100
AcDbLine
10
-67.0584802329248
20
17.2496524381710
30
0.00000000000000
11
-67.0441468995914
21
17.2433427303408
31
0.00000000000000
  0
LINE
  5
F103B6
330
F103B7
100
AcDbEntity
8
Geo
100
AcDbLine
10
-67.0441468995914
20
17.2433427303408
30
0.00000000000000
11
-67.0298135662581
21
17.2370924835386
31
0.00000000000000
  0
LINE
  5
F103B8
330
F103B9
100
AcDbEntity
8
Geo
100
AcDbLine
10
-67.0298135662581
20
17.2370924835386
30
0.00000000000000
11
-67.0154802329248
21
17.2309024586923
31
0.00000000000000
  0
LINE
  5
F103BA
330
F103BB
100
AcDbEntity
8
Geo
100
AcDbLine
10
-67.0154802329248
20
17.2309024586923
30
0.00000000000000
11
-67.0011468995914
21
17.2247734093977
31
0.00000000000000
  0
LINE
  5
F103BC
330
F103BD
100
AcDbEntity
8
Geo
100
AcDbLine
10
-67.0011468995914
20
17.2247734093977
30
0.00000000000000
11
-66.9868135662581
21
17.2187060818277
31
0.00000000000000
  0
LINE
  5
F103BE
330
F103BF
100
AcDbEntity
8
Geo
100
AcDbLine
10
-66.9868135662581
20
17.2187060818277
30
0.00000000000000
11
-66.9724802329248
21
17.2127012146405
31
0.00000000000000
  0
LINE
  5
F103C0
330
F103C1
100
AcDbEntity
8
Geo
100
AcDbLine
10
-66.9724802329248
20
17.2127012146405
30
0.00000000000000
11
-66.9581468995914
21
17.2067595388905
31
0.00000000000000
  0
LINE
  5
F103C2
330
F103C3
100
AcDbEntity
8
Geo
100
AcDbLine
10
-66.9581468995914
20
17.2067595388905
30
0.00000000000000
11
-66.9438135662581
21
17.2008817779388
31
0.00000000000000
  0
LINE
  5
F103C4
330
F103C5
100
AcDbEntity
8
Geo
100
AcDbLine
10
-66.9438135662581
20
17.2008817779388
30
0.00000000000000
11
-66.9294802329248
21
17.1950686473653
31
0.00000000000000
  0
LINE
  5
F103C6
330
F103C7
100
AcDbEntity
8
Geo
100
AcDbLine
10
-66.9294802329248
20
17.1950686473653
30
0.00000000000000
11
-66.9151468995914
21
17.1893208548816
31
0.00000000000000
  0
LINE
  5
F103C8
330
F103C9
100
AcDbEntity
8
Geo
100
AcDbLine
10
-66.9151468995914
20
17.1893208548816
30
0.00000000000000
11
-66.9008135662581
21
17.1836391002447
31
0.00000000000000
  0
LINE
  5
F103CA
330
F103CB
100
AcDbEntity
8
Geo
100
AcDbLine
10
-66.9008135662581
20
17.1836391002447
30
0.00000000000000
11
-66.8864802329248
21
17.1780240751721
31
0.00000000000000
  0
LINE
  5
F103CC
330
F103CD
100
AcDbEntity
8
Geo
100
AcDbLine
10
-66.8864802329248
20
17.1780240751721
30
0.00000000000000
11
-66.8721468995914
21
17.1724764632571
31
0.00000000000000
  0
LINE
  5
F103CE
330
F103CF
100
AcDbEntity
8
Geo
100
AcDbLine
10
-66.8721468995914
20
17.1724764632571
30
0.00000000000000
11
-66.8578135662581
21
17.1669969398861
31
0.00000000000000
  0
LINE
  5
F103D0
330
F103D1
100
AcDbEntity
8
Geo
100
AcDbLine
10
-66.8578135662581
20
17.1669969398861
30
0.00000000000000
11
-66.8434802329248
21
17.1615861721563
31
0.00000000000000
  0
LINE
  5
F103D2
330
F103D3
100
AcDbEntity
8
Geo
100
AcDbLine
10
-66.8434802329248
20
17.1615861721563
30
0.00000000000000
11
-66.8291468995914
21
17.1562448187940
31
0.00000000000000
  0
LINE
  5
F103D4
330
F103D5
100
AcDbEntity
8
Geo
100
AcDbLine
10
-66.8291468995914
20
17.1562448187940
30
0.00000000000000
11
-66.8148135662581
21
17.1509735300749
31
0.00000000000000
  0
LINE
  5
F103D6
330
F103D7
100
AcDbEntity
8
Geo
100
AcDbLine
10
-66.8148135662581
20
17.1509735300749
30
0.00000000000000
11
-66.8004802329248
21
17.1457729477448
31
0.00000000000000
  0
LINE
  5
F103D8
330
F103D9
100
AcDbEntity
8
Geo
100
AcDbLine
10
-66.8004802329248
20
17.1457729477448
30
0.00000000000000
11
-66.7861468995914
21
17.1406437049414
31
0.00000000000000
  0
LINE
  5
F103DA
330
F103DB
100
AcDbEntity
8
Geo
100
AcDbLine
10
-66.7861468995914
20
17.1406437049414
30
0.00000000000000
11
-66.7718135662581
21
17.1355864261173
31
0.00000000000000
  0
LINE
  5
F103DC
330
F103DD
100
AcDbEntity
8
Geo
100
AcDbLine
10
-66.7718135662581
20
17.1355864261173
30
0.00000000000000
11
-66.7574802329248
21
17.1306017269640
31
0.00000000000000
  0
LINE
  5
F103DE
330
F103DF
100
AcDbEntity
8
Geo
100
AcDbLine
10
-66.7574802329248
20
17.1306017269640
30
0.00000000000000
11
-66.7431468995914
21
17.1256902143368
31
0.00000000000000
  0
LINE
  5
F103E0
330
F103E1
100
AcDbEntity
8
Geo
100
AcDbLine
10
-66.7431468995914
20
17.1256902143368
30
0.00000000000000
11
-66.7288135662581
21
17.1208524861810
31
0.00000000000000
  0
LINE
  5
F103E2
330
F103E3
100
AcDbEntity
8
Geo
100
AcDbLine
10
-66.7288135662581
20
17.1208524861810
30
0.00000000000000
11
-66.7144802329248
21
17.1160891314591
31
0.00000000000000
  0
LINE
  5
F103E4
330
F103E5
100
AcDbEntity
8
Geo
100
AcDbLine
10
-66.7144802329248
20
17.1160891314591
30
0.00000000000000
11
-66.7001468995914
21
17.1114007300792
31
0.00000000000000
  0
LINE
  5
F103E6
330
F103E7
100
AcDbEntity
8
Geo
100
AcDbLine
10
-66.7001468995914
20
17.1114007300792
30
0.00000000000000
11
-66.6858135662581
21
17.1067878528243
31
0.00000000000000
  0
LINE
  5
F103E8
330
F103E9
100
AcDbEntity
8
Geo
100
AcDbLine
10
-66.6858135662581
20
17.1067878528243
30
0.00000000000000
11
-66.6714802329248
21
17.1022510612828
31
0.00000000000000
  0
LINE
  5
F103EA
330
F103EB
100
AcDbEntity
8
Geo
100
AcDbLine
10
-66.6714802329248
20
17.1022510612828
30
0.00000000000000
11
-66.6571468995914
21
17.0977909077799
31
0.00000000000000
  0
LINE
  5
F103EC
330
F103ED
100
AcDbEntity
8
Geo
100
AcDbLine
10
-66.6571468995914
20
17.0977909077799
30
0.00000000000000
11
-66.6428135662581
21
17.0934079353111
31
0.00000000000000
  0
LINE
  5
F103EE
330
F103EF
100
AcDbEntity
8
Geo
100
AcDbLine
10
-66.6428135662581
20
17.0934079353111
30
0.00000000000000
11
-66.6284802329248
21
17.0891026774753
31
0.00000000000000
  0
LINE
  5
F103F0
330
F103F1
100
AcDbEntity
8
Geo
100
AcDbLine
10
-66.6284802329248
20
17.0891026774753
30
0.00000000000000
11
-66.6141468995914
21
17.0848756584100
31
0.00000000000000
  0
LINE
  5
F103F2
330
F103F3
100
AcDbEntity
8
Geo
100
AcDbLine
10
-66.6141468995914
20
17.0848756584100
30
0.00000000000000
11
-66.5998135662581
21
17.0807273927280
31
0.00000000000000
  0
LINE
  5
F103F4
330
F103F5
100
AcDbEntity
8
Geo
100
AcDbLine
10
-66.5998135662581
20
17.0807273927280
30
0.00000000000000
11
-66.5854802329248
21
17.0766583854541
31
0.00000000000000
  0
LINE
  5
F103F6
330
F103F7
100
AcDbEntity
8
Geo
100
AcDbLine
10
-66.5854802329248
20
17.0766583854541
30
0.00000000000000
11
-66.5711468995914
21
17.0726691319640
31
0.00000000000000
  0
LINE
  5
F103F8
330
F103F9
100
AcDbEntity
8
Geo
100
AcDbLine
10
-66.5711468995914
20
17.0726691319640
30
0.00000000000000
11
-66.5568135662581
21
17.0687601179239
31
0.00000000000000
  0
LINE
  5
F103FA
330
F103FB
100
AcDbEntity
8
Geo
100
AcDbLine
10
-66.5568135662581
20
17.0687601179239
30
0.00000000000000
11
-66.5424802329248
21
17.0649318192312
31
0.00000000000000
  0
LINE
  5
F103FC
330
F103FD
100
AcDbEntity
8
Geo
100
AcDbLine
10
-66.5424802329248
20
17.0649318192312
30
0.00000000000000
11
-66.5281468995914
21
17.0611847019569
31
0.00000000000000
  0
LINE
  5
F103FE
330
F103FF
100
AcDbEntity
8
Geo
100
AcDbLine
10
-66.5281468995914
20
17.0611847019569
30
0.00000000000000
11
-66.5138135662581
21
17.0575192222887
31
0.00000000000000
  0
LINE
  5
F10400
330
F10401
100
AcDbEntity
8
Geo
100
AcDbLine
10
-66.5138135662581
20
17.0575192222887
30
0.00000000000000
11
-66.4994802329248
21
17.0539358264753
31
0.00000000000000
  0
LINE
  5
F10402
330
F10403
100
AcDbEntity
8
Geo
100
AcDbLine
10
-66.4994802329248
20
17.0539358264753
30
0.00000000000000
11
-66.4851468995914
21
17.0504349507723
31
0.00000000000000
  0
LINE
  5
F10404
330
F10405
100
AcDbEntity
8
Geo
100
AcDbLine
10
-66.4851468995914
20
17.0504349507723
30
0.00000000000000
11
-66.4708135662581
21
17.0470170213890
31
0.00000000000000
  0
LINE
  5
F10406
330
F10407
100
AcDbEntity
8
Geo
100
AcDbLine
10
-66.4708135662581
20
17.0470170213890
30
0.00000000000000
11
-66.4564802329248
21
17.0436824544364
31
0.00000000000000
  0
LINE
  5
F10408
330
F10409
100
AcDbEntity
8
Geo
100
AcDbLine
10
-66.4564802329248
20
17.0436824544364
30
0.00000000000000
11
-66.4421468995914
21
17.0404316558769
31
0.00000000000000
  0
LINE
  5
F1040A
330
F1040B
100
AcDbEntity
8
Geo
100
AcDbLine
10
-66.4421468995914
20
17.0404316558769
30
0.00000000000000
11
-66.4278135662581
21
17.0372650214744
31
0.00000000000000
  0
LINE
  5
F1040C
330
F1040D
100
AcDbEntity
8
Geo
100
AcDbLine
10
-66.4278135662581
20
17.0372650214744
30
0.00000000000000
11
-66.4134802329248
21
17.0341829367465
31
0.00000000000000
  0
LINE
  5
F1040E
330
F1040F
100
AcDbEntity
8
Geo
100
AcDbLine
10
-66.4134802329248
20
17.0341829367465
30
0.00000000000000
11
-66.3991468995914
21
17.0311857769172
31
0.00000000000000
  0
LINE
  5
F10410
330
F10411
100
AcDbEntity
8
Geo
100
AcDbLine
10
-66.3991468995914
20
17.0311857769172
30
0.00000000000000
11
-66.3848135662581
21
17.0282739068718
31
0.00000000000000
  0
LINE
  5
F10412
330
F10413
100
AcDbEntity
8
Geo
100
AcDbLine
10
-66.3848135662581
20
17.0282739068718
30
0.00000000000000
11
-66.3704802329248
21
17.0254476811118
31
0.00000000000000
  0
LINE
  5
F10414
330
F10415
100
AcDbEntity
8
Geo
100
AcDbLine
10
-66.3704802329248
20
17.0254476811118
30
0.00000000000000
11
-66.3561468995914
21
17.0227074437121
31
0.00000000000000
  0
LINE
  5
F10416
330
F10417
100
AcDbEntity
8
Geo
100
AcDbLine
10
-66.3561468995914
20
17.0227074437121
30
0.00000000000000
11
-66.3418135662581
21
17.0200535282792
31
0.00000000000000
  0
LINE
  5
F10418
330
F10419
100
AcDbEntity
8
Geo
100
AcDbLine
10
-66.3418135662581
20
17.0200535282792
30
0.00000000000000
11
-66.3274802329248
21
17.0174862579104
31
0.00000000000000
  0
LINE
  5
F1041A
330
F1041B
100
AcDbEntity
8
Geo
100
AcDbLine
10
-66.3274802329248
20
17.0174862579104
30
0.00000000000000
11
-66.3131468995914
21
17.0150059451544
31
0.00000000000000
  0
LINE
  5
F1041C
330
F1041D
100
AcDbEntity
8
Geo
100
AcDbLine
10
-66.3131468995914
20
17.0150059451544
30
0.00000000000000
11
-66.2988135662581
21
17.0126128919736
31
0.00000000000000
  0
LINE
  5
F1041E
330
F1041F
100
AcDbEntity
8
Geo
100
AcDbLine
10
-66.2988135662581
20
17.0126128919736
30
0.00000000000000
11
-66.2844802329248
21
17.0103073897068
31
0.00000000000000
  0
LINE
  5
F10420
330
F10421
100
AcDbEntity
8
Geo
100
AcDbLine
10
-66.2844802329248
20
17.0103073897068
30
0.00000000000000
11
-66.2701468995914
21
17.0080897190342
31
0.00000000000000
  0
LINE
  5
F10422
330
F10423
100
AcDbEntity
8
Geo
100
AcDbLine
10
-66.2701468995914
20
17.0080897190342
30
0.00000000000000
11
-66.2558135662581
21
17.0059601499432
31
0.00000000000000
  0
LINE
  5
F10424
330
F10425
100
AcDbEntity
8
Geo
100
AcDbLine
10
-66.2558135662581
20
17.0059601499432
30
0.00000000000000
11
-66.2414802329248
21
17.0039189416951
31
0.00000000000000
  0
LINE
  5
F10426
330
F10427
100
AcDbEntity
8
Geo
100
AcDbLine
10
-66.2414802329248
20
17.0039189416951
30
0.00000000000000
11
-66.2271468995914
21
17.0019663427941
31
0.00000000000000
  0
LINE
  5
F10428
330
F10429
100
AcDbEntity
8
Geo
100
AcDbLine
10
-66.2271468995914
20
17.0019663427941
30
0.00000000000000
11
-66.2128135662581
21
17.0001025909566
31
0.00000000000000
  0
LINE
  5
F1042A
330
F1042B
100
AcDbEntity
8
Geo
100
AcDbLine
10
-66.2128135662581
20
17.0001025909566
30
0.00000000000000
11
-66.1984802329248
21
16.9983279130825
31
0.00000000000000
  0
LINE
  5
F1042C
330
F1042D
100
AcDbEntity
8
Geo
100
AcDbLine
10
-66.1984802329248
20
16.9983279130825
30
0.00000000000000
11
-66.1841468995914
21
16.9966425252275
31
0.00000000000000
  0
LINE
  5
F1042E
330
F1042F
100
AcDbEntity
8
Geo
100
AcDbLine
10
-66.1841468995914
20
16.9966425252275
30
0.00000000000000
11
-66.1698135662581
21
16.9950466325769
31
0.00000000000000
  0
LINE
  5
F10430
330
F10431
100
AcDbEntity
8
Geo
100
AcDbLine
10
-66.1698135662581
20
16.9950466325769
30
0.00000000000000
11
-66.1554802329248
21
16.9935404294203
31
0.00000000000000
  0
LINE
  5
F10432
330
F10433
100
AcDbEntity
8
Geo
100
AcDbLine
10
-66.1554802329248
20
16.9935404294203
30
0.00000000000000
11
-66.1411468995914
21
16.9921240991285
31
0.00000000000000
  0
LINE
  5
F10434
330
F10435
100
AcDbEntity
8
Geo
100
AcDbLine
10
-66.1411468995914
20
16.9921240991285
30
0.00000000000000
11
-66.1268135662581
21
16.9907978141305
31
0.00000000000000
  0
LINE
  5
F10436
330
F10437
100
AcDbEntity
8
Geo
100
AcDbLine
10
-66.1268135662581
20
16.9907978141305
30
0.00000000000000
11
-66.1124802329248
21
16.9895617358932
31
0.00000000000000
  0
LINE
  5
F10438
330
F10439
100
AcDbEntity
8
Geo
100
AcDbLine
10
-66.1124802329248
20
16.9895617358932
30
0.00000000000000
11
-66.0981468995914
21
16.9884160149011
31
0.00000000000000
  0
LINE
  5
F1043A
330
F1043B
100
AcDbEntity
8
Geo
100
AcDbLine
10
-66.0981468995914
20
16.9884160149011
30
0.00000000000000
11
-66.0838135662581
21
16.9873607906385
31
0.00000000000000
  0
LINE
  5
F1043C
330
F1043D
100
AcDbEntity
8
Geo
100
AcDbLine
10
-66.0838135662581
20
16.9873607906385
30
0.00000000000000
11
-66.0694802329248
21
16.9863961915723
31
0.00000000000000
  0
LINE
  5
F1043E
330
F1043F
100
AcDbEntity
8
Geo
100
AcDbLine
10
-66.0694802329248
20
16.9863961915723
30
0.00000000000000
11
-66.0551468995914
21
16.9855223351361
31
0.00000000000000
  0
LINE
  5
F10440
330
F10441
100
AcDbEntity
8
Geo
100
AcDbLine
10
-66.0551468995914
20
16.9855223351361
30
0.00000000000000
11
-66.0408135662581
21
16.9847393277165
31
0.00000000000000
  0
LINE
  5
F10442
330
F10443
100
AcDbEntity
8
Geo
100
AcDbLine
10
-66.0408135662581
20
16.9847393277165
30
0.00000000000000
11
-66.0264802329248
21
16.9840472646396
31
0.00000000000000
  0
LINE
  5
F10444
330
F10445
100
AcDbEntity
8
Geo
100
AcDbLine
10
-66.0264802329248
20
16.9840472646396
30
0.00000000000000
11
-66.0121468995914
21
16.9834462301597
31
0.00000000000000
  0
LINE
  5
F10446
330
F10447
100
AcDbEntity
8
Geo
100
AcDbLine
10
-66.0121468995914
20
16.9834462301597
30
0.00000000000000
11
-65.9978135662581
21
16.9829362974488
31
0.00000000000000
  0
LINE
  5
F10448
330
F10449
100
AcDbEntity
8
Geo
100
AcDbLine
10
-65.9978135662581
20
16.9829362974488
30
0.00000000000000
11
-65.9834802329248
21
16.9825175285880
31
0.00000000000000
  0
LINE
  5
F1044A
330
F1044B
100
AcDbEntity
8
Geo
100
AcDbLine
10
-65.9834802329248
20
16.9825175285880
30
0.00000000000000
11
-65.9691468995914
21
16.9821899745599
31
0.00000000000000
  0
LINE
  5
F1044C
330
F1044D
100
AcDbEntity
8
Geo
100
AcDbLine
10
-65.9691468995914
20
16.9821899745599
30
0.00000000000000
11
-65.9548135662581
21
16.9819536752419
31
0.00000000000000
  0
LINE
  5
F1044E
330
F1044F
100
AcDbEntity
8
Geo
100
AcDbLine
10
-65.9548135662581
20
16.9819536752419
30
0.00000000000000
11
-65.9404802329248
21
16.9818086594020
31
0.00000000000000
  0
LINE
  5
F10450
330
F10451
100
AcDbEntity
8
Geo
100
AcDbLine
10
-65.9404802329248
20
16.9818086594020
30
0.00000000000000
11
-65.9261468995914
21
16.9817549446951
31
0.00000000000000
  0
LINE
  5
F10452
330
F10453
100
AcDbEntity
8
Geo
100
AcDbLine
10
-65.9261468995914
20
16.9817549446951
30
0.00000000000000
11
-65.9248814851803
21
16.9817545888673
31
0.00000000000000
  0
LINE
  5
F10454
330
F10455
100
AcDbEntity
8
Geo
100
AcDbLine
10
-65.5534802329248
20
16.9832500844372
30
0.00000000000000
11
-65.5391468995914
21
16.9794670863011
31
0.00000000000000
  0
LINE
  5
F10456
330
F10457
100
AcDbEntity
8
Geo
100
AcDbLine
10
-65.5391468995914
20
16.9794670863011
30
0.00000000000000
11
-65.5248135662581
21
16.9752599640576
31
0.00000000000000
  0
LINE
  5
F10458
330
F10459
100
AcDbEntity
8
Geo
100
AcDbLine
10
-65.5248135662581
20
16.9752599640576
30
0.00000000000000
11
-65.5104802329248
21
16.9711299351731
31
0.00000000000000
  0
LINE
  5
F1045A
330
F1045B
100
AcDbEntity
8
Geo
100
AcDbLine
10
-65.5104802329248
20
16.9711299351731
30
0.00000000000000
11
-65.4961468995914
21
16.9670784285440
31
0.00000000000000
  0
LINE
  5
F1045C
330
F1045D
100
AcDbEntity
8
Geo
100
AcDbLine
10
-65.4961468995914
20
16.9670784285440
30
0.00000000000000
11
-65.4818135662581
21
16.9631068652644
31
0.00000000000000
  0
LINE
  5
F1045E
330
F1045F
100
AcDbEntity
8
Geo
100
AcDbLine
10
-65.4818135662581
20
16.9631068652644
30
0.00000000000000
11
-65.4674802329248
21
16.9592166575209
31
0.00000000000000
  0
LINE
  5
F10460
330
F10461
100
AcDbEntity
8
Geo
100
AcDbLine
10
-65.4674802329248
20
16.9592166575209
30
0.00000000000000
11
-65.4660232988875
21
16.9588258412485
31
0.00000000000000
  0
LINE
  5
F10462
330
F10463
100
AcDbEntity
8
Geo
100
AcDbLine
10
-65.3044636977914
20
16.9155360766054
30
0.00000000000000
11
-65.2954802329248
21
16.9140124660340
31
0.00000000000000
  0
LINE
  5
F10464
330
F10465
100
AcDbEntity
8
Geo
100
AcDbLine
10
-65.2954802329248
20
16.9140124660340
30
0.00000000000000
11
-65.2811468995914
21
16.9244348143092
31
0.00000000000000
  0
LINE
  5
F10466
330
F10467
100
AcDbEntity
8
Geo
100
AcDbLine
10
-65.2811468995914
20
16.9244348143092
30
0.00000000000000
11
-65.2668135662581
21
16.9915912741981
31
0.00000000000000
  0
LINE
  5
F10468
330
F10469
100
AcDbEntity
8
Geo
100
AcDbLine
10
-65.2668135662581
20
16.9915912741981
30
0.00000000000000
11
-65.2524802329248
21
17.2381919440113
31
0.00000000000000
  0
LINE
  5
F1046A
330
F1046B
100
AcDbEntity
8
Geo
100
AcDbLine
10
-65.2524802329248
20
17.2381919440113
30
0.00000000000000
11
-65.2524802329248
21
17.3052944370032
31
0.00000000000000
  0
LINE
  5
F1046C
330
F1046D
100
AcDbEntity
8
Geo
100
AcDbLine
10
-65.2524802329248
20
17.3052944370032
30
0.00000000000000
11
-65.2668135662581
21
17.6398372501616
31
0.00000000000000
  0
LINE
  5
F1046E
330
F1046F
100
AcDbEntity
8
Geo
100
AcDbLine
10
-65.2668135662581
20
17.6398372501616
30
0.00000000000000
11
-65.2811468995914
21
17.9140893680023
31
0.00000000000000
  0
LINE
  5
F10470
330
F10471
100
AcDbEntity
8
Geo
100
AcDbLine
10
-65.2811468995914
20
17.9140893680023
30
0.00000000000000
11
-65.2954802329248
21
18.1118344241185
31
0.00000000000000
  0
LINE
  5
F10472
330
F10473
100
AcDbEntity
8
Geo
100
AcDbLine
10
-65.2954802329248
20
18.1118344241185
30
0.00000000000000
11
-65.3098135662581
21
18.2448037781615
31
0.00000000000000
  0
LINE
  5
F10474
330
F10475
100
AcDbEntity
8
Geo
100
AcDbLine
10
-65.3098135662581
20
18.2448037781615
30
0.00000000000000
11
-65.3241468995914
21
18.3306882710056
31
0.00000000000000
  0
LINE
  5
F10476
330
F10477
100
AcDbEntity
8
Geo
100
AcDbLine
10
-65.3241468995914
20
18.3306882710056
30
0.00000000000000
11
-65.3384802329248
21
18.3848209845589
31
0.00000000000000
  0
LINE
  5
F10478
330
F10479
100
AcDbEntity
8
Geo
100
AcDbLine
10
-65.3384802329248
20
18.3848209845589
30
0.00000000000000
11
-65.3528135662581
21
18.4183535600161
31
0.00000000000000
  0
LINE
  5
F1047A
330
F1047B
100
AcDbEntity
8
Geo
100
AcDbLine
10
-65.3528135662581
20
18.4183535600161
30
0.00000000000000
11
-65.3671468995914
21
18.4387626254373
31
0.00000000000000
  0
LINE
  5
F1047C
330
F1047D
100
AcDbEntity
8
Geo
100
AcDbLine
10
-65.3671468995914
20
18.4387626254373
30
0.00000000000000
11
-65.3814802329248
21
18.4508650624343
31
0.00000000000000
  0
LINE
  5
F1047E
330
F1047F
100
AcDbEntity
8
Geo
100
AcDbLine
10
-65.3814802329248
20
18.4508650624343
30
0.00000000000000
11
-65.3958135662581
21
18.4577145935227
31
0.00000000000000
  0
LINE
  5
F10480
330
F10481
100
AcDbEntity
8
Geo
100
AcDbLine
10
-65.3958135662581
20
18.4577145935227
30
0.00000000000000
11
-65.4101468995914
21
18.4612444494789
31
0.00000000000000
  0
LINE
  5
F10482
330
F10483
100
AcDbEntity
8
Geo
100
AcDbLine
10
-65.4101468995914
20
18.4612444494789
30
0.00000000000000
11
-65.4244802329248
21
18.4626858799428
31
0.00000000000000
  0
LINE
  5
F10484
330
F10485
100
AcDbEntity
8
Geo
100
AcDbLine
10
-65.4244802329248
20
18.4626858799428
30
0.00000000000000
11
-65.4388135662581
21
18.4628276632982
31
0.00000000000000
  0
LINE
  5
F10486
330
F10487
100
AcDbEntity
8
Geo
100
AcDbLine
10
-65.4388135662581
20
18.4628276632982
30
0.00000000000000
11
-65.4531468995914
21
18.4621742627243
31
0.00000000000000
  0
LINE
  5
F10488
330
F10489
100
AcDbEntity
8
Geo
100
AcDbLine
10
-65.4531468995914
20
18.4621742627243
30
0.00000000000000
11
-65.4674802329248
21
18.4610433613651
31
0.00000000000000
  0
LINE
  5
F1048A
330
F1048B
100
AcDbEntity
8
Geo
100
AcDbLine
10
-65.4674802329248
20
18.4610433613651
30
0.00000000000000
11
-65.4818135662581
21
18.4596283301618
31
0.00000000000000
  0
LINE
  5
F1048C
330
F1048D
100
AcDbEntity
8
Geo
100
AcDbLine
10
-65.4818135662581
20
18.4596283301618
30
0.00000000000000
11
-65.4961468995914
21
18.4580403349509
31
0.00000000000000
  0
LINE
  5
F1048E
330
F1048F
100
AcDbEntity
8
Geo
100
AcDbLine
10
-65.4961468995914
20
18.4580403349509
30
0.00000000000000
11
-65.5104802329248
21
18.4563379649525
31
0.00000000000000
  0
LINE
  5
F10490
330
F10491
100
AcDbEntity
8
Geo
100
AcDbLine
10
-65.5104802329248
20
18.4563379649525
30
0.00000000000000
11
-65.5248135662581
21
18.4545483984603
31
0.00000000000000
  0
LINE
  5
F10492
330
F10493
100
AcDbEntity
8
Geo
100
AcDbLine
10
-65.5248135662581
20
18.4545483984603
30
0.00000000000000
11
-65.5391468995914
21
18.4526821590426
31
0.00000000000000
  0
LINE
  5
F10494
330
F10495
100
AcDbEntity
8
Geo
100
AcDbLine
10
-65.5391468995914
20
18.4526821590426
30
0.00000000000000
11
-65.5534802329248
21
18.4513097335294
31
0.00000000000000
  0
LINE
  5
F10496
330
F10497
100
AcDbEntity
8
Geo
100
AcDbLine
10
-65.4660232988875
20
18.5046833364861
30
0.00000000000000
11
-65.4531468995914
21
18.5080999818247
31
0.00000000000000
  0
LINE
  5
F10498
330
F10499
100
AcDbEntity
8
Geo
100
AcDbLine
10
-65.4531468995914
20
18.5080999818247
30
0.00000000000000
11
-65.4388135662581
21
18.5118234067617
31
0.00000000000000
  0
LINE
  5
F1049A
330
F1049B
100
AcDbEntity
8
Geo
100
AcDbLine
10
-65.4388135662581
20
18.5118234067617
30
0.00000000000000
11
-65.4244802329248
21
18.5154619441332
31
0.00000000000000
  0
LINE
  5
F1049C
330
F1049D
100
AcDbEntity
8
Geo
100
AcDbLine
10
-65.4244802329248
20
18.5154619441332
30
0.00000000000000
11
-65.4101468995914
21
18.5190163460450
31
0.00000000000000
  0
LINE
  5
F1049E
330
F1049F
100
AcDbEntity
8
Geo
100
AcDbLine
10
-65.4101468995914
20
18.5190163460450
30
0.00000000000000
11
-65.3958135662581
21
18.5224923250822
31
0.00000000000000
  0
LINE
  5
F104A0
330
F104A1
100
AcDbEntity
8
Geo
100
AcDbLine
10
-65.3958135662581
20
18.5224923250822
30
0.00000000000000
11
-65.3814802329248
21
18.5259089719704
31
0.00000000000000
  0
LINE
  5
F104A2
330
F104A3
100
AcDbEntity
8
Geo
100
AcDbLine
10
-65.3814802329248
20
18.5259089719704
30
0.00000000000000
11
-65.3671468995914
21
18.5293171475627
31
0.00000000000000
  0
LINE
  5
F104A4
330
F104A5
100
AcDbEntity
8
Geo
100
AcDbLine
10
-65.3671468995914
20
18.5293171475627
30
0.00000000000000
11
-65.3528135662581
21
18.5328330079942
31
0.00000000000000
  0
LINE
  5
F104A6
330
F104A7
100
AcDbEntity
8
Geo
100
AcDbLine
10
-65.3528135662581
20
18.5328330079942
30
0.00000000000000
11
-65.3384802329248
21
18.5366790210856
31
0.00000000000000
  0
LINE
  5
F104A8
330
F104A9
100
AcDbEntity
8
Geo
100
AcDbLine
10
-65.3384802329248
20
18.5366790210856
30
0.00000000000000
11
-65.3241468995914
21
18.5411574548483
31
0.00000000000000
  0
LINE
  5
F104AA
330
F104AB
100
AcDbEntity
8
Geo
100
AcDbLine
10
-65.3241468995914
20
18.5411574548483
30
0.00000000000000
11
-65.3098135662581
21
18.5462249076071
31
0.00000000000000
  0
LINE
  5
F104AC
330
F104AD
100
AcDbEntity
8
Geo
100
AcDbLine
10
-65.3098135662581
20
18.5462249076071
30
0.00000000000000
11
-65.3044636977914
21
18.5479731011293
31
0.00000000000000
  0
LINE
  5
F104AE
330
F104AF
100
AcDbEntity
8
Geo
100
AcDbLine
10
-65.6011894256249
20
18.4817545888673
30
0.00000000000000
11
-65.5964802329248
21
18.4724180554645
31
0.00000000000000
  0
LINE
  5
F104B0
330
F104B1
100
AcDbEntity
8
Geo
100
AcDbLine
10
-65.5964802329248
20
18.4724180554645
30
0.00000000000000
11
-65.5821468995914
21
18.4723433446991
31
0.00000000000000
  0
LINE
  5
F104B2
330
F104B3
100
AcDbEntity
8
Geo
100
AcDbLine
10
-65.5821468995914
20
18.4723433446991
30
0.00000000000000
11
-65.5678135662581
21
18.4721784719771
31
0.00000000000000
  0
LINE
  5
F104B4
330
F104B5
100
AcDbEntity
8
Geo
100
AcDbLine
10
-65.5678135662581
20
18.4721784719771
30
0.00000000000000
11
-65.5534802329248
21
18.4719234573706
31
0.00000000000000
  0
LINE
  5
F104B6
330
F104B7
100
AcDbEntity
8
Geo
100
AcDbLine
10
-69.4378135662581
20
18.1141842621031
30
0.00000000000000
11
-69.4234802329248
21
18.1296068669803
31
0.00000000000000
  0
LINE
  5
F104B8
330
F104B9
100
AcDbEntity
8
Geo
100
AcDbLine
10
-69.4234802329248
20
18.1296068669803
30
0.00000000000000
11
-69.4091468995914
21
18.1448583211097
31
0.00000000000000
  0
LINE
  5
F104BA
330
F104BB
100
AcDbEntity
8
Geo
100
AcDbLine
10
-69.4091468995914
20
18.1448583211097
30
0.00000000000000
11
-69.3948135662581
21
18.1597337255605
31
0.00000000000000
  0
LINE
  5
F104BC
330
F104BD
100
AcDbEntity
8
Geo
100
AcDbLine
10
-69.3948135662581
20
18.1597337255605
30
0.00000000000000
11
-69.3804802329248
21
18.1741782570136
31
0.00000000000000
  0
LINE
  5
F104BE
330
F104BF
100
AcDbEntity
8
Geo
100
AcDbLine
10
-69.3804802329248
20
18.1741782570136
30
0.00000000000000
11
-69.3661468995914
21
18.1881828994669
31
0.00000000000000
  0
LINE
  5
F104C0
330
F104C1
100
AcDbEntity
8
Geo
100
AcDbLine
10
-69.3661468995914
20
18.1881828994669
30
0.00000000000000
11
-69.3518135662581
21
18.2017463150984
31
0.00000000000000
  0
LINE
  5
F104C2
330
F104C3
100
AcDbEntity
8
Geo
100
AcDbLine
10
-69.3518135662581
20
18.2017463150984
30
0.00000000000000
11
-69.3374802329248
21
18.2148842387456
31
0.00000000000000
  0
LINE
  5
F104C4
330
F104C5
100
AcDbEntity
8
Geo
100
AcDbLine
10
-69.3374802329248
20
18.2148842387456
30
0.00000000000000
11
-69.3231468995914
21
18.2275518506130
31
0.00000000000000
  0
LINE
  5
F104C6
330
F104C7
100
AcDbEntity
8
Geo
100
AcDbLine
10
-69.3231468995914
20
18.2275518506130
30
0.00000000000000
11
-69.3088135662581
21
18.2394272573077
31
0.00000000000000
  0
LINE
  5
F104C8
330
F104C9
100
AcDbEntity
8
Geo
100
AcDbLine
10
-69.3088135662581
20
18.2394272573077
30
0.00000000000000
11
-69.2944802329248
21
18.2504866037031
31
0.00000000000000
  0
LINE
  5
F104CA
330
F104CB
100
AcDbEntity
8
Geo
100
AcDbLine
10
-69.2944802329248
20
18.2504866037031
30
0.00000000000000
11
-69.2801468995914
21
18.2607794578143
31
0.00000000000000
  0
LINE
  5
F104CC
330
F104CD
100
AcDbEntity
8
Geo
100
AcDbLine
10
-69.2801468995914
20
18.2607794578143
30
0.00000000000000
11
-69.2658135662581
21
18.2703485095758
31
0.00000000000000
  0
LINE
  5
F104CE
330
F104CF
100
AcDbEntity
8
Geo
100
AcDbLine
10
-69.2658135662581
20
18.2703485095758
30
0.00000000000000
11
-69.2514802329248
21
18.2792308400802
31
0.00000000000000
  0
LINE
  5
F104D0
330
F104D1
100
AcDbEntity
8
Geo
100
AcDbLine
10
-69.2514802329248
20
18.2792308400802
30
0.00000000000000
11
-69.2371468995915
21
18.2874589089230
31
0.00000000000000
  0
LINE
  5
F104D2
330
F104D3
100
AcDbEntity
8
Geo
100
AcDbLine
10
-69.2371468995915
20
18.2874589089230
30
0.00000000000000
11
-69.2228135662581
21
18.2950613324290
31
0.00000000000000
  0
LINE
  5
F104D4
330
F104D5
100
AcDbEntity
8
Geo
100
AcDbLine
10
-69.2228135662581
20
18.2950613324290
30
0.00000000000000
11
-69.2084802329248
21
18.3020635043406
31
0.00000000000000
  0
LINE
  5
F104D6
330
F104D7
100
AcDbEntity
8
Geo
100
AcDbLine
10
-69.2084802329248
20
18.3020635043406
30
0.00000000000000
11
-69.1941468995914
21
18.3084880961736
31
0.00000000000000
  0
LINE
  5
F104D8
330
F104D9
100
AcDbEntity
8
Geo
100
AcDbLine
10
-69.1941468995914
20
18.3084880961736
30
0.00000000000000
11
-69.1798135662581
21
18.3143554644935
31
0.00000000000000
  0
LINE
  5
F104DA
330
F104DB
100
AcDbEntity
8
Geo
100
AcDbLine
10
-69.1798135662581
20
18.3143554644935
30
0.00000000000000
11
-69.1654802329248
21
18.3196839853657
31
0.00000000000000
  0
LINE
  5
F104DC
330
F104DD
100
AcDbEntity
8
Geo
100
AcDbLine
10
-69.1654802329248
20
18.3196839853657
30
0.00000000000000
11
-69.1511468995915
21
18.3244903312241
31
0.00000000000000
  0
LINE
  5
F104DE
330
F104DF
100
AcDbEntity
8
Geo
100
AcDbLine
10
-69.1511468995915
20
18.3244903312241
30
0.00000000000000
11
-69.1368135662581
21
18.3287897017726
31
0.00000000000000
  0
LINE
  5
F104E0
330
F104E1
100
AcDbEntity
8
Geo
100
AcDbLine
10
-69.1368135662581
20
18.3287897017726
30
0.00000000000000
11
-69.1224802329248
21
18.3325960178615
31
0.00000000000000
  0
LINE
  5
F104E2
330
F104E3
100
AcDbEntity
8
Geo
100
AcDbLine
10
-69.1224802329248
20
18.3325960178615
30
0.00000000000000
11
-69.1081468995914
21
18.3359220852972
31
0.00000000000000
  0
LINE
  5
F104E4
330
F104E5
100
AcDbEntity
8
Geo
100
AcDbLine
10
-69.1081468995914
20
18.3359220852972
30
0.00000000000000
11
-69.0938135662581
21
18.3387797340456
31
0.00000000000000
  0
LINE
  5
F104E6
330
F104E7
100
AcDbEntity
8
Geo
100
AcDbLine
10
-69.0938135662581
20
18.3387797340456
30
0.00000000000000
11
-69.0794802329248
21
18.3411799371568
31
0.00000000000000
  0
LINE
  5
F104E8
330
F104E9
100
AcDbEntity
8
Geo
100
AcDbLine
10
-69.0794802329248
20
18.3411799371568
30
0.00000000000000
11
-69.0651468995914
21
18.3431329128632
31
0.00000000000000
  0
LINE
  5
F104EA
330
F104EB
100
AcDbEntity
8
Geo
100
AcDbLine
10
-69.0651468995914
20
18.3431329128632
30
0.00000000000000
11
-69.0508135662581
21
18.3446482126270
31
0.00000000000000
  0
LINE
  5
F104EC
330
F104ED
100
AcDbEntity
8
Geo
100
AcDbLine
10
-69.0508135662581
20
18.3446482126270
30
0.00000000000000
11
-69.0364802329248
21
18.3457347973886
31
0.00000000000000
  0
LINE
  5
F104EE
330
F104EF
100
AcDbEntity
8
Geo
100
AcDbLine
10
-69.0364802329248
20
18.3457347973886
30
0.00000000000000
11
-69.0221468995914
21
18.3464011038456
31
0.00000000000000
  0
LINE
  5
F104F0
330
F104F1
100
AcDbEntity
8
Geo
100
AcDbLine
10
-69.0221468995914
20
18.3464011038456
30
0.00000000000000
11
-69.0078135662581
21
18.3466551022682
31
0.00000000000000
  0
LINE
  5
F104F2
330
F104F3
100
AcDbEntity
8
Geo
100
AcDbLine
10
-69.0078135662581
20
18.3466551022682
30
0.00000000000000
11
-68.9934802329248
21
18.3465043470875
31
0.00000000000000
  0
LINE
  5
F104F4
330
F104F5
100
AcDbEntity
8
Geo
100
AcDbLine
10
-68.9934802329248
20
18.3465043470875
30
0.00000000000000
11
-68.9791468995914
21
18.3459560212859
31
0.00000000000000
  0
LINE
  5
F104F6
330
F104F7
100
AcDbEntity
8
Geo
100
AcDbLine
10
-68.9791468995914
20
18.3459560212859
30
0.00000000000000
11
-68.9648135662581
21
18.3450169754426
31
0.00000000000000
  0
LINE
  5
F104F8
330
F104F9
100
AcDbEntity
8
Geo
100
AcDbLine
10
-68.9648135662581
20
18.3450169754426
30
0.00000000000000
11
-68.9504802329248
21
18.3436937621507
31
0.00000000000000
  0
LINE
  5
F104FA
330
F104FB
100
AcDbEntity
8
Geo
100
AcDbLine
10
-68.9504802329248
20
18.3436937621507
30
0.00000000000000
11
-68.9361468995914
21
18.3419926664062
31
0.00000000000000
  0
LINE
  5
F104FC
330
F104FD
100
AcDbEntity
8
Geo
100
AcDbLine
10
-68.9361468995914
20
18.3419926664062
30
0.00000000000000
11
-68.9218135662581
21
18.3399197324733
31
0.00000000000000
  0
LINE
  5
F104FE
330
F104FF
100
AcDbEntity
8
Geo
100
AcDbLine
10
-68.9218135662581
20
18.3399197324733
30
0.00000000000000
11
-68.9074802329248
21
18.3374807876554
31
0.00000000000000
  0
LINE
  5
F10500
330
F10501
100
AcDbEntity
8
Geo
100
AcDbLine
10
-68.9074802329248
20
18.3374807876554
30
0.00000000000000
11
-68.8931468995914
21
18.3346814633316
31
0.00000000000000
  0
LINE
  5
F10502
330
F10503
100
AcDbEntity
8
Geo
100
AcDbLine
10
-68.8931468995914
20
18.3346814633316
30
0.00000000000000
11
-68.8788135662581
21
18.3315272135674
31
0.00000000000000
  0
LINE
  5
F10504
330
F10505
100
AcDbEntity
8
Geo
100
AcDbLine
10
-68.8788135662581
20
18.3315272135674
30
0.00000000000000
11
-68.8644802329248
21
18.3280233315586
31
0.00000000000000
  0
LINE
  5
F10506
330
F10507
100
AcDbEntity
8
Geo
100
AcDbLine
10
-68.8644802329248
20
18.3280233315586
30
0.00000000000000
11
-68.8501468995915
21
18.3241749641310
31
0.00000000000000
  0
LINE
  5
F10508
330
F10509
100
AcDbEntity
8
Geo
100
AcDbLine
10
-68.8501468995915
20
18.3241749641310
30
0.00000000000000
11
-68.8358135662581
21
18.3199871244814
31
0.00000000000000
  0
LINE
  5
F1050A
330
F1050B
100
AcDbEntity
8
Geo
100
AcDbLine
10
-68.8358135662581
20
18.3199871244814
30
0.00000000000000
11
-68.8214802329248
21
18.3154647033197
31
0.00000000000000
  0
LINE
  5
F1050C
330
F1050D
100
AcDbEntity
8
Geo
100
AcDbLine
10
-68.8214802329248
20
18.3154647033197
30
0.00000000000000
11
-68.8071468995914
21
18.3106124785431
31
0.00000000000000
  0
LINE
  5
F1050E
330
F1050F
100
AcDbEntity
8
Geo
100
AcDbLine
10
-68.8071468995914
20
18.3106124785431
30
0.00000000000000
11
-68.7928135662581
21
18.3054925384683
31
0.00000000000000
  0
LINE
  5
F10510
330
F10511
100
AcDbEntity
8
Geo
100
AcDbLine
10
-68.7928135662581
20
18.3054925384683
30
0.00000000000000
11
-68.7784802329248
21
18.3002892986240
31
0.00000000000000
  0
LINE
  5
F10512
330
F10513
100
AcDbEntity
8
Geo
100
AcDbLine
10
-68.7784802329248
20
18.3002892986240
30
0.00000000000000
11
-68.7641468995915
21
18.2950168433056
31
0.00000000000000
  0
LINE
  5
F10514
330
F10515
100
AcDbEntity
8
Geo
100
AcDbLine
10
-68.7641468995915
20
18.2950168433056
30
0.00000000000000
11
-68.7498135662581
21
18.2896758144009
31
0.00000000000000
  0
LINE
  5
F10516
330
F10517
100
AcDbEntity
8
Geo
100
AcDbLine
10
-68.7498135662581
20
18.2896758144009
30
0.00000000000000
11
-68.7354802329248
21
18.2842668621460
31
0.00000000000000
  0
LINE
  5
F10518
330
F10519
100
AcDbEntity
8
Geo
100
AcDbLine
10
-68.7354802329248
20
18.2842668621460
30
0.00000000000000
11
-68.7211468995914
21
18.2787906450464
31
0.00000000000000
  0
LINE
  5
F1051A
330
F1051B
100
AcDbEntity
8
Geo
100
AcDbLine
10
-68.7211468995914
20
18.2787906450464
30
0.00000000000000
11
-68.7068135662581
21
18.2732478297967
31
0.00000000000000
  0
LINE
  5
F1051C
330
F1051D
100
AcDbEntity
8
Geo
100
AcDbLine
10
-68.7068135662581
20
18.2732478297967
30
0.00000000000000
11
-68.6924802329248
21
18.2676390911991
31
0.00000000000000
  0
LINE
  5
F1051E
330
F1051F
100
AcDbEntity
8
Geo
100
AcDbLine
10
-68.6924802329248
20
18.2676390911991
30
0.00000000000000
11
-68.6781468995915
21
18.2619651120819
31
0.00000000000000
  0
LINE
  5
F10520
330
F10521
100
AcDbEntity
8
Geo
100
AcDbLine
10
-68.6781468995915
20
18.2619651120819
30
0.00000000000000
11
-68.6638135662581
21
18.2562265832158
31
0.00000000000000
  0
LINE
  5
F10522
330
F10523
100
AcDbEntity
8
Geo
100
AcDbLine
10
-68.6638135662581
20
18.2562265832158
30
0.00000000000000
11
-68.6494802329248
21
18.2504242032301
31
0.00000000000000
  0
LINE
  5
F10524
330
F10525
100
AcDbEntity
8
Geo
100
AcDbLine
10
-68.6494802329248
20
18.2504242032301
30
0.00000000000000
11
-68.6351468995914
21
18.2445586785275
31
0.00000000000000
  0
LINE
  5
F10526
330
F10527
100
AcDbEntity
8
Geo
100
AcDbLine
10
-68.6351468995914
20
18.2445586785275
30
0.00000000000000
11
-68.6208135662581
21
18.2386307231982
31
0.00000000000000
  0
LINE
  5
F10528
330
F10529
100
AcDbEntity
8
Geo
100
AcDbLine
10
-68.6208135662581
20
18.2386307231982
30
0.00000000000000
11
-68.6064802329248
21
18.2326410589331
31
0.00000000000000
  0
LINE
  5
F1052A
330
F1052B
100
AcDbEntity
8
Geo
100
AcDbLine
10
-68.6064802329248
20
18.2326410589331
30
0.00000000000000
11
-68.5921468995914
21
18.2265904149355
31
0.00000000000000
  0
LINE
  5
F1052C
330
F1052D
100
AcDbEntity
8
Geo
100
AcDbLine
10
-68.5921468995914
20
18.2265904149355
30
0.00000000000000
11
-68.5778135662581
21
18.2204795278327
31
0.00000000000000
  0
LINE
  5
F1052E
330
F1052F
100
AcDbEntity
8
Geo
100
AcDbLine
10
-68.5778135662581
20
18.2204795278327
30
0.00000000000000
11
-68.5634802329248
21
18.2143091415862
31
0.00000000000000
  0
LINE
  5
F10530
330
F10531
100
AcDbEntity
8
Geo
100
AcDbLine
10
-68.5634802329248
20
18.2143091415862
30
0.00000000000000
11
-68.5491468995914
21
18.2080800074013
31
0.00000000000000
  0
LINE
  5
F10532
330
F10533
100
AcDbEntity
8
Geo
100
AcDbLine
10
-68.5491468995914
20
18.2080800074013
30
0.00000000000000
11
-68.5348135662581
21
18.2017928836352
31
0.00000000000000
  0
LINE
  5
F10534
330
F10535
100
AcDbEntity
8
Geo
100
AcDbLine
10
-68.5348135662581
20
18.2017928836352
30
0.00000000000000
11
-68.5204802329248
21
18.1954485357052
31
0.00000000000000
  0
LINE
  5
F10536
330
F10537
100
AcDbEntity
8
Geo
100
AcDbLine
10
-68.5204802329248
20
18.1954485357052
30
0.00000000000000
11
-68.5061468995914
21
18.1890477359951
31
0.00000000000000
  0
LINE
  5
F10538
330
F10539
100
AcDbEntity
8
Geo
100
AcDbLine
10
-68.5061468995914
20
18.1890477359951
30
0.00000000000000
11
-68.4918135662581
21
18.1825912637616
31
0.00000000000000
  0
LINE
  5
F1053A
330
F1053B
100
AcDbEntity
8
Geo
100
AcDbLine
10
-68.4918135662581
20
18.1825912637616
30
0.00000000000000
11
-68.4774802329248
21
18.1760799050388
31
0.00000000000000
  0
LINE
  5
F1053C
330
F1053D
100
AcDbEntity
8
Geo
100
AcDbLine
10
-68.4774802329248
20
18.1760799050388
30
0.00000000000000
11
-68.4631468995915
21
18.1695144525432
31
0.00000000000000
  0
LINE
  5
F1053E
330
F1053F
100
AcDbEntity
8
Geo
100
AcDbLine
10
-68.4631468995915
20
18.1695144525432
30
0.00000000000000
11
-68.4488135662581
21
18.1628957055768
31
0.00000000000000
  0
LINE
  5
F10540
330
F10541
100
AcDbEntity
8
Geo
100
AcDbLine
10
-68.4488135662581
20
18.1628957055768
30
0.00000000000000
11
-68.4344802329248
21
18.1562244699297
31
0.00000000000000
  0
LINE
  5
F10542
330
F10543
100
AcDbEntity
8
Geo
100
AcDbLine
10
-68.4344802329248
20
18.1562244699297
30
0.00000000000000
11
-68.4201468995914
21
18.1495015577824
31
0.00000000000000
  0
LINE
  5
F10544
330
F10545
100
AcDbEntity
8
Geo
100
AcDbLine
10
-68.4201468995914
20
18.1495015577824
30
0.00000000000000
11
-68.4058135662581
21
18.1427277876065
31
0.00000000000000
  0
LINE
  5
F10546
330
F10547
100
AcDbEntity
8
Geo
100
AcDbLine
10
-68.4058135662581
20
18.1427277876065
30
0.00000000000000
11
-68.3914802329248
21
18.1359039840653
31
0.00000000000000
  0
LINE
  5
F10548
330
F10549
100
AcDbEntity
8
Geo
100
AcDbLine
10
-68.3914802329248
20
18.1359039840653
30
0.00000000000000
11
-68.3771468995915
21
18.1290309779134
31
0.00000000000000
  0
LINE
  5
F1054A
330
F1054B
100
AcDbEntity
8
Geo
100
AcDbLine
10
-68.3771468995915
20
18.1290309779134
30
0.00000000000000
11
-68.3628135662581
21
18.1221096058955
31
0.00000000000000
  0
LINE
  5
F1054C
330
F1054D
100
AcDbEntity
8
Geo
100
AcDbLine
10
-68.3628135662581
20
18.1221096058955
30
0.00000000000000
11
-68.3484802329248
21
18.1151407106443
31
0.00000000000000
  0
LINE
  5
F1054E
330
F1054F
100
AcDbEntity
8
Geo
100
AcDbLine
10
-68.3484802329248
20
18.1151407106443
30
0.00000000000000
11
-68.3341468995914
21
18.1081251405785
31
0.00000000000000
  0
LINE
  5
F10550
330
F10551
100
AcDbEntity
8
Geo
100
AcDbLine
10
-68.3341468995914
20
18.1081251405785
30
0.00000000000000
11
-68.3198135662581
21
18.1010637497990
31
0.00000000000000
  0
LINE
  5
F10552
330
F10553
100
AcDbEntity
8
Geo
100
AcDbLine
10
-68.3198135662581
20
18.1010637497990
30
0.00000000000000
11
-68.3054802329248
21
18.0939573979850
31
0.00000000000000
  0
LINE
  5
F10554
330
F10555
100
AcDbEntity
8
Geo
100
AcDbLine
10
-68.3054802329248
20
18.0939573979850
30
0.00000000000000
11
-68.2911468995915
21
18.0868069502896
31
0.00000000000000
  0
LINE
  5
F10556
330
F10557
100
AcDbEntity
8
Geo
100
AcDbLine
10
-68.2911468995915
20
18.0868069502896
30
0.00000000000000
11
-68.2768135662581
21
18.0796132772341
31
0.00000000000000
  0
LINE
  5
F10558
330
F10559
100
AcDbEntity
8
Geo
100
AcDbLine
10
-68.2768135662581
20
18.0796132772341
30
0.00000000000000
11
-68.2624802329248
21
18.0723772546024
31
0.00000000000000
  0
LINE
  5
F1055A
330
F1055B
100
AcDbEntity
8
Geo
100
AcDbLine
10
-68.2624802329248
20
18.0723772546024
30
0.00000000000000
11
-68.2481468995914
21
18.0650997633340
31
0.00000000000000
  0
LINE
  5
F1055C
330
F1055D
100
AcDbEntity
8
Geo
100
AcDbLine
10
-68.2481468995914
20
18.0650997633340
30
0.00000000000000
11
-68.2338135662581
21
18.0577816894171
31
0.00000000000000
  0
LINE
  5
F1055E
330
F1055F
100
AcDbEntity
8
Geo
100
AcDbLine
10
-68.2338135662581
20
18.0577816894171
30
0.00000000000000
11
-68.2194802329248
21
18.0504239237804
31
0.00000000000000
  0
LINE
  5
F10560
330
F10561
100
AcDbEntity
8
Geo
100
AcDbLine
10
-68.2194802329248
20
18.0504239237804
30
0.00000000000000
11
-68.2051468995915
21
18.0430273621851
31
0.00000000000000
  0
LINE
  5
F10562
330
F10563
100
AcDbEntity
8
Geo
100
AcDbLine
10
-68.2051468995915
20
18.0430273621851
30
0.00000000000000
11
-68.1908135662581
21
18.0355929051153
31
0.00000000000000
  0
LINE
  5
F10564
330
F10565
100
AcDbEntity
8
Geo
100
AcDbLine
10
-68.1908135662581
20
18.0355929051153
30
0.00000000000000
11
-68.1764802329248
21
18.0281214576687
31
0.00000000000000
  0
LINE
  5
F10566
330
F10567
100
AcDbEntity
8
Geo
100
AcDbLine
10
-68.1764802329248
20
18.0281214576687
30
0.00000000000000
11
-68.1621468995914
21
18.0206139294465
31
0.00000000000000
  0
LINE
  5
F10568
330
F10569
100
AcDbEntity
8
Geo
100
AcDbLine
10
-68.1621468995914
20
18.0206139294465
30
0.00000000000000
11
-68.1478135662581
21
18.0130712344422
31
0.00000000000000
  0
LINE
  5
F1056A
330
F1056B
100
AcDbEntity
8
Geo
100
AcDbLine
10
-68.1478135662581
20
18.0130712344422
30
0.00000000000000
11
-68.1334802329248
21
18.0054942909309
31
0.00000000000000
  0
LINE
  5
F1056C
330
F1056D
100
AcDbEntity
8
Geo
100
AcDbLine
10
-68.1334802329248
20
18.0054942909309
30
0.00000000000000
11
-68.1191468995914
21
17.9978840213571
31
0.00000000000000
  0
LINE
  5
F1056E
330
F1056F
100
AcDbEntity
8
Geo
100
AcDbLine
10
-68.1191468995914
20
17.9978840213571
30
0.00000000000000
11
-68.1048135662581
21
17.9902413522225
31
0.00000000000000
  0
LINE
  5
F10570
330
F10571
100
AcDbEntity
8
Geo
100
AcDbLine
10
-68.1048135662581
20
17.9902413522225
30
0.00000000000000
11
-68.0904802329248
21
17.9825672139735
31
0.00000000000000
  0
LINE
  5
F10572
330
F10573
100
AcDbEntity
8
Geo
100
AcDbLine
10
-68.0904802329248
20
17.9825672139735
30
0.00000000000000
11
-68.0761468995914
21
17.9748625408873
31
0.00000000000000
  0
LINE
  5
F10574
330
F10575
100
AcDbEntity
8
Geo
100
AcDbLine
10
-68.0761468995914
20
17.9748625408873
30
0.00000000000000
11
-68.0618135662581
21
17.9671282709588
31
0.00000000000000
  0
LINE
  5
F10576
330
F10577
100
AcDbEntity
8
Geo
100
AcDbLine
10
-68.0618135662581
20
17.9671282709588
30
0.00000000000000
11
-68.0474802329248
21
17.9593653457860
31
0.00000000000000
  0
LINE
  5
F10578
330
F10579
100
AcDbEntity
8
Geo
100
AcDbLine
10
-68.0474802329248
20
17.9593653457860
30
0.00000000000000
11
-68.0331468995914
21
17.9515747104555
31
0.00000000000000
  0
LINE
  5
F1057A
330
F1057B
100
AcDbEntity
8
Geo
100
AcDbLine
10
-68.0331468995914
20
17.9515747104555
30
0.00000000000000
11
-68.0188135662581
21
17.9437573134275
31
0.00000000000000
  0
LINE
  5
F1057C
330
F1057D
100
AcDbEntity
8
Geo
100
AcDbLine
10
-68.0188135662581
20
17.9437573134275
30
0.00000000000000
11
-68.0044802329248
21
17.9359141064202
31
0.00000000000000
  0
LINE
  5
F1057E
330
F1057F
100
AcDbEntity
8
Geo
100
AcDbLine
10
-68.0044802329248
20
17.9359141064202
30
0.00000000000000
11
-67.9901468995915
21
17.9280460442940
31
0.00000000000000
  0
LINE
  5
F10580
330
F10581
100
AcDbEntity
8
Geo
100
AcDbLine
10
-67.9901468995915
20
17.9280460442940
30
0.00000000000000
11
-67.9758135662581
21
17.9201540849352
31
0.00000000000000
  0
LINE
  5
F10582
330
F10583
100
AcDbEntity
8
Geo
100
AcDbLine
10
-67.9758135662581
20
17.9201540849352
30
0.00000000000000
11
-67.9614802329248
21
17.9122391891397
31
0.00000000000000
  0
LINE
  5
F10584
330
F10585
100
AcDbEntity
8
Geo
100
AcDbLine
10
-67.9614802329248
20
17.9122391891397
30
0.00000000000000
11
-67.9471468995914
21
17.9043023204954
31
0.00000000000000
  0
LINE
  5
F10586
330
F10587
100
AcDbEntity
8
Geo
100
AcDbLine
10
-67.9471468995914
20
17.9043023204954
30
0.00000000000000
11
-67.9328135662581
21
17.8963444452655
31
0.00000000000000
  0
LINE
  5
F10588
330
F10589
100
AcDbEntity
8
Geo
100
AcDbLine
10
-67.9328135662581
20
17.8963444452655
30
0.00000000000000
11
-67.9184802329248
21
17.8883665322705
31
0.00000000000000
  0
LINE
  5
F1058A
330
F1058B
100
AcDbEntity
8
Geo
100
AcDbLine
10
-67.9184802329248
20
17.8883665322705
30
0.00000000000000
11
-67.9041468995915
21
17.8803695527705
31
0.00000000000000
  0
LINE
  5
F1058C
330
F1058D
100
AcDbEntity
8
Geo
100
AcDbLine
10
-67.9041468995915
20
17.8803695527705
30
0.00000000000000
11
-67.8898135662581
21
17.8723544803467
31
0.00000000000000
  0
LINE
  5
F1058E
330
F1058F
100
AcDbEntity
8
Geo
100
AcDbLine
10
-67.8898135662581
20
17.8723544803467
30
0.00000000000000
11
-67.8754802329248
21
17.8643222907829
31
0.00000000000000
  0
LINE
  5
F10590
330
F10591
100
AcDbEntity
8
Geo
100
AcDbLine
10
-67.8754802329248
20
17.8643222907829
30
0.00000000000000
11
-67.8611468995914
21
17.8562739619472
31
0.00000000000000
  0
LINE
  5
F10592
330
F10593
100
AcDbEntity
8
Geo
100
AcDbLine
10
-67.8611468995914
20
17.8562739619472
30
0.00000000000000
11
-67.8468135662581
21
17.8482104736721
31
0.00000000000000
  0
LINE
  5
F10594
330
F10595
100
AcDbEntity
8
Geo
100
AcDbLine
10
-67.8468135662581
20
17.8482104736721
30
0.00000000000000
11
-67.8324802329248
21
17.8401328076359
31
0.00000000000000
  0
LINE
  5
F10596
330
F10597
100
AcDbEntity
8
Geo
100
AcDbLine
10
-67.8324802329248
20
17.8401328076359
30
0.00000000000000
11
-67.8181468995915
21
17.8320419472430
31
0.00000000000000
  0
LINE
  5
F10598
330
F10599
100
AcDbEntity
8
Geo
100
AcDbLine
10
-67.8181468995915
20
17.8320419472430
30
0.00000000000000
11
-67.8038135662581
21
17.8239388775039
31
0.00000000000000
  0
LINE
  5
F1059A
330
F1059B
100
AcDbEntity
8
Geo
100
AcDbLine
10
-67.8038135662581
20
17.8239388775039
30
0.00000000000000
11
-67.7894802329248
21
17.8158245849158
31
0.00000000000000
  0
LINE
  5
F1059C
330
F1059D
100
AcDbEntity
8
Geo
100
AcDbLine
10
-67.7894802329248
20
17.8158245849158
30
0.00000000000000
11
-67.7751468995914
21
17.8077000573419
31
0.00000000000000
  0
LINE
  5
F1059E
330
F1059F
100
AcDbEntity
8
Geo
100
AcDbLine
10
-67.7751468995914
20
17.8077000573419
30
0.00000000000000
11
-67.7608135662581
21
17.7995662838917
31
0.00000000000000
  0
LINE
  5
F105A0
330
F105A1
100
AcDbEntity
8
Geo
100
AcDbLine
10
-67.7608135662581
20
17.7995662838917
30
0.00000000000000
11
-67.7464802329248
21
17.7914242548002
31
0.00000000000000
  0
LINE
  5
F105A2
330
F105A3
100
AcDbEntity
8
Geo
100
AcDbLine
10
-67.7464802329248
20
17.7914242548002
30
0.00000000000000
11
-67.7321468995915
21
17.7832749613075
31
0.00000000000000
  0
LINE
  5
F105A4
330
F105A5
100
AcDbEntity
8
Geo
100
AcDbLine
10
-67.7321468995915
20
17.7832749613075
30
0.00000000000000
11
-67.7178135662581
21
17.7751193955382
31
0.00000000000000
  0
LINE
  5
F105A6
330
F105A7
100
AcDbEntity
8
Geo
100
AcDbLine
10
-67.7178135662581
20
17.7751193955382
30
0.00000000000000
11
-67.7034802329248
21
17.7669585503802
31
0.00000000000000
  0
LINE
  5
F105A8
330
F105A9
100
AcDbEntity
8
Geo
100
AcDbLine
10
-67.7034802329248
20
17.7669585503802
30
0.00000000000000
11
-67.6891468995914
21
17.7587934193646
31
0.00000000000000
  0
LINE
  5
F105AA
330
F105AB
100
AcDbEntity
8
Geo
100
AcDbLine
10
-67.6891468995914
20
17.7587934193646
30
0.00000000000000
11
-67.6748135662581
21
17.7506249965438
31
0.00000000000000
  0
LINE
  5
F105AC
330
F105AD
100
AcDbEntity
8
Geo
100
AcDbLine
10
-67.6748135662581
20
17.7506249965438
30
0.00000000000000
11
-67.6604802329248
21
17.7424542763712
31
0.00000000000000
  0
LINE
  5
F105AE
330
F105AF
100
AcDbEntity
8
Geo
100
AcDbLine
10
-67.6604802329248
20
17.7424542763712
30
0.00000000000000
11
-67.6461468995914
21
17.7342822535799
31
0.00000000000000
  0
LINE
  5
F105B0
330
F105B1
100
AcDbEntity
8
Geo
100
AcDbLine
10
-67.6461468995914
20
17.7342822535799
30
0.00000000000000
11
-67.6318135662581
21
17.7261099230616
31
0.00000000000000
  0
LINE
  5
F105B2
330
F105B3
100
AcDbEntity
8
Geo
100
AcDbLine
10
-67.6318135662581
20
17.7261099230616
30
0.00000000000000
11
-67.6174802329248
21
17.7179382797454
31
0.00000000000000
  0
LINE
  5
F105B4
330
F105B5
100
AcDbEntity
8
Geo
100
AcDbLine
10
-67.6174802329248
20
17.7179382797454
30
0.00000000000000
11
-67.6031468995915
21
17.7097683184766
31
0.00000000000000
  0
LINE
  5
F105B6
330
F105B7
100
AcDbEntity
8
Geo
100
AcDbLine
10
-67.6031468995915
20
17.7097683184766
30
0.00000000000000
11
-67.5888135662581
21
17.7016010338960
31
0.00000000000000
  0
LINE
  5
F105B8
330
F105B9
100
AcDbEntity
8
Geo
100
AcDbLine
10
-67.5888135662581
20
17.7016010338960
30
0.00000000000000
11
-67.5744802329248
21
17.6934374203184
31
0.00000000000000
  0
LINE
  5
F105BA
330
F105BB
100
AcDbEntity
8
Geo
100
AcDbLine
10
-67.5744802329248
20
17.6934374203184
30
0.00000000000000
11
-67.5601468995914
21
17.6852784716116
31
0.00000000000000
  0
LINE
  5
F105BC
330
F105BD
100
AcDbEntity
8
Geo
100
AcDbLine
10
-67.5601468995914
20
17.6852784716116
30
0.00000000000000
11
-67.5458135662581
21
17.6771251810756
31
0.00000000000000
  0
LINE
  5
F105BE
330
F105BF
100
AcDbEntity
8
Geo
100
AcDbLine
10
-67.5458135662581
20
17.6771251810756
30
0.00000000000000
11
-67.5314802329248
21
17.6689785413215
31
0.00000000000000
  0
LINE
  5
F105C0
330
F105C1
100
AcDbEntity
8
Geo
100
AcDbLine
10
-67.5314802329248
20
17.6689785413215
30
0.00000000000000
11
-67.5171468995915
21
17.6608395441508
31
0.00000000000000
  0
LINE
  5
F105C2
330
F105C3
100
AcDbEntity
8
Geo
100
AcDbLine
10
-67.5171468995915
20
17.6608395441508
30
0.00000000000000
11
-67.5028135662581
21
17.6527091804343
31
0.00000000000000
  0
LINE
  5
F105C4
330
F105C5
100
AcDbEntity
8
Geo
100
AcDbLine
10
-67.5028135662581
20
17.6527091804343
30
0.00000000000000
11
-67.4884802329248
21
17.6445884399921
31
0.00000000000000
  0
LINE
  5
F105C6
330
F105C7
100
AcDbEntity
8
Geo
100
AcDbLine
10
-67.4884802329248
20
17.6445884399921
30
0.00000000000000
11
-67.4741468995914
21
17.6364783114725
31
0.00000000000000
  0
LINE
  5
F105C8
330
F105C9
100
AcDbEntity
8
Geo
100
AcDbLine
10
-67.4741468995914
20
17.6364783114725
30
0.00000000000000
11
-67.4598135662581
21
17.6283797822318
31
0.00000000000000
  0
LINE
  5
F105CA
330
F105CB
100
AcDbEntity
8
Geo
100
AcDbLine
10
-67.4598135662581
20
17.6283797822318
30
0.00000000000000
11
-67.4454802329248
21
17.6202938382144
31
0.00000000000000
  0
LINE
  5
F105CC
330
F105CD
100
AcDbEntity
8
Geo
100
AcDbLine
10
-67.4454802329248
20
17.6202938382144
30
0.00000000000000
11
-67.4311468995915
21
17.6122214638324
31
0.00000000000000
  0
LINE
  5
F105CE
330
F105CF
100
AcDbEntity
8
Geo
100
AcDbLine
10
-67.4311468995915
20
17.6122214638324
30
0.00000000000000
11
-67.4168135662581
21
17.6041636418458
31
0.00000000000000
  0
LINE
  5
F105D0
330
F105D1
100
AcDbEntity
8
Geo
100
AcDbLine
10
-67.4168135662581
20
17.6041636418458
30
0.00000000000000
11
-67.4024802329248
21
17.5961213532431
31
0.00000000000000
  0
LINE
  5
F105D2
330
F105D3
100
AcDbEntity
8
Geo
100
AcDbLine
10
-67.4024802329248
20
17.5961213532431
30
0.00000000000000
11
-67.3881468995914
21
17.5880955771217
31
0.00000000000000
  0
LINE
  5
F105D4
330
F105D5
100
AcDbEntity
8
Geo
100
AcDbLine
10
-67.3881468995914
20
17.5880955771217
30
0.00000000000000
11
-67.3738135662581
21
17.5800872905684
31
0.00000000000000
  0
LINE
  5
F105D6
330
F105D7
100
AcDbEntity
8
Geo
100
AcDbLine
10
-67.3738135662581
20
17.5800872905684
30
0.00000000000000
11
-67.3594802329248
21
17.5720974685412
31
0.00000000000000
  0
LINE
  5
F105D8
330
F105D9
100
AcDbEntity
8
Geo
100
AcDbLine
10
-67.3594802329248
20
17.5720974685412
30
0.00000000000000
11
-67.3451468995915
21
17.5641270837500
31
0.00000000000000
  0
LINE
  5
F105DA
330
F105DB
100
AcDbEntity
8
Geo
100
AcDbLine
10
-67.3451468995915
20
17.5641270837500
30
0.00000000000000
11
-67.3308135662581
21
17.5561771065381
31
0.00000000000000
  0
LINE
  5
F105DC
330
F105DD
100
AcDbEntity
8
Geo
100
AcDbLine
10
-67.3308135662581
20
17.5561771065381
30
0.00000000000000
11
-67.3164802329248
21
17.5482485047647
31
0.00000000000000
  0
LINE
  5
F105DE
330
F105DF
100
AcDbEntity
8
Geo
100
AcDbLine
10
-67.3164802329248
20
17.5482485047647
30
0.00000000000000
11
-67.3021468995914
21
17.5403422436864
31
0.00000000000000
  0
LINE
  5
F105E0
330
F105E1
100
AcDbEntity
8
Geo
100
AcDbLine
10
-67.3021468995914
20
17.5403422436864
30
0.00000000000000
11
-67.2878135662581
21
17.5324592858401
31
0.00000000000000
  0
LINE
  5
F105E2
330
F105E3
100
AcDbEntity
8
Geo
100
AcDbLine
10
-67.2878135662581
20
17.5324592858401
30
0.00000000000000
11
-67.2734802329248
21
17.5246005909256
31
0.00000000000000
  0
LINE
  5
F105E4
330
F105E5
100
AcDbEntity
8
Geo
100
AcDbLine
10
-67.2734802329248
20
17.5246005909256
30
0.00000000000000
11
-67.2591468995914
21
17.5167671156889
31
0.00000000000000
  0
LINE
  5
F105E6
330
F105E7
100
AcDbEntity
8
Geo
100
AcDbLine
10
-67.2591468995914
20
17.5167671156889
30
0.00000000000000
11
-67.2448135662581
21
17.5089598138056
31
0.00000000000000
  0
LINE
  5
F105E8
330
F105E9
100
AcDbEntity
8
Geo
100
AcDbLine
10
-67.2448135662581
20
17.5089598138056
30
0.00000000000000
11
-67.2304802329248
21
17.5011796357649
31
0.00000000000000
  0
LINE
  5
F105EA
330
F105EB
100
AcDbEntity
8
Geo
100
AcDbLine
10
-67.2304802329248
20
17.5011796357649
30
0.00000000000000
11
-67.2161468995915
21
17.4934275287538
31
0.00000000000000
  0
LINE
  5
F105EC
330
F105ED
100
AcDbEntity
8
Geo
100
AcDbLine
10
-67.2161468995915
20
17.4934275287538
30
0.00000000000000
11
-67.2018135662581
21
17.4857044365420
31
0.00000000000000
  0
LINE
  5
F105EE
330
F105EF
100
AcDbEntity
8
Geo
100
AcDbLine
10
-67.2018135662581
20
17.4857044365420
30
0.00000000000000
11
-67.1874802329248
21
17.4780112993667
31
0.00000000000000
  0
LINE
  5
F105F0
330
F105F1
100
AcDbEntity
8
Geo
100
AcDbLine
10
-67.1874802329248
20
17.4780112993667
30
0.00000000000000
11
-67.1731468995914
21
17.4703490538182
31
0.00000000000000
  0
LINE
  5
F105F2
330
F105F3
100
AcDbEntity
8
Geo
100
AcDbLine
10
-67.1731468995914
20
17.4703490538182
30
0.00000000000000
11
-67.1588135662581
21
17.4627186327260
31
0.00000000000000
  0
LINE
  5
F105F4
330
F105F5
100
AcDbEntity
8
Geo
100
AcDbLine
10
-67.1588135662581
20
17.4627186327260
30
0.00000000000000
11
-67.1444802329248
21
17.4551209650452
31
0.00000000000000
  0
LINE
  5
F105F6
330
F105F7
100
AcDbEntity
8
Geo
100
AcDbLine
10
-67.1444802329248
20
17.4551209650452
30
0.00000000000000
11
-67.1301468995914
21
17.4475569757434
31
0.00000000000000
  0
LINE
  5
F105F8
330
F105F9
100
AcDbEntity
8
Geo
100
AcDbLine
10
-67.1301468995914
20
17.4475569757434
30
0.00000000000000
11
-67.1158135662581
21
17.4400275856881
31
0.00000000000000
  0
LINE
  5
F105FA
330
F105FB
100
AcDbEntity
8
Geo
100
AcDbLine
10
-67.1158135662581
20
17.4400275856881
30
0.00000000000000
11
-67.1014802329248
21
17.4325337115345
31
0.00000000000000
  0
LINE
  5
F105FC
330
F105FD
100
AcDbEntity
8
Geo
100
AcDbLine
10
-67.1014802329248
20
17.4325337115345
30
0.00000000000000
11
-67.0871468995914
21
17.4250762656139
31
0.00000000000000
  0
LINE
  5
F105FE
330
F105FF
100
AcDbEntity
8
Geo
100
AcDbLine
10
-67.0871468995914
20
17.4250762656139
30
0.00000000000000
11
-67.0728135662581
21
17.4176561558228
31
0.00000000000000
  0
LINE
  5
F10600
330
F10601
100
AcDbEntity
8
Geo
100
AcDbLine
10
-67.0728135662581
20
17.4176561558228
30
0.00000000000000
11
-67.0584802329248
21
17.4102742855122
31
0.00000000000000
  0
LINE
  5
F10602
330
F10603
100
AcDbEntity
8
Geo
100
AcDbLine
10
-67.0584802329248
20
17.4102742855122
30
0.00000000000000
11
-67.0441468995914
21
17.4029315533778
31
0.00000000000000
  0
LINE
  5
F10604
330
F10605
100
AcDbEntity
8
Geo
100
AcDbLine
10
-67.0441468995914
20
17.4029315533778
30
0.00000000000000
11
-67.0298135662581
21
17.3956288533503
31
0.00000000000000
  0
LINE
  5
F10606
330
F10607
100
AcDbEntity
8
Geo
100
AcDbLine
10
-67.0298135662581
20
17.3956288533503
30
0.00000000000000
11
-67.0154802329248
21
17.3883670744869
31
0.00000000000000
  0
LINE
  5
F10608
330
F10609
100
AcDbEntity
8
Geo
100
AcDbLine
10
-67.0154802329248
20
17.3883670744869
30
0.00000000000000
11
-67.0011468995914
21
17.3811471008629
31
0.00000000000000
  0
LINE
  5
F1060A
330
F1060B
100
AcDbEntity
8
Geo
100
AcDbLine
10
-67.0011468995914
20
17.3811471008629
30
0.00000000000000
11
-66.9868135662581
21
17.3739698114639
31
0.00000000000000
  0
LINE
  5
F1060C
330
F1060D
100
AcDbEntity
8
Geo
100
AcDbLine
10
-66.9868135662581
20
17.3739698114639
30
0.00000000000000
11
-66.9724802329248
21
17.3668360800792
31
0.00000000000000
  0
LINE
  5
F1060E
330
F1060F
100
AcDbEntity
8
Geo
100
AcDbLine
10
-66.9724802329248
20
17.3668360800792
30
0.00000000000000
11
-66.9581468995914
21
17.3597467751951
31
0.00000000000000
  0
LINE
  5
F10610
330
F10611
100
AcDbEntity
8
Geo
100
AcDbLine
10
-66.9581468995914
20
17.3597467751951
30
0.00000000000000
11
-66.9438135662581
21
17.3527027598892
31
0.00000000000000
  0
LINE
  5
F10612
330
F10613
100
AcDbEntity
8
Geo
100
AcDbLine
10
-66.9438135662581
20
17.3527027598892
30
0.00000000000000
11
-66.9294802329248
21
17.3457048917254
31
0.00000000000000
  0
LINE
  5
F10614
330
F10615
100
AcDbEntity
8
Geo
100
AcDbLine
10
-66.9294802329248
20
17.3457048917254
30
0.00000000000000
11
-66.9151468995914
21
17.3387540226496
31
0.00000000000000
  0
LINE
  5
F10616
330
F10617
100
AcDbEntity
8
Geo
100
AcDbLine
10
-66.9151468995914
20
17.3387540226496
30
0.00000000000000
11
-66.9008135662581
21
17.3318509988857
31
0.00000000000000
  0
LINE
  5
F10618
330
F10619
100
AcDbEntity
8
Geo
100
AcDbLine
10
-66.9008135662581
20
17.3318509988857
30
0.00000000000000
11
-66.8864802329248
21
17.3249966608328
31
0.00000000000000
  0
LINE
  5
F1061A
330
F1061B
100
AcDbEntity
8
Geo
100
AcDbLine
10
-66.8864802329248
20
17.3249966608328
30
0.00000000000000
11
-66.8721468995914
21
17.3181918429629
31
0.00000000000000
  0
LINE
  5
F1061C
330
F1061D
100
AcDbEntity
8
Geo
100
AcDbLine
10
-66.8721468995914
20
17.3181918429629
30
0.00000000000000
11
-66.8578135662581
21
17.3114373737191
31
0.00000000000000
  0
LINE
  5
F1061E
330
F1061F
100
AcDbEntity
8
Geo
100
AcDbLine
10
-66.8578135662581
20
17.3114373737191
30
0.00000000000000
11
-66.8434802329248
21
17.3047340754149
31
0.00000000000000
  0
LINE
  5
F10620
330
F10621
100
AcDbEntity
8
Geo
100
AcDbLine
10
-66.8434802329248
20
17.3047340754149
30
0.00000000000000
11
-66.8291468995914
21
17.2980827641343
31
0.00000000000000
  0
LINE
  5
F10622
330
F10623
100
AcDbEntity
8
Geo
100
AcDbLine
10
-66.8291468995914
20
17.2980827641343
30
0.00000000000000
11
-66.8148135662581
21
17.2914842496318
31
0.00000000000000
  0
LINE
  5
F10624
330
F10625
100
AcDbEntity
8
Geo
100
AcDbLine
10
-66.8148135662581
20
17.2914842496318
30
0.00000000000000
11
-66.8004802329248
21
17.2849393352345
31
0.00000000000000
  0
LINE
  5
F10626
330
F10627
100
AcDbEntity
8
Geo
100
AcDbLine
10
-66.8004802329248
20
17.2849393352345
30
0.00000000000000
11
-66.7861468995914
21
17.2784488177441
31
0.00000000000000
  0
LINE
  5
F10628
330
F10629
100
AcDbEntity
8
Geo
100
AcDbLine
10
-66.7861468995914
20
17.2784488177441
30
0.00000000000000
11
-66.7718135662581
21
17.2720134873396
31
0.00000000000000
  0
LINE
  5
F1062A
330
F1062B
100
AcDbEntity
8
Geo
100
AcDbLine
10
-66.7718135662581
20
17.2720134873396
30
0.00000000000000
11
-66.7574802329248
21
17.2656341274814
31
0.00000000000000
  0
LINE
  5
F1062C
330
F1062D
100
AcDbEntity
8
Geo
100
AcDbLine
10
-66.7574802329248
20
17.2656341274814
30
0.00000000000000
11
-66.7431468995914
21
17.2593115148160
31
0.00000000000000
  0
LINE
  5
F1062E
330
F1062F
100
AcDbEntity
8
Geo
100
AcDbLine
10
-66.7431468995914
20
17.2593115148160
30
0.00000000000000
11
-66.7288135662581
21
17.2530464190810
31
0.00000000000000
  0
LINE
  5
F10630
330
F10631
100
AcDbEntity
8
Geo
100
AcDbLine
10
-66.7288135662581
20
17.2530464190810
30
0.00000000000000
11
-66.7144802329248
21
17.2468396030119
31
0.00000000000000
  0
LINE
  5
F10632
330
F10633
100
AcDbEntity
8
Geo
100
AcDbLine
10
-66.7144802329248
20
17.2468396030119
30
0.00000000000000
11
-66.7001468995914
21
17.2406918222490
31
0.00000000000000
  0
LINE
  5
F10634
330
F10635
100
AcDbEntity
8
Geo
100
AcDbLine
10
-66.7001468995914
20
17.2406918222490
30
0.00000000000000
11
-66.6858135662581
21
17.2346038252453
31
0.00000000000000
  0
LINE
  5
F10636
330
F10637
100
AcDbEntity
8
Geo
100
AcDbLine
10
-66.6858135662581
20
17.2346038252453
30
0.00000000000000
11
-66.6714802329248
21
17.2285763531757
31
0.00000000000000
  0
LINE
  5
F10638
330
F10639
100
AcDbEntity
8
Geo
100
AcDbLine
10
-66.6714802329248
20
17.2285763531757
30
0.00000000000000
11
-66.6571468995914
21
17.2226101398465
31
0.00000000000000
  0
LINE
  5
F1063A
330
F1063B
100
AcDbEntity
8
Geo
100
AcDbLine
10
-66.6571468995914
20
17.2226101398465
30
0.00000000000000
11
-66.6428135662581
21
17.2167059116060
31
0.00000000000000
  0
LINE
  5
F1063C
330
F1063D
100
AcDbEntity
8
Geo
100
AcDbLine
10
-66.6428135662581
20
17.2167059116060
30
0.00000000000000
11
-66.6284802329248
21
17.2108643872563
31
0.00000000000000
  0
LINE
  5
F1063E
330
F1063F
100
AcDbEntity
8
Geo
100
AcDbLine
10
-66.6284802329248
20
17.2108643872563
30
0.00000000000000
11
-66.6141468995914
21
17.2050862779658
31
0.00000000000000
  0
LINE
  5
F10640
330
F10641
100
AcDbEntity
8
Geo
100
AcDbLine
10
-66.6141468995914
20
17.2050862779658
30
0.00000000000000
11
-66.5998135662581
21
17.1993722871825
31
0.00000000000000
  0
LINE
  5
F10642
330
F10643
100
AcDbEntity
8
Geo
100
AcDbLine
10
-66.5998135662581
20
17.1993722871825
30
0.00000000000000
11
-66.5854802329248
21
17.1937231105483
31
0.00000000000000
  0
LINE
  5
F10644
330
F10645
100
AcDbEntity
8
Geo
100
AcDbLine
10
-66.5854802329248
20
17.1937231105483
30
0.00000000000000
11
-66.5711468995914
21
17.1881394358143
31
0.00000000000000
  0
LINE
  5
F10646
330
F10647
100
AcDbEntity
8
Geo
100
AcDbLine
10
-66.5711468995914
20
17.1881394358143
30
0.00000000000000
11
-66.5568135662581
21
17.1826219427574
31
0.00000000000000
  0
LINE
  5
F10648
330
F10649
100
AcDbEntity
8
Geo
100
AcDbLine
10
-66.5568135662581
20
17.1826219427574
30
0.00000000000000
11
-66.5424802329248
21
17.1771713030972
31
0.00000000000000
  0
LINE
  5
F1064A
330
F1064B
100
AcDbEntity
8
Geo
100
AcDbLine
10
-66.5424802329248
20
17.1771713030972
30
0.00000000000000
11
-66.5281468995914
21
17.1717881804142
31
0.00000000000000
  0
LINE
  5
F1064C
330
F1064D
100
AcDbEntity
8
Geo
100
AcDbLine
10
-66.5281468995914
20
17.1717881804142
30
0.00000000000000
11
-66.5138135662581
21
17.1664732300693
31
0.00000000000000
  0
LINE
  5
F1064E
330
F1064F
100
AcDbEntity
8
Geo
100
AcDbLine
10
-66.5138135662581
20
17.1664732300693
30
0.00000000000000
11
-66.4994802329248
21
17.1612270991238
31
0.00000000000000
  0
LINE
  5
F10650
330
F10651
100
AcDbEntity
8
Geo
100
AcDbLine
10
-66.4994802329248
20
17.1612270991238
30
0.00000000000000
11
-66.4851468995914
21
17.1560504262607
31
0.00000000000000
  0
LINE
  5
F10652
330
F10653
100
AcDbEntity
8
Geo
100
AcDbLine
10
-66.4851468995914
20
17.1560504262607
30
0.00000000000000
11
-66.4708135662581
21
17.1509438417068
31
0.00000000000000
  0
LINE
  5
F10654
330
F10655
100
AcDbEntity
8
Geo
100
AcDbLine
10
-66.4708135662581
20
17.1509438417068
30
0.00000000000000
11
-66.4564802329248
21
17.1459079671564
31
0.00000000000000
  0
LINE
  5
F10656
330
F10657
100
AcDbEntity
8
Geo
100
AcDbLine
10
-66.4564802329248
20
17.1459079671564
30
0.00000000000000
11
-66.4421468995914
21
17.1409434156949
31
0.00000000000000
  0
LINE
  5
F10658
330
F10659
100
AcDbEntity
8
Geo
100
AcDbLine
10
-66.4421468995914
20
17.1409434156949
30
0.00000000000000
11
-66.4278135662581
21
17.1360507917249
31
0.00000000000000
  0
LINE
  5
F1065A
330
F1065B
100
AcDbEntity
8
Geo
100
AcDbLine
10
-66.4278135662581
20
17.1360507917249
30
0.00000000000000
11
-66.4134802329248
21
17.1312306908920
31
0.00000000000000
  0
LINE
  5
F1065C
330
F1065D
100
AcDbEntity
8
Geo
100
AcDbLine
10
-66.4134802329248
20
17.1312306908920
30
0.00000000000000
11
-66.3991468995914
21
17.1264837000129
31
0.00000000000000
  0
LINE
  5
F1065E
330
F1065F
100
AcDbEntity
8
Geo
100
AcDbLine
10
-66.3991468995914
20
17.1264837000129
30
0.00000000000000
11
-66.3848135662581
21
17.1218103970034
31
0.00000000000000
  0
LINE
  5
F10660
330
F10661
100
AcDbEntity
8
Geo
100
AcDbLine
10
-66.3848135662581
20
17.1218103970034
30
0.00000000000000
11
-66.3704802329248
21
17.1172113508083
31
0.00000000000000
  0
LINE
  5
F10662
330
F10663
100
AcDbEntity
8
Geo
100
AcDbLine
10
-66.3704802329248
20
17.1172113508083
30
0.00000000000000
11
-66.3561468995914
21
17.1126871213321
31
0.00000000000000
  0
LINE
  5
F10664
330
F10665
100
AcDbEntity
8
Geo
100
AcDbLine
10
-66.3561468995914
20
17.1126871213321
30
0.00000000000000
11
-66.3418135662581
21
17.1082382593710
31
0.00000000000000
  0
LINE
  5
F10666
330
F10667
100
AcDbEntity
8
Geo
100
AcDbLine
10
-66.3418135662581
20
17.1082382593710
30
0.00000000000000
11
-66.3274802329248
21
17.1038653065455
31
0.00000000000000
  0
LINE
  5
F10668
330
F10669
100
AcDbEntity
8
Geo
100
AcDbLine
10
-66.3274802329248
20
17.1038653065455
30
0.00000000000000
11
-66.3131468995914
21
17.0995687952346
31
0.00000000000000
  0
LINE
  5
F1066A
330
F1066B
100
AcDbEntity
8
Geo
100
AcDbLine
10
-66.3131468995914
20
17.0995687952346
30
0.00000000000000
11
-66.2988135662581
21
17.0953492485114
31
0.00000000000000
  0
LINE
  5
F1066C
330
F1066D
100
AcDbEntity
8
Geo
100
AcDbLine
10
-66.2988135662581
20
17.0953492485114
30
0.00000000000000
11
-66.2844802329248
21
17.0912071800785
31
0.00000000000000
  0
LINE
  5
F1066E
330
F1066F
100
AcDbEntity
8
Geo
100
AcDbLine
10
-66.2844802329248
20
17.0912071800785
30
0.00000000000000
11
-66.2701468995914
21
17.0871430942065
31
0.00000000000000
  0
LINE
  5
F10670
330
F10671
100
AcDbEntity
8
Geo
100
AcDbLine
10
-66.2701468995914
20
17.0871430942065
30
0.00000000000000
11
-66.2558135662581
21
17.0831574856720
31
0.00000000000000
  0
LINE
  5
F10672
330
F10673
100
AcDbEntity
8
Geo
100
AcDbLine
10
-66.2558135662581
20
17.0831574856720
30
0.00000000000000
11
-66.2414802329248
21
17.0792508396972
31
0.00000000000000
  0
LINE
  5
F10674
330
F10675
100
AcDbEntity
8
Geo
100
AcDbLine
10
-66.2414802329248
20
17.0792508396972
30
0.00000000000000
11
-66.2271468995914
21
17.0754236318914
31
0.00000000000000
  0
LINE
  5
F10676
330
F10677
100
AcDbEntity
8
Geo
100
AcDbLine
10
-66.2271468995914
20
17.0754236318914
30
0.00000000000000
11
-66.2128135662581
21
17.0716763281928
31
0.00000000000000
  0
LINE
  5
F10678
330
F10679
100
AcDbEntity
8
Geo
100
AcDbLine
10
-66.2128135662581
20
17.0716763281928
30
0.00000000000000
11
-66.1984802329248
21
17.0680093848116
31
0.00000000000000
  0
LINE
  5
F1067A
330
F1067B
100
AcDbEntity
8
Geo
100
AcDbLine
10
-66.1984802329248
20
17.0680093848116
30
0.00000000000000
11
-66.1841468995914
21
17.0644232481749
31
0.00000000000000
  0
LINE
  5
F1067C
330
F1067D
100
AcDbEntity
8
Geo
100
AcDbLine
10
-66.1841468995914
20
17.0644232481749
30
0.00000000000000
11
-66.1698135662581
21
17.0609183548719
31
0.00000000000000
  0
LINE
  5
F1067E
330
F1067F
100
AcDbEntity
8
Geo
100
AcDbLine
10
-66.1698135662581
20
17.0609183548719
30
0.00000000000000
11
-66.1554802329248
21
17.0574951316011
31
0.00000000000000
  0
LINE
  5
F10680
330
F10681
100
AcDbEntity
8
Geo
100
AcDbLine
10
-66.1554802329248
20
17.0574951316011
30
0.00000000000000
11
-66.1411468995914
21
17.0541539951179
31
0.00000000000000
  0
LINE
  5
F10682
330
F10683
100
AcDbEntity
8
Geo
100
AcDbLine
10
-66.1411468995914
20
17.0541539951179
30
0.00000000000000
11
-66.1268135662581
21
17.0508953521844
31
0.00000000000000
  0
LINE
  5
F10684
330
F10685
100
AcDbEntity
8
Geo
100
AcDbLine
10
-66.1268135662581
20
17.0508953521844
30
0.00000000000000
11
-66.1124802329248
21
17.0477195995198
31
0.00000000000000
  0
LINE
  5
F10686
330
F10687
100
AcDbEntity
8
Geo
100
AcDbLine
10
-66.1124802329248
20
17.0477195995198
30
0.00000000000000
11
-66.0981468995914
21
17.0446271237514
31
0.00000000000000
  0
LINE
  5
F10688
330
F10689
100
AcDbEntity
8
Geo
100
AcDbLine
10
-66.0981468995914
20
17.0446271237514
30
0.00000000000000
11
-66.0838135662581
21
17.0416183013687
31
0.00000000000000
  0
LINE
  5
F1068A
330
F1068B
100
AcDbEntity
8
Geo
100
AcDbLine
10
-66.0838135662581
20
17.0416183013687
30
0.00000000000000
11
-66.0694802329248
21
17.0386934986765
31
0.00000000000000
  0
LINE
  5
F1068C
330
F1068D
100
AcDbEntity
8
Geo
100
AcDbLine
10
-66.0694802329248
20
17.0386934986765
30
0.00000000000000
11
-66.0551468995914
21
17.0358530717508
31
0.00000000000000
  0
LINE
  5
F1068E
330
F1068F
100
AcDbEntity
8
Geo
100
AcDbLine
10
-66.0551468995914
20
17.0358530717508
30
0.00000000000000
11
-66.0408135662581
21
17.0330973663955
31
0.00000000000000
  0
LINE
  5
F10690
330
F10691
100
AcDbEntity
8
Geo
100
AcDbLine
10
-66.0408135662581
20
17.0330973663955
30
0.00000000000000
11
-66.0264802329248
21
17.0304267181003
31
0.00000000000000
  0
LINE
  5
F10692
330
F10693
100
AcDbEntity
8
Geo
100
AcDbLine
10
-66.0264802329248
20
17.0304267181003
30
0.00000000000000
11
-66.0121468995914
21
17.0278414519994
31
0.00000000000000
  0
LINE
  5
F10694
330
F10695
100
AcDbEntity
8
Geo
100
AcDbLine
10
-66.0121468995914
20
17.0278414519994
30
0.00000000000000
11
-65.9978135662581
21
17.0253418828325
31
0.00000000000000
  0
LINE
  5
F10696
330
F10697
100
AcDbEntity
8
Geo
100
AcDbLine
10
-65.9978135662581
20
17.0253418828325
30
0.00000000000000
11
-65.9834802329248
21
17.0229283149062
31
0.00000000000000
  0
LINE
  5
F10698
330
F10699
100
AcDbEntity
8
Geo
100
AcDbLine
10
-65.9834802329248
20
17.0229283149062
30
0.00000000000000
11
-65.9691468995914
21
17.0206010420571
31
0.00000000000000
  0
LINE
  5
F1069A
330
F1069B
100
AcDbEntity
8
Geo
100
AcDbLine
10
-65.9691468995914
20
17.0206010420571
30
0.00000000000000
11
-65.9548135662581
21
17.0183603476157
31
0.00000000000000
  0
LINE
  5
F1069C
330
F1069D
100
AcDbEntity
8
Geo
100
AcDbLine
10
-65.9548135662581
20
17.0183603476157
30
0.00000000000000
11
-65.9404802329248
21
17.0162065043724
31
0.00000000000000
  0
LINE
  5
F1069E
330
F1069F
100
AcDbEntity
8
Geo
100
AcDbLine
10
-65.9404802329248
20
17.0162065043724
30
0.00000000000000
11
-65.9261468995914
21
17.0141397745437
31
0.00000000000000
  0
LINE
  5
F106A0
330
F106A1
100
AcDbEntity
8
Geo
100
AcDbLine
10
-65.9261468995914
20
17.0141397745437
30
0.00000000000000
11
-65.9118135662581
21
17.0121604097408
31
0.00000000000000
  0
LINE
  5
F106A2
330
F106A3
100
AcDbEntity
8
Geo
100
AcDbLine
10
-65.9118135662581
20
17.0121604097408
30
0.00000000000000
11
-65.8974802329248
21
17.0102686509389
31
0.00000000000000
  0
LINE
  5
F106A4
330
F106A5
100
AcDbEntity
8
Geo
100
AcDbLine
10
-65.8974802329248
20
17.0102686509389
30
0.00000000000000
11
-65.8831468995914
21
17.0084647284474
31
0.00000000000000
  0
LINE
  5
F106A6
330
F106A7
100
AcDbEntity
8
Geo
100
AcDbLine
10
-65.8831468995914
20
17.0084647284474
30
0.00000000000000
11
-65.8688135662581
21
17.0067488618824
31
0.00000000000000
  0
LINE
  5
F106A8
330
F106A9
100
AcDbEntity
8
Geo
100
AcDbLine
10
-65.8688135662581
20
17.0067488618824
30
0.00000000000000
11
-65.8544802329248
21
17.0051212601397
31
0.00000000000000
  0
LINE
  5
F106AA
330
F106AB
100
AcDbEntity
8
Geo
100
AcDbLine
10
-65.8544802329248
20
17.0051212601397
30
0.00000000000000
11
-65.8401468995914
21
17.0035821213695
31
0.00000000000000
  0
LINE
  5
F106AC
330
F106AD
100
AcDbEntity
8
Geo
100
AcDbLine
10
-65.8401468995914
20
17.0035821213695
30
0.00000000000000
11
-65.8258135662581
21
17.0021316329521
31
0.00000000000000
  0
LINE
  5
F106AE
330
F106AF
100
AcDbEntity
8
Geo
100
AcDbLine
10
-65.8258135662581
20
17.0021316329521
30
0.00000000000000
11
-65.8114802329248
21
17.0007699714751
31
0.00000000000000
  0
LINE
  5
F106B0
330
F106B1
100
AcDbEntity
8
Geo
100
AcDbLine
10
-65.8114802329248
20
17.0007699714751
30
0.00000000000000
11
-65.7971468995914
21
16.9994973027123
31
0.00000000000000
  0
LINE
  5
F106B2
330
F106B3
100
AcDbEntity
8
Geo
100
AcDbLine
10
-65.7971468995914
20
16.9994973027123
30
0.00000000000000
11
-65.7828135662581
21
16.9983137816028
31
0.00000000000000
  0
LINE
  5
F106B4
330
F106B5
100
AcDbEntity
8
Geo
100
AcDbLine
10
-65.7828135662581
20
16.9983137816028
30
0.00000000000000
11
-65.7684802329248
21
16.9972195522328
31
0.00000000000000
  0
LINE
  5
F106B6
330
F106B7
100
AcDbEntity
8
Geo
100
AcDbLine
10
-65.7684802329248
20
16.9972195522328
30
0.00000000000000
11
-65.7541468995914
21
16.9962147478179
31
0.00000000000000
  0
LINE
  5
F106B8
330
F106B9
100
AcDbEntity
8
Geo
100
AcDbLine
10
-65.7541468995914
20
16.9962147478179
30
0.00000000000000
11
-65.7398135662581
21
16.9952994906864
31
0.00000000000000
  0
LINE
  5
F106BA
330
F106BB
100
AcDbEntity
8
Geo
100
AcDbLine
10
-65.7398135662581
20
16.9952994906864
30
0.00000000000000
11
-65.7254802329248
21
16.9944738922652
31
0.00000000000000
  0
LINE
  5
F106BC
330
F106BD
100
AcDbEntity
8
Geo
100
AcDbLine
10
-65.7254802329248
20
16.9944738922652
30
0.00000000000000
11
-65.7111468995914
21
16.9937380530655
31
0.00000000000000
  0
LINE
  5
F106BE
330
F106BF
100
AcDbEntity
8
Geo
100
AcDbLine
10
-65.7111468995914
20
16.9937380530655
30
0.00000000000000
11
-65.6968135662581
21
16.9930920626711
31
0.00000000000000
  0
LINE
  5
F106C0
330
F106C1
100
AcDbEntity
8
Geo
100
AcDbLine
10
-65.6968135662581
20
16.9930920626711
30
0.00000000000000
11
-65.6824802329248
21
16.9925359997273
31
0.00000000000000
  0
LINE
  5
F106C2
330
F106C3
100
AcDbEntity
8
Geo
100
AcDbLine
10
-65.6824802329248
20
16.9925359997273
30
0.00000000000000
11
-65.6681468995914
21
16.9920699319310
31
0.00000000000000
  0
LINE
  5
F106C4
330
F106C5
100
AcDbEntity
8
Geo
100
AcDbLine
10
-65.6681468995914
20
16.9920699319310
30
0.00000000000000
11
-65.6538135662581
21
16.9916939160232
31
0.00000000000000
  0
LINE
  5
F106C6
330
F106C7
100
AcDbEntity
8
Geo
100
AcDbLine
10
-65.6538135662581
20
16.9916939160232
30
0.00000000000000
11
-65.6394802329248
21
16.9914079977813
31
0.00000000000000
  0
LINE
  5
F106C8
330
F106C9
100
AcDbEntity
8
Geo
100
AcDbLine
10
-65.6394802329248
20
16.9914079977813
30
0.00000000000000
11
-65.6251468995914
21
16.9912122120140
31
0.00000000000000
  0
LINE
  5
F106CA
330
F106CB
100
AcDbEntity
8
Geo
100
AcDbLine
10
-65.6251468995914
20
16.9912122120140
30
0.00000000000000
11
-65.6108135662581
21
16.9911065825571
31
0.00000000000000
  0
LINE
  5
F106CC
330
F106CD
100
AcDbEntity
8
Geo
100
AcDbLine
10
-65.6108135662581
20
16.9911065825571
30
0.00000000000000
11
-65.6011894256249
21
16.9817545888673
31
0.00000000000000
  0
LINE
  5
F106CE
330
F106CF
100
AcDbEntity
8
Geo
100
AcDbLine
10
-19.5524802329248
20
20.1317545888673
30
0.00000000000000
11
-19.5524802329248
21
17.7317545888673
31
0.00000000000000
  0
ARC
  5
F106D0
330
F106D1
100
AcDbEntity
8
Geo
100
AcDbCircle
10
-68.8024802329248
20
17.7317545888673
30
0.00000000000000
 40
0.750000000000000
100
AcDbArc
 50
180.000000000000
 51
270.000000000000
  0
LINE
  5
F106D2
330
F106D3
100
AcDbEntity
8
Geo
100
AcDbLine
10
-68.8024802329248
20
16.9817545888673
30
0.00000000000000
11
-65.5524802329248
21
16.9817545888673
31
0.00000000000000
  0
LINE
  5
F106D4
330
F106D5
100
AcDbEntity
8
Geo
100
AcDbLine
10
-65.5524802329248
20
16.9817545888673
30
0.00000000000000
11
-65.5515945499547
21
16.9817545888673
31
0.00000000000000
  0
LINE
  5
F106D6
330
F106D7
100
AcDbEntity
8
Geo
100
AcDbLine
10
-65.5515945499547
20
16.9817545888673
30
0.00000000000000
11
-57.1544802329248
21
14.7317545888673
31
0.00000000000000
  0
LINE
  5
F106D8
330
F106D9
100
AcDbEntity
8
Geo
100
AcDbLine
10
-57.1544802329248
20
14.7317545888673
30
0.00000000000000
11
-20.1524802329248
21
14.7317545888673
31
0.00000000000000
  0
LINE
  5
F106DA
330
F106DB
100
AcDbEntity
8
Geo
100
AcDbLine
10
-20.1524802329248
20
14.7317545888673
30
0.00000000000000
11
-19.5524802329248
21
15.3317545888673
31
0.00000000000000
  0
LINE
  5
F106DC
330
F106DD
100
AcDbEntity
8
Geo
100
AcDbLine
10
-68.8024802329248
20
18.4817545888673
30
0.00000000000000
11
-68.8024802329248
21
16.9817545888673
31
0.00000000000000
  0
LINE
  5
F106DE
330
F106DF
100
AcDbEntity
8
Geo
100
AcDbLine
10
-65.5524802329248
20
18.4817545888673
30
0.00000000000000
11
-65.5524802329248
21
16.9817545888673
31
0.00000000000000
  0
LINE
  5
F106E0
330
F106E1
100
AcDbEntity
8
Geo
100
AcDbLine
10
-65.5524802329248
20
18.4817545888673
30
0.00000000000000
11
-65.5524802329248
21
16.9817545888673
31
0.00000000000000
  0
LINE
  5
F106E2
330
F106E3
100
AcDbEntity
8
Geo
100
AcDbLine
10
-65.5515945499547
20
18.4817545888673
30
0.00000000000000
11
-65.5515945499547
21
16.9817545888673
31
0.00000000000000
  0
LINE
  5
F106E4
330
F106E5
100
AcDbEntity
8
Geo
100
AcDbLine
10
-57.1544802329248
20
20.7317545888673
30
0.00000000000000
11
-57.1544802329248
21
14.7317545888673
31
0.00000000000000
  0
LINE
  5
F106E6
330
F106E7
100
AcDbEntity
8
Geo
100
AcDbLine
10
-57.1544802329248
20
20.7317545888673
30
0.00000000000000
11
-57.1544802329248
21
14.7317545888673
31
0.00000000000000
  0
LINE
  5
F106E8
330
F106E9
100
AcDbEntity
8
Geo
100
AcDbLine
10
-20.1524802329248
20
20.7317545888673
30
0.00000000000000
11
-20.1524802329248
21
14.7317545888673
31
0.00000000000000
  0
LINE
  5
F106EA
330
F106EB
100
AcDbEntity
8
Geo
100
AcDbLine
10
-19.5524802329248
20
20.1317545888673
30
0.00000000000000
11
-19.5524802329248
21
15.3317545888673
31
0.00000000000000
  0
LINE
  5
F106EC
330
F106ED
100
AcDbEntity
8
Geo
 6
Dashdot
100
AcDbLine
10
-69.5524802329248
20
17.7317545888673
30
0.00000000000000
11
-19.5524802329248
21
17.7317545888673
31
0.00000000000000
0
VIEWPORT
5
294
102
{ACAD_XDICTIONARY
360
58A
102
}
330
25D
100
AcDbEntity
67
1
8
0
60
1
100
AcDbViewport
10
0.0
20
0.0
30
0.0
40
10.0
41
10.0
68
-1
69
1
12
0.0
22
0.0
13
0.0
23
0.0
14
1.0
24
1.0
15
0.0
25
0.0
16
0.0
26
0.0
36
1.0
17
0.0
27
0.0
37
0.0
42
0.0
43
0.0
44
0.0
45
10.0
50
0.0
51
0.0000000000007958
72
100
90
32800
1

281
0
71
0
74
0
110
0.0
120
0.0
130
0.0
111
1.0
121
0.0
131
0.0
112
0.0
122
1.0
132
0.0
79
0
146
0.0
1001
VD_INVISIBLE_NOT_FOR_READ
1000
VD_INVISIBLE_NOT_FOR_READ
0
VIEWPORT
5
295
102
{ACAD_XDICTIONARY
360
58C
102
}
330
25D
100
AcDbEntity
67
1
8
0
60
1
100
AcDbViewport
10
0.0
20
0.0
30
0.0
40
10.0
41
10.0
68
0
69
2
12
0.0
22
0.0
13
0.0
23
0.0
14
1.0
24
1.0
15
0.0
25
0.0
16
0.0
26
0.0
36
1.0
17
0.0
27
0.0
37
0.0
42
0.0
43
0.0
44
0.0
45
10.0
50
0.0
51
0.0000000000007958
72
100
90
163872
1

281
0
71
0
74
0
110
0.0
120
0.0
130
0.0
111
1.0
121
0.0
131
0.0
112
0.0
122
1.0
132
0.0
79
0
146
0.0
1001
VD_INVISIBLE_NOT_FOR_READ
1000
VD_INVISIBLE_NOT_FOR_READ
0
ENDSEC
0
SECTION
2
OBJECTS
0
DICTIONARY
5
13
330
0
100
AcDbDictionary
281
1
3
ACAD_COLOR
350
FA7
3
ACAD_GROUP
350
14
3
ACAD_LAYOUT
350
FCF
3
ACAD_MATERIAL
350
F7A
3
ACAD_MLEADERSTYLE
350
FCD
3
ACAD_MLINESTYLE
350
16
3
ACAD_PLOTSETTINGS
350
17
3
ACAD_PLOTSTYLENAME
350
18
3
ACAD_SCALELIST
350
FAB
3
ACAD_TABLESTYLE
350
FA8
3
ACAD_VISUALSTYLE
350
F93
3
ACDB_RECOMPOSE_DATA
350
107E
3
AcDbVariableDictionary
350
FF0
3
DWGPROPS
350
107F
0
DICTIONARY
5
FA7
102
{ACAD_REACTORS
330
13
102
}
330
13
100
AcDbDictionary
281
1
0
DICTIONARY
5
14
330
13
100
AcDbDictionary
281
1
0
DICTIONARY
5
FCF
102
{ACAD_REACTORS
330
13
102
}
330
13
100
AcDbDictionary
281
1
3
Layout1
350
FD1
3
Model
350
FD0
0
DICTIONARY
5
F7A
102
{ACAD_REACTORS
330
13
102
}
330
13
100
AcDbDictionary
281
1
3
ByBlock
350
F83
3
ByLayer
350
F7B
3
Global
350
F8B
0
DICTIONARY
5
FCD
102
{ACAD_REACTORS
330
13
102
}
330
13
100
AcDbDictionary
281
1
3
Standard
350
FCE
0
DICTIONARY
5
16
330
13
100
AcDbDictionary
281
1
3
Standard
350
FAA
0
DICTIONARY
5
17
102
{ACAD_REACTORS
330
13
102
}
330
13
100
AcDbDictionary
281
1
0
ACDBDICTIONARYWDFLT
5
18
102
{ACAD_REACTORS
330
13
102
}
330
13
100
AcDbDictionary
281
1
3
Normal
350
19
100
AcDbDictionaryWithDefault
340
19
0
DICTIONARY
5
FAB
102
{ACAD_REACTORS
330
13
102
}
330
13
100
AcDbDictionary
281
1
3
A0
350
FAC
3
A1
350
FAD
3
A2
350
FAE
3
A3
350
FAF
3
A4
350
FB0
3
A5
350
FB1
3
A6
350
FB2
3
A7
350
FB3
3
A8
350
FB4
3
A9
350
FB5
3
B0
350
FB6
3
B1
350
FB7
3
B2
350
FB8
3
B3
350
FB9
3
B4
350
FBA
3
B5
350
FBB
3
B6
350
FBC
3
B7
350
FBD
3
B8
350
FBE
3
B9
350
FBF
3
C0
350
FC0
3
C1
350
FC1
3
C2
350
FC2
3
C3
350
FC3
3
C4
350
FC4
3
C5
350
FC5
3
C6
350
FC6
3
C7
350
FC7
3
C8
350
FC8
3
C9
350
FC9
3
D0
350
FCA
3
D1
350
FCB
3
D2
350
FCC
0
DICTIONARY
5
FA8
102
{ACAD_REACTORS
330
13
102
}
330
13
100
AcDbDictionary
281
1
3
Standard
350
FA9
0
DICTIONARY
5
F93
102
{ACAD_REACTORS
330
13
102
}
330
13
100
AcDbDictionary
281
1
3
2dWireframe
350
F99
3
3D Hidden
350
F9B
3
3dWireframe
350
F9A
3
Basic
350
F98
3
Brighten
350
F9F
3
ColorChange
350
FA3
3
Conceptual
350
F9C
3
Dim
350
F9E
3
EdgeColorOff
350
FA6
3
Facepattern
350
FA2
3
Flat
350
F94
3
FlatWithEdges
350
F95
3
Gouraud
350
F96
3
GouraudWithEdges
350
F97
3
JitterOff
350
FA4
3
Linepattern
350
FA1
3
OverhangOff
350
FA5
3
Realistic
350
F9D
3
Thicken
350
FA0
0
XRECORD
5
107E
102
{ACAD_REACTORS
330
13
102
}
330
13
100
AcDbXrecord
280
1
90
1
330
FA9
0
DICTIONARY
5
FF0
102
{ACAD_REACTORS
330
13
102
}
330
13
100
AcDbDictionary
281
1
3
CANNOSCALE
350
FF3
3
CMLEADERSTYLE
350
FF2
3
CTABLESTYLE
350
FF1
3
DIMASSOC
350
FF6
3
INDEXCTL
350
FF5
3
SORTENTS
350
FF4
3
XCLIPFRAME
350
1078
0
XRECORD
5
107F
102
{ACAD_REACTORS
330
13
102
}
330
13
100
AcDbXrecord
280
1
1
DWGPROPS COOKIE
2

3

4

6

7

8

9

300
=
301
=
302
=
303
=
304
=
305
=
306
=
307
=
308
=
309
=
40
0.0
41
0.0
42
0.0
1

90
0
0
LAYOUT
5
FD1
102
{ACAD_XDICTIONARY
360
10A9
102
}
102
{ACAD_REACTORS
330
FCF
102
}
330
FCF
100
AcDbPlotSettings
1

2
Microsoft XPS Document Writer
4

6

40
0.0
41
0.0
42
0.0
43
0.0
44
0.0
45
0.0
46
0.0
47
0.0
48
0.0
49
0.0
140
0.0
141
0.0
142
1.0
143
1.0
70
688
72
0
73
0
74
5
7

75
16
147
1.0
148
0.0
149
0.0
100
AcDbLayout
1
Layout1
70
1
71
1
10
0.0
20
0.0
11
12.0
21
9.0
12
0.0
22
0.0
32
0.0
14
1.000000000000000E+20
24
1.000000000000000E+20
34
1.000000000000000E+20
15
-1.000000000000000E+20
25
-1.000000000000000E+20
35
-1.000000000000000E+20
146
0.0
13
0.0
23
0.0
33
0.0
16
1.0
26
0.0
36
0.0
17
0.0
27
1.0
37
0.0
76
0
330
25D
0
LAYOUT
5
FD0
102
{ACAD_XDICTIONARY
360
10A7
102
}
102
{ACAD_REACTORS
330
FCF
102
}
330
FCF
100
AcDbPlotSettings
1

2
Microsoft XPS Document Writer
4

6

40
0.0
41
0.0
42
0.0
43
0.0
44
0.0
45
0.0
46
0.0
47
0.0
48
0.0
49
0.0
140
0.0
141
0.0
142
1.0
143
1.0
70
1712
72
0
73
0
74
0
7

75
0
147
1.0
148
0.0
149
0.0
100
AcDbLayout
1
Model
70
1
71
0
10
0.0
20
0.0
11
12.0
21
9.0
12
0.0
22
0.0
32
0.0
14
0.0
24
0.0
34
0.0
15
0.0
25
0.0
35
0.0
146
0.0
13
0.0
23
0.0
33
0.0
16
1.0
26
0.0
36
0.0
17
0.0
27
1.0
37
0.0
76
0
330
261
331
26B
0
MATERIAL
5
F83
102
{ACAD_XDICTIONARY
360
F84
102
}
102
{ACAD_REACTORS
330
F7A
102
}
330
F7A
100
AcDbMaterial
1
ByBlock
72
0
43
0.0208333333333333
43
0.0
43
0.0
43
0.0
43
0.0
43
0.0208333333333333
43
0.0
43
0.0
43
0.0
43
0.0
43
1.0
43
0.0
43
0.0
43
0.0
43
0.0
43
1.0
77
0
47
0.0208333333333333
47
0.0
47
0.0
47
0.0
47
0.0
47
0.0208333333333333
47
0.0
47
0.0
47
0.0
47
0.0
47
1.0
47
0.0
47
0.0
47
0.0
47
0.0
47
1.0
171
0
49
0.0208333333333333
49
0.0
49
0.0
49
0.0
49
0.0
49
0.0208333333333333
49
0.0
49
0.0
49
0.0
49
0.0
49
1.0
49
0.0
49
0.0
49
0.0
49
0.0
49
1.0
175
0
142
0.0208333333333333
142
0.0
142
0.0
142
0.0
142
0.0
142
0.0208333333333333
142
0.0
142
0.0
142
0.0
142
0.0
142
1.0
142
0.0
142
0.0
142
0.0
142
0.0
142
1.0
179
0
144
0.0208333333333333
144
0.0
144
0.0
144
0.0
144
0.0
144
0.0208333333333333
144
0.0
144
0.0
144
0.0
144
0.0
144
1.0
144
0.0
144
0.0
144
0.0
144
0.0
144
1.0
147
0.0208333333333333
147
0.0
147
0.0
147
0.0
147
0.0
147
0.0208333333333333
147
0.0
147
0.0
147
0.0
147
0.0
147
1.0
147
0.0
147
0.0
147
0.0
147
0.0
147
1.0
0
MATERIAL
5
F7B
102
{ACAD_XDICTIONARY
360
F7C
102
}
102
{ACAD_REACTORS
330
F7A
102
}
330
F7A
100
AcDbMaterial
1
ByLayer
72
0
43
0.0208333333333333
43
0.0
43
0.0
43
0.0
43
0.0
43
0.0208333333333333
43
0.0
43
0.0
43
0.0
43
0.0
43
1.0
43
0.0
43
0.0
43
0.0
43
0.0
43
1.0
77
0
47
0.0208333333333333
47
0.0
47
0.0
47
0.0
47
0.0
47
0.0208333333333333
47
0.0
47
0.0
47
0.0
47
0.0
47
1.0
47
0.0
47
0.0
47
0.0
47
0.0
47
1.0
171
0
49
0.0208333333333333
49
0.0
49
0.0
49
0.0
49
0.0
49
0.0208333333333333
49
0.0
49
0.0
49
0.0
49
0.0
49
1.0
49
0.0
49
0.0
49
0.0
49
0.0
49
1.0
175
0
142
0.0208333333333333
142
0.0
142
0.0
142
0.0
142
0.0
142
0.0208333333333333
142
0.0
142
0.0
142
0.0
142
0.0
142
1.0
142
0.0
142
0.0
142
0.0
142
0.0
142
1.0
179
0
144
0.0208333333333333
144
0.0
144
0.0
144
0.0
144
0.0
144
0.0208333333333333
144
0.0
144
0.0
144
0.0
144
0.0
144
1.0
144
0.0
144
0.0
144
0.0
144
0.0
144
1.0
147
0.0208333333333333
147
0.0
147
0.0
147
0.0
147
0.0
147
0.0208333333333333
147
0.0
147
0.0
147
0.0
147
0.0
147
1.0
147
0.0
147
0.0
147
0.0
147
0.0
147
1.0
0
MATERIAL
5
F8B
102
{ACAD_XDICTIONARY
360
F8C
102
}
102
{ACAD_REACTORS
330
F7A
102
}
330
F7A
100
AcDbMaterial
1
Global
72
0
43
0.0208333333333333
43
0.0
43
0.0
43
0.0
43
0.0
43
0.0208333333333333
43
0.0
43
0.0
43
0.0
43
0.0
43
1.0
43
0.0
43
0.0
43
0.0
43
0.0
43
1.0
77
0
47
0.0208333333333333
47
0.0
47
0.0
47
0.0
47
0.0
47
0.0208333333333333
47
0.0
47
0.0
47
0.0
47
0.0
47
1.0
47
0.0
47
0.0
47
0.0
47
0.0
47
1.0
171
0
49
0.0208333333333333
49
0.0
49
0.0
49
0.0
49
0.0
49
0.0208333333333333
49
0.0
49
0.0
49
0.0
49
0.0
49
1.0
49
0.0
49
0.0
49
0.0
49
0.0
49
1.0
175
0
142
0.0208333333333333
142
0.0
142
0.0
142
0.0
142
0.0
142
0.0208333333333333
142
0.0
142
0.0
142
0.0
142
0.0
142
1.0
142
0.0
142
0.0
142
0.0
142
0.0
142
1.0
179
0
144
0.0208333333333333
144
0.0
144
0.0
144
0.0
144
0.0
144
0.0208333333333333
144
0.0
144
0.0
144
0.0
144
0.0
144
1.0
144
0.0
144
0.0
144
0.0
144
0.0
144
1.0
147
0.0208333333333333
147
0.0
147
0.0
147
0.0
147
0.0
147
0.0208333333333333
147
0.0
147
0.0
147
0.0
147
0.0
147
1.0
147
0.0
147
0.0
147
0.0
147
0.0
147
1.0
0
MLEADERSTYLE
5
FCE
102
{ACAD_REACTORS
330
FCD
102
}
330
FCD
100
AcDbMLeaderStyle
170
2
171
1
172
0
90
2
40
0.0
41
0.0
173
1
91
-1056964608
340
256
92
-2
290
1
42
0.09
291
1
43
0.36
3
Standard
44
0.18
300

342
253
174
1
178
6
175
1
176
0
93
-1056964608
45
0.18
292
0
297
0
46
0.18
94
-1056964608
47
1.0
49
1.0
140
1.0
293
1
141
0.0
294
1
177
0
142
1.0
295
0
296
0
143
0.125
1001
ACAD_MLEADERVER
1070
2
0
MLINESTYLE
5
FAA
102
{ACAD_REACTORS
330
16
102
}
330
16
100
AcDbMlineStyle
2
STANDARD
70
0
3

62
256
51
90.0
52
90.0
71
2
49
0.5
62
256
6
BYLAYER
49
-0.5
62
256
6
BYLAYER
0
ACDBPLACEHOLDER
5
19
102
{ACAD_REACTORS
330
18
102
}
330
18
0
SCALE
5
FAC
102
{ACAD_REACTORS
330
FAB
102
}
330
FAB
100
AcDbScale
70
0
300
1:1
140
1.0
141
1.0
290
1
0
SCALE
5
FAD
102
{ACAD_REACTORS
330
FAB
102
}
330
FAB
100
AcDbScale
70
0
300
1:2
140
1.0
141
2.0
290
0
0
SCALE
5
FAE
102
{ACAD_REACTORS
330
FAB
102
}
330
FAB
100
AcDbScale
70
0
300
1:4
140
1.0
141
4.0
290
0
0
SCALE
5
FAF
102
{ACAD_REACTORS
330
FAB
102
}
330
FAB
100
AcDbScale
70
0
300
1:5
140
1.0
141
5.0
290
0
0
SCALE
5
FB0
102
{ACAD_REACTORS
330
FAB
102
}
330
FAB
100
AcDbScale
70
0
300
1:8
140
1.0
141
8.0
290
0
0
SCALE
5
FB1
102
{ACAD_REACTORS
330
FAB
102
}
330
FAB
100
AcDbScale
70
0
300
1:10
140
1.0
141
10.0
290
0
0
SCALE
5
FB2
102
{ACAD_REACTORS
330
FAB
102
}
330
FAB
100
AcDbScale
70
0
300
1:16
140
1.0
141
16.0
290
0
0
SCALE
5
FB3
102
{ACAD_REACTORS
330
FAB
102
}
330
FAB
100
AcDbScale
70
0
300
1:20
140
1.0
141
20.0
290
0
0
SCALE
5
FB4
102
{ACAD_REACTORS
330
FAB
102
}
330
FAB
100
AcDbScale
70
0
300
1:30
140
1.0
141
30.0
290
0
0
SCALE
5
FB5
102
{ACAD_REACTORS
330
FAB
102
}
330
FAB
100
AcDbScale
70
0
300
1:40
140
1.0
141
40.0
290
0
0
SCALE
5
FB6
102
{ACAD_REACTORS
330
FAB
102
}
330
FAB
100
AcDbScale
70
0
300
1:50
140
1.0
141
50.0
290
0
0
SCALE
5
FB7
102
{ACAD_REACTORS
330
FAB
102
}
330
FAB
100
AcDbScale
70
0
300
1:100
140
1.0
141
100.0
290
0
0
SCALE
5
FB8
102
{ACAD_REACTORS
330
FAB
102
}
330
FAB
100
AcDbScale
70
0
300
2:1
140
2.0
141
1.0
290
0
0
SCALE
5
FB9
102
{ACAD_REACTORS
330
FAB
102
}
330
FAB
100
AcDbScale
70
0
300
4:1
140
4.0
141
1.0
290
0
0
SCALE
5
FBA
102
{ACAD_REACTORS
330
FAB
102
}
330
FAB
100
AcDbScale
70
0
300
8:1
140
8.0
141
1.0
290
0
0
SCALE
5
FBB
102
{ACAD_REACTORS
330
FAB
102
}
330
FAB
100
AcDbScale
70
0
300
10:1
140
10.0
141
1.0
290
0
0
SCALE
5
FBC
102
{ACAD_REACTORS
330
FAB
102
}
330
FAB
100
AcDbScale
70
0
300
100:1
140
100.0
141
1.0
290
0
0
SCALE
5
FBD
102
{ACAD_REACTORS
330
FAB
102
}
330
FAB
100
AcDbScale
70
0
300
1/128" = 1'-0"
140
0.0078125
141
12.0
290
0
0
SCALE
5
FBE
102
{ACAD_REACTORS
330
FAB
102
}
330
FAB
100
AcDbScale
70
0
300
1/64" = 1'-0"
140
0.015625
141
12.0
290
0
0
SCALE
5
FBF
102
{ACAD_REACTORS
330
FAB
102
}
330
FAB
100
AcDbScale
70
0
300
1/32" = 1'-0"
140
0.03125
141
12.0
290
0
0
SCALE
5
FC0
102
{ACAD_REACTORS
330
FAB
102
}
330
FAB
100
AcDbScale
70
0
300
1/16" = 1'-0"
140
0.0625
141
12.0
290
0
0
SCALE
5
FC1
102
{ACAD_REACTORS
330
FAB
102
}
330
FAB
100
AcDbScale
70
0
300
3/32" = 1'-0"
140
0.09375
141
12.0
290
0
0
SCALE
5
FC2
102
{ACAD_REACTORS
330
FAB
102
}
330
FAB
100
AcDbScale
70
0
300
1/8" = 1'-0"
140
0.125
141
12.0
290
0
0
SCALE
5
FC3
102
{ACAD_REACTORS
330
FAB
102
}
330
FAB
100
AcDbScale
70
0
300
3/16" = 1'-0"
140
0.1875
141
12.0
290
0
0
SCALE
5
FC4
102
{ACAD_REACTORS
330
FAB
102
}
330
FAB
100
AcDbScale
70
0
300
1/4" = 1'-0"
140
0.25
141
12.0
290
0
0
SCALE
5
FC5
102
{ACAD_REACTORS
330
FAB
102
}
330
FAB
100
AcDbScale
70
0
300
3/8" = 1'-0"
140
0.375
141
12.0
290
0
0
SCALE
5
FC6
102
{ACAD_REACTORS
330
FAB
102
}
330
FAB
100
AcDbScale
70
0
300
1/2" = 1'-0"
140
0.5
141
12.0
290
0
0
SCALE
5
FC7
102
{ACAD_REACTORS
330
FAB
102
}
330
FAB
100
AcDbScale
70
0
300
3/4" = 1'-0"
140
0.75
141
12.0
290
0
0
SCALE
5
FC8
102
{ACAD_REACTORS
330
FAB
102
}
330
FAB
100
AcDbScale
70
0
300
1" = 1'-0"
140
1.0
141
12.0
290
0
0
SCALE
5
FC9
102
{ACAD_REACTORS
330
FAB
102
}
330
FAB
100
AcDbScale
70
0
300
1-1/2" = 1'-0"
140
1.5
141
12.0
290
0
0
SCALE
5
FCA
102
{ACAD_REACTORS
330
FAB
102
}
330
FAB
100
AcDbScale
70
0
300
3" = 1'-0"
140
3.0
141
12.0
290
0
0
SCALE
5
FCB
102
{ACAD_REACTORS
330
FAB
102
}
330
FAB
100
AcDbScale
70
0
300
6" = 1'-0"
140
6.0
141
12.0
290
0
0
SCALE
5
FCC
102
{ACAD_REACTORS
330
FAB
102
}
330
FAB
100
AcDbScale
70
0
300
1'-0" = 1'-0"
140
12.0
141
12.0
290
0
0
TABLESTYLE
5
FA9
102
{ACAD_XDICTIONARY
360
FF8
102
}
102
{ACAD_REACTORS
330
FA8
102
}
330
FA8
100
AcDbTableStyle
3
Standard
70
0
71
0
40
0.06
41
0.06
280
0
281
0
7
Standard
140
0.18
170
2
62
0
63
7
283
0
274
-2
284
1
64
0
275
-2
285
1
65
0
276
-2
286
1
66
0
277
-2
287
1
67
0
278
-2
288
1
68
0
279
-2
289
1
69
0
7
Standard
140
0.25
170
5
62
0
63
7
283
0
274
-2
284
1
64
0
275
-2
285
1
65
0
276
-2
286
1
66
0
277
-2
287
1
67
0
278
-2
288
1
68
0
279
-2
289
1
69
0
7
Standard
140
0.18
170
5
62
0
63
7
283
0
274
-2
284
1
64
0
275
-2
285
1
65
0
276
-2
286
1
66
0
277
-2
287
1
67
0
278
-2
288
1
68
0
279
-2
289
1
69
0
0
VISUALSTYLE
5
F99
102
{ACAD_XDICTIONARY
360
108A
102
}
102
{ACAD_REACTORS
330
F93
102
}
330
F93
100
AcDbVisualStyle
2

70
4
71
0
72
2
73
0
90
0
40
-0.6
41
-30.0
62
5
63
7
74
1
91
4
64
7
65
257
75
1
175
1
42
1.0
92
0
66
257
43
1.0
76
1
77
6
78
2
67
7
79
5
170
0
171
0
290
0
174
0
93
1
44
0.0
173
0
291
0
45
0.0
1001
ACAD
1000
AcDbSavedByObjectVersion
1070
0
0
VISUALSTYLE
5
F9B
102
{ACAD_XDICTIONARY
360
108E
102
}
102
{ACAD_REACTORS
330
F93
102
}
330
F93
100
AcDbVisualStyle
2

70
6
71
1
72
2
73
2
90
0
40
-0.6
41
-30.0
62
5
63
7
74
2
91
2
64
7
65
257
75
2
175
1
42
179.0
92
0
66
257
43
1.0
76
1
77
6
78
2
67
7
79
3
170
0
171
0
290
0
174
0
93
1
44
0.0
173
0
291
0
45
0.0
1001
ACAD
1000
AcDbSavedByObjectVersion
1070
0
0
VISUALSTYLE
5
F9A
102
{ACAD_XDICTIONARY
360
108C
102
}
102
{ACAD_REACTORS
330
F93
102
}
330
F93
100
AcDbVisualStyle
2

70
5
71
0
72
2
73
0
90
0
40
-0.6
41
-30.0
62
5
63
7
74
1
91
4
64
7
65
257
75
1
175
1
42
1.0
92
0
66
257
43
1.0
76
1
77
6
78
2
67
7
79
5
170
0
171
0
290
0
174
0
93
1
44
0.0
173
0
291
0
45
0.0
1001
ACAD
1000
AcDbSavedByObjectVersion
1070
0
0
VISUALSTYLE
5
F98
102
{ACAD_XDICTIONARY
360
1088
102
}
102
{ACAD_REACTORS
330
F93
102
}
330
F93
100
AcDbVisualStyle
2

70
7
71
1
72
0
73
1
90
0
40
-0.6
41
-30.0
62
5
63
7
74
0
91
4
64
7
65
257
75
1
175
1
42
1.0
92
8
66
7
43
1.0
76
1
77
6
78
2
67
7
79
5
170
0
171
0
290
0
174
0
93
1
44
0.0
173
0
291
1
45
0.0
1001
ACAD
1000
AcDbSavedByObjectVersion
1070
0
0
VISUALSTYLE
5
F9F
102
{ACAD_XDICTIONARY
360
1096
102
}
102
{ACAD_REACTORS
330
F93
102
}
330
F93
100
AcDbVisualStyle
2

70
12
71
2
72
2
73
0
90
0
40
-0.6
41
-30.0
62
5
63
7
74
1
91
4
64
7
65
257
75
1
175
1
42
1.0
92
8
66
7
43
1.0
76
1
77
6
78
2
67
7
79
5
170
0
171
0
290
0
174
0
93
1
44
50.0
173
0
291
1
45
0.0
1001
ACAD
1000
AcDbSavedByObjectVersion
1070
0
0
VISUALSTYLE
5
FA3
102
{ACAD_XDICTIONARY
360
109E
102
}
102
{ACAD_REACTORS
330
F93
102
}
330
F93
100
AcDbVisualStyle
2

70
16
71
2
72
2
73
3
90
0
40
-0.6
41
-30.0
62
5
63
8
74
1
91
4
64
7
65
257
75
1
175
1
42
1.0
92
8
66
8
43
1.0
76
1
77
6
78
2
67
7
79
5
170
0
171
0
290
0
174
0
93
1
44
0.0
173
0
291
1
45
0.0
1001
ACAD
1000
AcDbSavedByObjectVersion
1070
0
0
VISUALSTYLE
5
F9C
102
{ACAD_XDICTIONARY
360
1090
102
}
102
{ACAD_REACTORS
330
F93
102
}
330
F93
100
AcDbVisualStyle
2

70
9
71
3
72
2
73
0
90
0
40
-0.6
41
-30.0
62
5
63
7
74
2
91
2
64
7
65
257
75
1
175
1
42
179.0
92
8
66
7
43
1.0
76
1
77
6
78
2
67
7
79
3
170
0
171
0
290
0
174
0
93
1
44
0.0
173
0
291
0
45
0.0
1001
ACAD
1000
AcDbSavedByObjectVersion
1070
0
0
VISUALSTYLE
5
F9E
102
{ACAD_XDICTIONARY
360
1094
102
}
102
{ACAD_REACTORS
330
F93
102
}
330
F93
100
AcDbVisualStyle
2

70
11
71
2
72
2
73
0
90
0
40
-0.6
41
-30.0
62
5
63
7
74
1
91
4
64
7
65
257
75
1
175
1
42
1.0
92
8
66
7
43
1.0
76
1
77
6
78
2
67
7
79
5
170
0
171
0
290
0
174
0
93
1
44
-50.0
173
0
291
1
45
0.0
1001
ACAD
1000
AcDbSavedByObjectVersion
1070
0
0
VISUALSTYLE
5
FA6
102
{ACAD_XDICTIONARY
360
10A4
102
}
102
{ACAD_REACTORS
330
F93
102
}
330
F93
100
AcDbVisualStyle
2

70
22
71
2
72
2
73
0
90
0
40
-0.6
41
-30.0
62
5
63
7
74
1
91
4
64
7
65
257
75
1
175
1
42
1.0
92
8
66
7
43
1.0
76
1
77
6
78
2
67
7
79
5
170
0
171
0
290
0
174
0
93
1
44
0.0
173
0
291
1
45
0.0
1001
ACAD
1000
AcDbSavedByObjectVersion
1070
0
0
VISUALSTYLE
5
FA2
102
{ACAD_XDICTIONARY
360
109C
102
}
102
{ACAD_REACTORS
330
F93
102
}
330
F93
100
AcDbVisualStyle
2

70
15
71
2
72
2
73
0
90
0
40
-0.6
41
-30.0
62
5
63
7
74
1
91
4
64
7
65
257
75
1
175
1
42
1.0
92
8
66
7
43
1.0
76
1
77
6
78
2
67
7
79
5
170
0
171
0
290
0
174
0
93
1
44
0.0
173
0
291
1
45
0.0
1001
ACAD
1000
AcDbSavedByObjectVersion
1070
0
0
VISUALSTYLE
5
F94
102
{ACAD_XDICTIONARY
360
1080
102
}
102
{ACAD_REACTORS
330
F93
102
}
330
F93
100
AcDbVisualStyle
2

70
0
71
2
72
1
73
1
90
2
40
-0.6
41
30.0
62
5
63
7
74
0
91
4
64
7
65
257
75
1
175
1
42
1.0
92
8
66
7
43
1.0
76
1
77
6
78
2
67
7
79
5
170
0
171
0
290
0
174
0
93
13
44
0.0
173
0
291
1
45
0.0
1001
ACAD
1000
AcDbSavedByObjectVersion
1070
0
0
VISUALSTYLE
5
F95
102
{ACAD_XDICTIONARY
360
1082
102
}
102
{ACAD_REACTORS
330
F93
102
}
330
F93
100
AcDbVisualStyle
2

70
1
71
2
72
1
73
1
90
2
40
-0.6
41
30.0
62
5
63
7
74
1
91
4
64
7
65
257
75
1
175
1
42
1.0
92
0
66
257
43
1.0
76
1
77
6
78
2
67
7
79
5
170
0
171
0
290
0
174
0
93
13
44
0.0
173
0
291
1
45
0.0
1001
ACAD
1000
AcDbSavedByObjectVersion
1070
0
0
VISUALSTYLE
5
F96
102
{ACAD_XDICTIONARY
360
1084
102
}
102
{ACAD_REACTORS
330
F93
102
}
330
F93
100
AcDbVisualStyle
2

70
2
71
2
72
2
73
1
90
2
40
-0.6
41
30.0
62
5
63
7
74
0
91
4
64
7
65
257
75
1
175
1
42
1.0
92
0
66
7
43
1.0
76
1
77
6
78
2
67
7
79
5
170
0
171
0
290
0
174
0
93
13
44
0.0
173
0
291
1
45
0.0
1001
ACAD
1000
AcDbSavedByObjectVersion
1070
0
0
VISUALSTYLE
5
F97
102
{ACAD_XDICTIONARY
360
1086
102
}
102
{ACAD_REACTORS
330
F93
102
}
330
F93
100
AcDbVisualStyle
2

70
3
71
2
72
2
73
1
90
2
40
-0.6
41
30.0
62
5
63
7
74
1
91
4
64
7
65
257
75
1
175
1
42
1.0
92
0
66
257
43
1.0
76
1
77
6
78
2
67
7
79
5
170
0
171
0
290
0
174
0
93
13
44
0.0
173
0
291
1
45
0.0
1001
ACAD
1000
AcDbSavedByObjectVersion
1070
0
0
VISUALSTYLE
5
FA4
102
{ACAD_XDICTIONARY
360
10A0
102
}
102
{ACAD_REACTORS
330
F93
102
}
330
F93
100
AcDbVisualStyle
2

70
20
71
2
72
2
73
0
90
0
40
-0.6
41
-30.0
62
5
63
7
74
1
91
4
64
7
65
257
75
1
175
1
42
1.0
92
10
66
7
43
1.0
76
1
77
6
78
2
67
7
79
5
170
0
171
0
290
0
174
0
93
1
44
0.0
173
0
291
1
45
0.0
1001
ACAD
1000
AcDbSavedByObjectVersion
1070
0
0
VISUALSTYLE
5
FA1
102
{ACAD_XDICTIONARY
360
109A
102
}
102
{ACAD_REACTORS
330
F93
102
}
330
F93
100
AcDbVisualStyle
2

70
14
71
2
72
2
73
0
90
0
40
-0.6
41
-30.0
62
5
63
7
74
1
91
4
64
7
65
257
75
7
175
7
42
1.0
92
8
66
7
43
1.0
76
1
77
6
78
2
67
7
79
5
170
0
171
0
290
0
174
0
93
1
44
0.0
173
0
291
1
45
0.0
1001
ACAD
1000
AcDbSavedByObjectVersion
1070
0
0
VISUALSTYLE
5
FA5
102
{ACAD_XDICTIONARY
360
10A2
102
}
102
{ACAD_REACTORS
330
F93
102
}
330
F93
100
AcDbVisualStyle
2

70
21
71
2
72
2
73
0
90
0
40
-0.6
41
-30.0
62
5
63
7
74
1
91
4
64
7
65
257
75
1
175
1
42
1.0
92
9
66
7
43
1.0
76
1
77
6
78
2
67
7
79
5
170
0
171
0
290
0
174
0
93
1
44
0.0
173
0
291
1
45
0.0
1001
ACAD
1000
AcDbSavedByObjectVersion
1070
0
0
VISUALSTYLE
5
F9D
102
{ACAD_XDICTIONARY
360
1092
102
}
102
{ACAD_REACTORS
330
F93
102
}
330
F93
100
AcDbVisualStyle
2

70
8
71
2
72
2
73
0
90
0
40
-0.6
41
-30.0
62
5
63
7
74
1
91
0
64
7
65
257
75
1
175
1
42
1.0
92
8
66
8
43
1.0
76
1
77
6
78
2
67
7
79
5
170
0
171
0
290
0
174
0
93
13
44
0.0
173
0
291
0
45
0.0
1001
ACAD
1000
AcDbSavedByObjectVersion
1070
0
0
VISUALSTYLE
5
FA0
102
{ACAD_XDICTIONARY
360
1098
102
}
102
{ACAD_REACTORS
330
F93
102
}
330
F93
100
AcDbVisualStyle
2

70
13
71
2
72
2
73
0
90
0
40
-0.6
41
-30.0
62
5
63
7
74
1
91
4
64
7
65
257
75
1
175
1
42
1.0
92
12
66
7
43
1.0
76
1
77
6
78
2
67
7
79
5
170
0
171
0
290
0
174
0
93
1
44
0.0
173
0
291
1
45
0.0
1001
ACAD
1000
AcDbSavedByObjectVersion
1070
0
0
DICTIONARYVAR
5
FF3
102
{ACAD_REACTORS
330
FF0
102
}
330
FF0
100
DictionaryVariables
280
0
1
1:1
0
DICTIONARYVAR
5
FF2
102
{ACAD_REACTORS
330
FF0
102
}
330
FF0
100
DictionaryVariables
280
0
1
STANDARD
0
DICTIONARYVAR
5
FF1
102
{ACAD_REACTORS
330
FF0
102
}
330
FF0
100
DictionaryVariables
280
0
1
STANDARD
0
DICTIONARYVAR
5
FF6
102
{ACAD_REACTORS
330
FF0
102
}
330
FF0
100
DictionaryVariables
280
0
1
1
0
DICTIONARYVAR
5
FF5
102
{ACAD_REACTORS
330
FF0
102
}
330
FF0
100
DictionaryVariables
280
0
1
0
0
DICTIONARYVAR
5
FF4
102
{ACAD_REACTORS
330
FF0
102
}
330
FF0
100
DictionaryVariables
280
0
1
127
0
DICTIONARYVAR
5
1078
102
{ACAD_REACTORS
330
FF0
102
}
330
FF0
100
DictionaryVariables
280
0
1
2
0
DICTIONARY
5
10A9
330
FD1
100
AcDbDictionary
280
1
281
1
3
ACAD_XREC_ROUNDTRIP
360
10AA
0
DICTIONARY
5
10A7
330
FD0
100
AcDbDictionary
280
1
281
1
3
ACAD_XREC_ROUNDTRIP
360
10A8
0
DICTIONARY
5
F84
330
F83
100
AcDbDictionary
280
1
281
1
3
ACAD_XREC_ROUNDTRIP
360
FFF
3
BUMPTILE
360
F86
3
DIFFUSETILE
360
F85
3
OPACITYTILE
360
F89
3
REFLECTIONTILE
360
F88
3
REFRACTIONTILE
360
F8A
3
SPECULARTILE
360
F87
0
DICTIONARY
5
F7C
330
F7B
100
AcDbDictionary
280
1
281
1
3
ACAD_XREC_ROUNDTRIP
360
FFE
3
BUMPTILE
360
F7E
3
DIFFUSETILE
360
F7D
3
OPACITYTILE
360
F81
3
REFLECTIONTILE
360
F80
3
REFRACTIONTILE
360
F82
3
SPECULARTILE
360
F7F
0
DICTIONARY
5
F8C
330
F8B
100
AcDbDictionary
280
1
281
1
3
ACAD_XREC_ROUNDTRIP
360
1000
3
BUMPTILE
360
F8E
3
DIFFUSETILE
360
F8D
3
OPACITYTILE
360
F91
3
REFLECTIONTILE
360
F90
3
REFRACTIONTILE
360
F92
3
SPECULARTILE
360
F8F
0
DICTIONARY
5
FF8
330
FA9
100
AcDbDictionary
280
1
281
1
3
ACAD_ROUNDTRIP_2008_TABLESTYLE_CELLSTYLEMAP
360
1079
3
ACAD_XREC_ROUNDTRIP
360
10A6
0
DICTIONARY
5
108A
330
F99
100
AcDbDictionary
280
1
281
1
3
ACAD_XREC_ROUNDTRIP
360
108B
0
DICTIONARY
5
108E
330
F9B
100
AcDbDictionary
280
1
281
1
3
ACAD_XREC_ROUNDTRIP
360
108F
0
DICTIONARY
5
108C
330
F9A
100
AcDbDictionary
280
1
281
1
3
ACAD_XREC_ROUNDTRIP
360
108D
0
DICTIONARY
5
1088
330
F98
100
AcDbDictionary
280
1
281
1
3
ACAD_XREC_ROUNDTRIP
360
1089
0
DICTIONARY
5
1096
330
F9F
100
AcDbDictionary
280
1
281
1
3
ACAD_XREC_ROUNDTRIP
360
1097
0
DICTIONARY
5
109E
330
FA3
100
AcDbDictionary
280
1
281
1
3
ACAD_XREC_ROUNDTRIP
360
109F
0
DICTIONARY
5
1090
330
F9C
100
AcDbDictionary
280
1
281
1
3
ACAD_XREC_ROUNDTRIP
360
1091
0
DICTIONARY
5
1094
330
F9E
100
AcDbDictionary
280
1
281
1
3
ACAD_XREC_ROUNDTRIP
360
1095
0
DICTIONARY
5
10A4
330
FA6
100
AcDbDictionary
280
1
281
1
3
ACAD_XREC_ROUNDTRIP
360
10A5
0
DICTIONARY
5
109C
330
FA2
100
AcDbDictionary
280
1
281
1
3
ACAD_XREC_ROUNDTRIP
360
109D
0
DICTIONARY
5
1080
330
F94
100
AcDbDictionary
280
1
281
1
3
ACAD_XREC_ROUNDTRIP
360
1081
0
DICTIONARY
5
1082
330
F95
100
AcDbDictionary
280
1
281
1
3
ACAD_XREC_ROUNDTRIP
360
1083
0
DICTIONARY
5
1084
330
F96
100
AcDbDictionary
280
1
281
1
3
ACAD_XREC_ROUNDTRIP
360
1085
0
DICTIONARY
5
1086
330
F97
100
AcDbDictionary
280
1
281
1
3
ACAD_XREC_ROUNDTRIP
360
1087
0
DICTIONARY
5
10A0
330
FA4
100
AcDbDictionary
280
1
281
1
3
ACAD_XREC_ROUNDTRIP
360
10A1
0
DICTIONARY
5
109A
330
FA1
100
AcDbDictionary
280
1
281
1
3
ACAD_XREC_ROUNDTRIP
360
109B
0
DICTIONARY
5
10A2
330
FA5
100
AcDbDictionary
280
1
281
1
3
ACAD_XREC_ROUNDTRIP
360
10A3
0
DICTIONARY
5
1092
330
F9D
100
AcDbDictionary
280
1
281
1
3
ACAD_XREC_ROUNDTRIP
360
1093
0
DICTIONARY
5
1098
330
FA0
100
AcDbDictionary
280
1
281
1
3
ACAD_XREC_ROUNDTRIP
360
1099
0
XRECORD
5
10AA
102
{ACAD_REACTORS
330
10A9
102
}
330
10A9
100
AcDbXrecord
280
1
102
SHADEPLOT
70
0
102
SHADEPLOTRESLEVEL
70
2
102
SHADEPLOTCUSTOMDPI
70
300
0
XRECORD
5
10A8
102
{ACAD_REACTORS
330
10A7
102
}
330
10A7
100
AcDbXrecord
280
1
102
SHADEPLOT
70
0
102
SHADEPLOTRESLEVEL
70
2
102
SHADEPLOTCUSTOMDPI
70
300
0
XRECORD
5
FFF
102
{ACAD_REACTORS
330
F84
102
}
330
F84
100
AcDbXrecord
280
1
102
MATERIAL
148
0.0
149
0.0
149
0.0
93
0
94
127
282
0
72
0
77
0
171
0
175
0
179
0
273
0
0
XRECORD
5
F86
102
{ACAD_REACTORS
330
F84
102
}
330
F84
100
AcDbXrecord
280
1
270
1
271
1
0
XRECORD
5
F85
102
{ACAD_REACTORS
330
F84
102
}
330
F84
100
AcDbXrecord
280
1
270
1
271
1
0
XRECORD
5
F89
102
{ACAD_REACTORS
330
F84
102
}
330
F84
100
AcDbXrecord
280
1
270
1
271
1
0
XRECORD
5
F88
102
{ACAD_REACTORS
330
F84
102
}
330
F84
100
AcDbXrecord
280
1
270
1
271
1
0
XRECORD
5
F8A
102
{ACAD_REACTORS
330
F84
102
}
330
F84
100
AcDbXrecord
280
1
270
1
271
1
0
XRECORD
5
F87
102
{ACAD_REACTORS
330
F84
102
}
330
F84
100
AcDbXrecord
280
1
270
1
271
1
0
XRECORD
5
FFE
102
{ACAD_REACTORS
330
F7C
102
}
330
F7C
100
AcDbXrecord
280
1
102
MATERIAL
148
0.0
149
0.0
149
0.0
93
0
94
127
282
0
72
0
77
0
171
0
175
0
179
0
273
0
0
XRECORD
5
F7E
102
{ACAD_REACTORS
330
F7C
102
}
330
F7C
100
AcDbXrecord
280
1
270
1
271
1
0
XRECORD
5
F7D
102
{ACAD_REACTORS
330
F7C
102
}
330
F7C
100
AcDbXrecord
280
1
270
1
271
1
0
XRECORD
5
F81
102
{ACAD_REACTORS
330
F7C
102
}
330
F7C
100
AcDbXrecord
280
1
270
1
271
1
0
XRECORD
5
F80
102
{ACAD_REACTORS
330
F7C
102
}
330
F7C
100
AcDbXrecord
280
1
270
1
271
1
0
XRECORD
5
F82
102
{ACAD_REACTORS
330
F7C
102
}
330
F7C
100
AcDbXrecord
280
1
270
1
271
1
0
XRECORD
5
F7F
102
{ACAD_REACTORS
330
F7C
102
}
330
F7C
100
AcDbXrecord
280
1
270
1
271
1
0
XRECORD
5
1000
102
{ACAD_REACTORS
330
F8C
102
}
330
F8C
100
AcDbXrecord
280
1
102
MATERIAL
148
0.0
149
0.0
149
0.0
93
0
94
127
282
0
72
0
77
0
171
0
175
0
179
0
273
0
0
XRECORD
5
F8E
102
{ACAD_REACTORS
330
F8C
102
}
330
F8C
100
AcDbXrecord
280
1
270
1
271
1
0
XRECORD
5
F8D
102
{ACAD_REACTORS
330
F8C
102
}
330
F8C
100
AcDbXrecord
280
1
270
1
271
1
0
XRECORD
5
F91
102
{ACAD_REACTORS
330
F8C
102
}
330
F8C
100
AcDbXrecord
280
1
270
1
271
1
0
XRECORD
5
F90
102
{ACAD_REACTORS
330
F8C
102
}
330
F8C
100
AcDbXrecord
280
1
270
1
271
1
0
XRECORD
5
F92
102
{ACAD_REACTORS
330
F8C
102
}
330
F8C
100
AcDbXrecord
280
1
270
1
271
1
0
XRECORD
5
F8F
102
{ACAD_REACTORS
330
F8C
102
}
330
F8C
100
AcDbXrecord
280
1
270
1
271
1
0
CELLSTYLEMAP
5
1079
102
{ACAD_REACTORS
330
FF8
102
}
330
FF8
100
AcDbCellStyleMap
90
3
300
CELLSTYLE
1
TABLEFORMAT_BEGIN
90
5
170
1
91
0
92
32768
62
257
93
1
300
CONTENTFORMAT
1
CONTENTFORMAT_BEGIN
90
0
91
0
92
512
93
0
300

40
0.0
140
1.0
94
5
62
0
340
253
144
0.25
309
CONTENTFORMAT_END
171
1
301
MARGIN
1
CELLMARGIN_BEGIN
40
0.06
40
0.06
40
0.06
40
0.06
40
0.18
40
0.18
309
CELLMARGIN_END
94
6
95
1
302
GRIDFORMAT
1
GRIDFORMAT_BEGIN
90
0
91
1
62
0
92
-2
340
0
93
0
40
0.045
309
GRIDFORMAT_END
95
2
302
GRIDFORMAT
1
GRIDFORMAT_BEGIN
90
0
91
1
62
0
92
-2
340
0
93
0
40
0.045
309
GRIDFORMAT_END
95
4
302
GRIDFORMAT
1
GRIDFORMAT_BEGIN
90
0
91
1
62
0
92
-2
340
0
93
0
40
0.045
309
GRIDFORMAT_END
95
8
302
GRIDFORMAT
1
GRIDFORMAT_BEGIN
90
0
91
1
62
0
92
-2
340
0
93
0
40
0.045
309
GRIDFORMAT_END
95
16
302
GRIDFORMAT
1
GRIDFORMAT_BEGIN
90
0
91
1
62
0
92
-2
340
0
93
0
40
0.045
309
GRIDFORMAT_END
95
32
302
GRIDFORMAT
1
GRIDFORMAT_BEGIN
90
0
91
1
62
0
92
-2
340
0
93
0
40
0.045
309
GRIDFORMAT_END
309
TABLEFORMAT_END
1
CELLSTYLE_BEGIN
90
1
91
1
300
_TITLE
309
CELLSTYLE_END
300
CELLSTYLE
1
TABLEFORMAT_BEGIN
90
5
170
1
91
0
92
0
62
257
93
1
300
CONTENTFORMAT
1
CONTENTFORMAT_BEGIN
90
0
91
0
92
512
93
0
300

40
0.0
140
1.0
94
5
62
0
340
253
144
0.18
309
CONTENTFORMAT_END
171
1
301
MARGIN
1
CELLMARGIN_BEGIN
40
0.06
40
0.06
40
0.06
40
0.06
40
0.18
40
0.18
309
CELLMARGIN_END
94
6
95
1
302
GRIDFORMAT
1
GRIDFORMAT_BEGIN
90
0
91
1
62
0
92
-2
340
0
93
0
40
0.045
309
GRIDFORMAT_END
95
2
302
GRIDFORMAT
1
GRIDFORMAT_BEGIN
90
0
91
1
62
0
92
-2
340
0
93
0
40
0.045
309
GRIDFORMAT_END
95
4
302
GRIDFORMAT
1
GRIDFORMAT_BEGIN
90
0
91
1
62
0
92
-2
340
0
93
0
40
0.045
309
GRIDFORMAT_END
95
8
302
GRIDFORMAT
1
GRIDFORMAT_BEGIN
90
0
91
1
62
0
92
-2
340
0
93
0
40
0.045
309
GRIDFORMAT_END
95
16
302
GRIDFORMAT
1
GRIDFORMAT_BEGIN
90
0
91
1
62
0
92
-2
340
0
93
0
40
0.045
309
GRIDFORMAT_END
95
32
302
GRIDFORMAT
1
GRIDFORMAT_BEGIN
90
0
91
1
62
0
92
-2
340
0
93
0
40
0.045
309
GRIDFORMAT_END
309
TABLEFORMAT_END
1
CELLSTYLE_BEGIN
90
2
91
1
300
_HEADER
309
CELLSTYLE_END
300
CELLSTYLE
1
TABLEFORMAT_BEGIN
90
5
170
1
91
0
92
0
62
257
93
1
300
CONTENTFORMAT
1
CONTENTFORMAT_BEGIN
90
0
91
0
92
512
93
0
300

40
0.0
140
1.0
94
2
62
0
340
253
144
0.18
309
CONTENTFORMAT_END
171
1
301
MARGIN
1
CELLMARGIN_BEGIN
40
0.06
40
0.06
40
0.06
40
0.06
40
0.18
40
0.18
309
CELLMARGIN_END
94
6
95
1
302
GRIDFORMAT
1
GRIDFORMAT_BEGIN
90
0
91
1
62
0
92
-2
340
0
93
0
40
0.045
309
GRIDFORMAT_END
95
2
302
GRIDFORMAT
1
GRIDFORMAT_BEGIN
90
0
91
1
62
0
92
-2
340
0
93
0
40
0.045
309
GRIDFORMAT_END
95
4
302
GRIDFORMAT
1
GRIDFORMAT_BEGIN
90
0
91
1
62
0
92
-2
340
0
93
0
40
0.045
309
GRIDFORMAT_END
95
8
302
GRIDFORMAT
1
GRIDFORMAT_BEGIN
90
0
91
1
62
0
92
-2
340
0
93
0
40
0.045
309
GRIDFORMAT_END
95
16
302
GRIDFORMAT
1
GRIDFORMAT_BEGIN
90
0
91
1
62
0
92
-2
340
0
93
0
40
0.045
309
GRIDFORMAT_END
95
32
302
GRIDFORMAT
1
GRIDFORMAT_BEGIN
90
0
91
1
62
0
92
-2
340
0
93
0
40
0.045
309
GRIDFORMAT_END
309
TABLEFORMAT_END
1
CELLSTYLE_BEGIN
90
3
91
2
300
_DATA
309
CELLSTYLE_END
0
XRECORD
5
10A6
102
{ACAD_REACTORS
330
FF8
102
}
330
FF8
100
AcDbXrecord
280
1
102
ACAD_ROUNDTRIP_PRE2007_TABLESTYLE
90
512
91
0
1

92
512
93
0
2

94
512
95
0
3

0
XRECORD
5
108B
102
{ACAD_REACTORS
330
108A
102
}
330
108A
100
AcDbXrecord
280
1
102
RTVSPropertyOp0
70
1
102
RTVSPropertyOp1
70
1
102
RTVSPropertyOp2
70
1
102
RTVSPropertyOp3
70
1
102
RTVSPropertyOp4
70
1
102
RTVSPropertyOp5
70
1
102
RTVSPropertyOp6
70
1
102
RTVSPropertyOp7
70
1
102
RTVSPropertyOp8
70
1
102
RTVSPropertyOp9
70
1
102
RTVSPropertyOp10
70
1
102
RTVSPropertyOp11
70
1
102
RTVSPropertyOp12
70
1
102
RTVSPropertyOp13
70
1
102
RTVSPropertyOp14
70
1
102
RTVSPropertyOp15
70
1
102
RTVSPropertyOp16
70
1
102
RTVSPropertyOp17
70
1
102
RTVSPropertyOp18
70
1
102
RTVSPropertyOp19
70
1
102
RTVSPropertyOp20
70
1
102
RTVSPropertyOp21
70
1
102
RTVSPropertyOp22
70
1
102
RTVSPropertyOp23
70
1
102
RTVSPropertyOp24
70
1
102
RTVSPropertyOp25
70
1
102
RTVSPropertyOp26
70
1
102
RTVSPropertyOp27
70
1
0
XRECORD
5
108F
102
{ACAD_REACTORS
330
108E
102
}
330
108E
100
AcDbXrecord
280
1
102
RTVSPropertyOp0
70
1
102
RTVSPropertyOp1
70
1
102
RTVSPropertyOp2
70
1
102
RTVSPropertyOp3
70
1
102
RTVSPropertyOp4
70
1
102
RTVSPropertyOp5
70
1
102
RTVSPropertyOp6
70
1
102
RTVSPropertyOp7
70
1
102
RTVSPropertyOp8
70
1
102
RTVSPropertyOp9
70
1
102
RTVSPropertyOp10
70
1
102
RTVSPropertyOp11
70
1
102
RTVSPropertyOp12
70
1
102
RTVSPropertyOp13
70
1
102
RTVSPropertyOp14
70
1
102
RTVSPropertyOp15
70
1
102
RTVSPropertyOp16
70
1
102
RTVSPropertyOp17
70
1
102
RTVSPropertyOp18
70
1
102
RTVSPropertyOp19
70
1
102
RTVSPropertyOp20
70
1
102
RTVSPropertyOp21
70
1
102
RTVSPropertyOp22
70
1
102
RTVSPropertyOp23
70
1
102
RTVSPropertyOp24
70
1
102
RTVSPropertyOp25
70
1
102
RTVSPropertyOp26
70
1
102
RTVSPropertyOp27
70
1
0
XRECORD
5
108D
102
{ACAD_REACTORS
330
108C
102
}
330
108C
100
AcDbXrecord
280
1
102
RTVSPropertyOp0
70
1
102
RTVSPropertyOp1
70
1
102
RTVSPropertyOp2
70
1
102
RTVSPropertyOp3
70
1
102
RTVSPropertyOp4
70
1
102
RTVSPropertyOp5
70
1
102
RTVSPropertyOp6
70
1
102
RTVSPropertyOp7
70
1
102
RTVSPropertyOp8
70
1
102
RTVSPropertyOp9
70
1
102
RTVSPropertyOp10
70
1
102
RTVSPropertyOp11
70
1
102
RTVSPropertyOp12
70
1
102
RTVSPropertyOp13
70
1
102
RTVSPropertyOp14
70
1
102
RTVSPropertyOp15
70
1
102
RTVSPropertyOp16
70
1
102
RTVSPropertyOp17
70
1
102
RTVSPropertyOp18
70
1
102
RTVSPropertyOp19
70
1
102
RTVSPropertyOp20
70
1
102
RTVSPropertyOp21
70
1
102
RTVSPropertyOp22
70
1
102
RTVSPropertyOp23
70
1
102
RTVSPropertyOp24
70
1
102
RTVSPropertyOp25
70
1
102
RTVSPropertyOp26
70
1
102
RTVSPropertyOp27
70
1
0
XRECORD
5
1089
102
{ACAD_REACTORS
330
1088
102
}
330
1088
100
AcDbXrecord
280
1
102
RTVSPropertyOp0
70
1
102
RTVSPropertyOp1
70
1
102
RTVSPropertyOp2
70
1
102
RTVSPropertyOp3
70
1
102
RTVSPropertyOp4
70
1
102
RTVSPropertyOp5
70
1
102
RTVSPropertyOp6
70
1
102
RTVSPropertyOp7
70
1
102
RTVSPropertyOp8
70
1
102
RTVSPropertyOp9
70
1
102
RTVSPropertyOp10
70
1
102
RTVSPropertyOp11
70
1
102
RTVSPropertyOp12
70
1
102
RTVSPropertyOp13
70
1
102
RTVSPropertyOp14
70
1
102
RTVSPropertyOp15
70
1
102
RTVSPropertyOp16
70
1
102
RTVSPropertyOp17
70
1
102
RTVSPropertyOp18
70
1
102
RTVSPropertyOp19
70
1
102
RTVSPropertyOp20
70
1
102
RTVSPropertyOp21
70
1
102
RTVSPropertyOp22
70
1
102
RTVSPropertyOp23
70
1
102
RTVSPropertyOp24
70
1
102
RTVSPropertyOp25
70
1
102
RTVSPropertyOp26
70
1
102
RTVSPropertyOp27
70
1
0
XRECORD
5
1097
102
{ACAD_REACTORS
330
1096
102
}
330
1096
100
AcDbXrecord
280
1
102
RTVSPropertyOp0
70
1
102
RTVSPropertyOp1
70
1
102
RTVSPropertyOp2
70
1
102
RTVSPropertyOp3
70
1
102
RTVSPropertyOp4
70
1
102
RTVSPropertyOp5
70
1
102
RTVSPropertyOp6
70
1
102
RTVSPropertyOp7
70
1
102
RTVSPropertyOp8
70
1
102
RTVSPropertyOp9
70
1
102
RTVSPropertyOp10
70
1
102
RTVSPropertyOp11
70
1
102
RTVSPropertyOp12
70
1
102
RTVSPropertyOp13
70
1
102
RTVSPropertyOp14
70
1
102
RTVSPropertyOp15
70
1
102
RTVSPropertyOp16
70
1
102
RTVSPropertyOp17
70
1
102
RTVSPropertyOp18
70
1
102
RTVSPropertyOp19
70
1
102
RTVSPropertyOp20
70
1
102
RTVSPropertyOp21
70
1
102
RTVSPropertyOp22
70
1
102
RTVSPropertyOp23
70
1
102
RTVSPropertyOp24
70
1
102
RTVSPropertyOp25
70
1
102
RTVSPropertyOp26
70
1
102
RTVSPropertyOp27
70
1
0
XRECORD
5
109F
102
{ACAD_REACTORS
330
109E
102
}
330
109E
100
AcDbXrecord
280
1
102
RTVSPropertyOp0
70
1
102
RTVSPropertyOp1
70
1
102
RTVSPropertyOp2
70
1
102
RTVSPropertyOp3
70
1
102
RTVSPropertyOp4
70
1
102
RTVSPropertyOp5
70
1
102
RTVSPropertyOp6
70
1
102
RTVSPropertyOp7
70
1
102
RTVSPropertyOp8
70
1
102
RTVSPropertyOp9
70
1
102
RTVSPropertyOp10
70
1
102
RTVSPropertyOp11
70
1
102
RTVSPropertyOp12
70
1
102
RTVSPropertyOp13
70
1
102
RTVSPropertyOp14
70
1
102
RTVSPropertyOp15
70
1
102
RTVSPropertyOp16
70
1
102
RTVSPropertyOp17
70
1
102
RTVSPropertyOp18
70
1
102
RTVSPropertyOp19
70
1
102
RTVSPropertyOp20
70
1
102
RTVSPropertyOp21
70
1
102
RTVSPropertyOp22
70
1
102
RTVSPropertyOp23
70
1
102
RTVSPropertyOp24
70
1
102
RTVSPropertyOp25
70
1
102
RTVSPropertyOp26
70
1
102
RTVSPropertyOp27
70
1
0
XRECORD
5
1091
102
{ACAD_REACTORS
330
1090
102
}
330
1090
100
AcDbXrecord
280
1
102
RTVSPropertyOp0
70
1
102
RTVSPropertyOp1
70
1
102
RTVSPropertyOp2
70
1
102
RTVSPropertyOp3
70
1
102
RTVSPropertyOp4
70
1
102
RTVSPropertyOp5
70
1
102
RTVSPropertyOp6
70
1
102
RTVSPropertyOp7
70
1
102
RTVSPropertyOp8
70
1
102
RTVSPropertyOp9
70
1
102
RTVSPropertyOp10
70
1
102
RTVSPropertyOp11
70
1
102
RTVSPropertyOp12
70
1
102
RTVSPropertyOp13
70
1
102
RTVSPropertyOp14
70
1
102
RTVSPropertyOp15
70
1
102
RTVSPropertyOp16
70
1
102
RTVSPropertyOp17
70
1
102
RTVSPropertyOp18
70
1
102
RTVSPropertyOp19
70
1
102
RTVSPropertyOp20
70
1
102
RTVSPropertyOp21
70
1
102
RTVSPropertyOp22
70
1
102
RTVSPropertyOp23
70
1
102
RTVSPropertyOp24
70
1
102
RTVSPropertyOp25
70
1
102
RTVSPropertyOp26
70
1
102
RTVSPropertyOp27
70
1
0
XRECORD
5
1095
102
{ACAD_REACTORS
330
1094
102
}
330
1094
100
AcDbXrecord
280
1
102
RTVSPropertyOp0
70
1
102
RTVSPropertyOp1
70
1
102
RTVSPropertyOp2
70
1
102
RTVSPropertyOp3
70
1
102
RTVSPropertyOp4
70
1
102
RTVSPropertyOp5
70
1
102
RTVSPropertyOp6
70
1
102
RTVSPropertyOp7
70
1
102
RTVSPropertyOp8
70
1
102
RTVSPropertyOp9
70
1
102
RTVSPropertyOp10
70
1
102
RTVSPropertyOp11
70
1
102
RTVSPropertyOp12
70
1
102
RTVSPropertyOp13
70
1
102
RTVSPropertyOp14
70
1
102
RTVSPropertyOp15
70
1
102
RTVSPropertyOp16
70
1
102
RTVSPropertyOp17
70
1
102
RTVSPropertyOp18
70
1
102
RTVSPropertyOp19
70
1
102
RTVSPropertyOp20
70
1
102
RTVSPropertyOp21
70
1
102
RTVSPropertyOp22
70
1
102
RTVSPropertyOp23
70
1
102
RTVSPropertyOp24
70
1
102
RTVSPropertyOp25
70
1
102
RTVSPropertyOp26
70
1
102
RTVSPropertyOp27
70
1
0
XRECORD
5
10A5
102
{ACAD_REACTORS
330
10A4
102
}
330
10A4
100
AcDbXrecord
280
1
102
RTVSPropertyOp0
70
0
102
RTVSPropertyOp1
70
0
102
RTVSPropertyOp2
70
0
102
RTVSPropertyOp3
70
0
102
RTVSPropertyOp4
70
0
102
RTVSPropertyOp5
70
0
102
RTVSPropertyOp6
70
0
102
RTVSPropertyOp7
70
0
102
RTVSPropertyOp8
70
0
102
RTVSPropertyOp9
70
0
102
RTVSPropertyOp10
70
0
102
RTVSPropertyOp11
70
0
102
RTVSPropertyOp12
70
0
102
RTVSPropertyOp13
70
0
102
RTVSPropertyOp14
70
2
102
RTVSPropertyOp15
70
0
102
RTVSPropertyOp16
70
0
102
RTVSPropertyOp17
70
0
102
RTVSPropertyOp18
70
0
102
RTVSPropertyOp19
70
0
102
RTVSPropertyOp20
70
0
102
RTVSPropertyOp21
70
0
102
RTVSPropertyOp22
70
0
102
RTVSPropertyOp23
70
0
102
RTVSPropertyOp24
70
0
102
RTVSPropertyOp25
70
0
102
RTVSPropertyOp26
70
0
102
RTVSPropertyOp27
70
0
0
XRECORD
5
109D
102
{ACAD_REACTORS
330
109C
102
}
330
109C
100
AcDbXrecord
280
1
102
RTVSPropertyOp0
70
1
102
RTVSPropertyOp1
70
1
102
RTVSPropertyOp2
70
1
102
RTVSPropertyOp3
70
1
102
RTVSPropertyOp4
70
1
102
RTVSPropertyOp5
70
1
102
RTVSPropertyOp6
70
1
102
RTVSPropertyOp7
70
1
102
RTVSPropertyOp8
70
1
102
RTVSPropertyOp9
70
1
102
RTVSPropertyOp10
70
1
102
RTVSPropertyOp11
70
1
102
RTVSPropertyOp12
70
1
102
RTVSPropertyOp13
70
1
102
RTVSPropertyOp14
70
1
102
RTVSPropertyOp15
70
1
102
RTVSPropertyOp16
70
1
102
RTVSPropertyOp17
70
1
102
RTVSPropertyOp18
70
1
102
RTVSPropertyOp19
70
1
102
RTVSPropertyOp20
70
1
102
RTVSPropertyOp21
70
1
102
RTVSPropertyOp22
70
1
102
RTVSPropertyOp23
70
1
102
RTVSPropertyOp24
70
1
102
RTVSPropertyOp25
70
1
102
RTVSPropertyOp26
70
1
102
RTVSPropertyOp27
70
1
0
XRECORD
5
1081
102
{ACAD_REACTORS
330
1080
102
}
330
1080
100
AcDbXrecord
280
1
102
RTVSPropertyOp0
70
1
102
RTVSPropertyOp1
70
1
102
RTVSPropertyOp2
70
1
102
RTVSPropertyOp3
70
1
102
RTVSPropertyOp4
70
1
102
RTVSPropertyOp5
70
1
102
RTVSPropertyOp6
70
1
102
RTVSPropertyOp7
70
1
102
RTVSPropertyOp8
70
1
102
RTVSPropertyOp9
70
1
102
RTVSPropertyOp10
70
1
102
RTVSPropertyOp11
70
1
102
RTVSPropertyOp12
70
1
102
RTVSPropertyOp13
70
1
102
RTVSPropertyOp14
70
1
102
RTVSPropertyOp15
70
1
102
RTVSPropertyOp16
70
1
102
RTVSPropertyOp17
70
1
102
RTVSPropertyOp18
70
1
102
RTVSPropertyOp19
70
1
102
RTVSPropertyOp20
70
1
102
RTVSPropertyOp21
70
1
102
RTVSPropertyOp22
70
1
102
RTVSPropertyOp23
70
1
102
RTVSPropertyOp24
70
1
102
RTVSPropertyOp25
70
1
102
RTVSPropertyOp26
70
1
102
RTVSPropertyOp27
70
1
0
XRECORD
5
1083
102
{ACAD_REACTORS
330
1082
102
}
330
1082
100
AcDbXrecord
280
1
102
RTVSPropertyOp0
70
1
102
RTVSPropertyOp1
70
1
102
RTVSPropertyOp2
70
1
102
RTVSPropertyOp3
70
1
102
RTVSPropertyOp4
70
1
102
RTVSPropertyOp5
70
1
102
RTVSPropertyOp6
70
1
102
RTVSPropertyOp7
70
1
102
RTVSPropertyOp8
70
1
102
RTVSPropertyOp9
70
1
102
RTVSPropertyOp10
70
1
102
RTVSPropertyOp11
70
1
102
RTVSPropertyOp12
70
1
102
RTVSPropertyOp13
70
1
102
RTVSPropertyOp14
70
1
102
RTVSPropertyOp15
70
1
102
RTVSPropertyOp16
70
1
102
RTVSPropertyOp17
70
1
102
RTVSPropertyOp18
70
1
102
RTVSPropertyOp19
70
1
102
RTVSPropertyOp20
70
1
102
RTVSPropertyOp21
70
1
102
RTVSPropertyOp22
70
1
102
RTVSPropertyOp23
70
1
102
RTVSPropertyOp24
70
1
102
RTVSPropertyOp25
70
1
102
RTVSPropertyOp26
70
1
102
RTVSPropertyOp27
70
1
0
XRECORD
5
1085
102
{ACAD_REACTORS
330
1084
102
}
330
1084
100
AcDbXrecord
280
1
102
RTVSPropertyOp0
70
1
102
RTVSPropertyOp1
70
1
102
RTVSPropertyOp2
70
1
102
RTVSPropertyOp3
70
1
102
RTVSPropertyOp4
70
1
102
RTVSPropertyOp5
70
1
102
RTVSPropertyOp6
70
1
102
RTVSPropertyOp7
70
1
102
RTVSPropertyOp8
70
1
102
RTVSPropertyOp9
70
1
102
RTVSPropertyOp10
70
1
102
RTVSPropertyOp11
70
1
102
RTVSPropertyOp12
70
1
102
RTVSPropertyOp13
70
1
102
RTVSPropertyOp14
70
1
102
RTVSPropertyOp15
70
1
102
RTVSPropertyOp16
70
1
102
RTVSPropertyOp17
70
1
102
RTVSPropertyOp18
70
1
102
RTVSPropertyOp19
70
1
102
RTVSPropertyOp20
70
1
102
RTVSPropertyOp21
70
1
102
RTVSPropertyOp22
70
1
102
RTVSPropertyOp23
70
1
102
RTVSPropertyOp24
70
1
102
RTVSPropertyOp25
70
1
102
RTVSPropertyOp26
70
1
102
RTVSPropertyOp27
70
1
0
XRECORD
5
1087
102
{ACAD_REACTORS
330
1086
102
}
330
1086
100
AcDbXrecord
280
1
102
RTVSPropertyOp0
70
1
102
RTVSPropertyOp1
70
1
102
RTVSPropertyOp2
70
1
102
RTVSPropertyOp3
70
1
102
RTVSPropertyOp4
70
1
102
RTVSPropertyOp5
70
1
102
RTVSPropertyOp6
70
1
102
RTVSPropertyOp7
70
1
102
RTVSPropertyOp8
70
1
102
RTVSPropertyOp9
70
1
102
RTVSPropertyOp10
70
1
102
RTVSPropertyOp11
70
1
102
RTVSPropertyOp12
70
1
102
RTVSPropertyOp13
70
1
102
RTVSPropertyOp14
70
1
102
RTVSPropertyOp15
70
1
102
RTVSPropertyOp16
70
1
102
RTVSPropertyOp17
70
1
102
RTVSPropertyOp18
70
1
102
RTVSPropertyOp19
70
1
102
RTVSPropertyOp20
70
1
102
RTVSPropertyOp21
70
1
102
RTVSPropertyOp22
70
1
102
RTVSPropertyOp23
70
1
102
RTVSPropertyOp24
70
1
102
RTVSPropertyOp25
70
1
102
RTVSPropertyOp26
70
1
102
RTVSPropertyOp27
70
1
0
XRECORD
5
10A1
102
{ACAD_REACTORS
330
10A0
102
}
330
10A0
100
AcDbXrecord
280
1
102
RTVSPropertyOp0
70
0
102
RTVSPropertyOp1
70
0
102
RTVSPropertyOp2
70
0
102
RTVSPropertyOp3
70
0
102
RTVSPropertyOp4
70
0
102
RTVSPropertyOp5
70
0
102
RTVSPropertyOp6
70
0
102
RTVSPropertyOp7
70
0
102
RTVSPropertyOp8
70
0
102
RTVSPropertyOp9
70
0
102
RTVSPropertyOp10
70
0
102
RTVSPropertyOp11
70
0
102
RTVSPropertyOp12
70
0
102
RTVSPropertyOp13
70
0
102
RTVSPropertyOp14
70
2
102
RTVSPropertyOp15
70
0
102
RTVSPropertyOp16
70
0
102
RTVSPropertyOp17
70
0
102
RTVSPropertyOp18
70
0
102
RTVSPropertyOp19
70
0
102
RTVSPropertyOp20
70
0
102
RTVSPropertyOp21
70
0
102
RTVSPropertyOp22
70
0
102
RTVSPropertyOp23
70
0
102
RTVSPropertyOp24
70
0
102
RTVSPropertyOp25
70
0
102
RTVSPropertyOp26
70
0
102
RTVSPropertyOp27
70
0
0
XRECORD
5
109B
102
{ACAD_REACTORS
330
109A
102
}
330
109A
100
AcDbXrecord
280
1
102
RTVSPropertyOp0
70
1
102
RTVSPropertyOp1
70
1
102
RTVSPropertyOp2
70
1
102
RTVSPropertyOp3
70
1
102
RTVSPropertyOp4
70
1
102
RTVSPropertyOp5
70
1
102
RTVSPropertyOp6
70
1
102
RTVSPropertyOp7
70
1
102
RTVSPropertyOp8
70
1
102
RTVSPropertyOp9
70
1
102
RTVSPropertyOp10
70
1
102
RTVSPropertyOp11
70
1
102
RTVSPropertyOp12
70
1
102
RTVSPropertyOp13
70
1
102
RTVSPropertyOp14
70
1
102
RTVSPropertyOp15
70
1
102
RTVSPropertyOp16
70
1
102
RTVSPropertyOp17
70
1
102
RTVSPropertyOp18
70
1
102
RTVSPropertyOp19
70
1
102
RTVSPropertyOp20
70
1
102
RTVSPropertyOp21
70
1
102
RTVSPropertyOp22
70
1
102
RTVSPropertyOp23
70
1
102
RTVSPropertyOp24
70
1
102
RTVSPropertyOp25
70
1
102
RTVSPropertyOp26
70
1
102
RTVSPropertyOp27
70
1
0
XRECORD
5
10A3
102
{ACAD_REACTORS
330
10A2
102
}
330
10A2
100
AcDbXrecord
280
1
102
RTVSPropertyOp0
70
0
102
RTVSPropertyOp1
70
0
102
RTVSPropertyOp2
70
0
102
RTVSPropertyOp3
70
0
102
RTVSPropertyOp4
70
0
102
RTVSPropertyOp5
70
0
102
RTVSPropertyOp6
70
0
102
RTVSPropertyOp7
70
0
102
RTVSPropertyOp8
70
0
102
RTVSPropertyOp9
70
0
102
RTVSPropertyOp10
70
0
102
RTVSPropertyOp11
70
0
102
RTVSPropertyOp12
70
0
102
RTVSPropertyOp13
70
0
102
RTVSPropertyOp14
70
2
102
RTVSPropertyOp15
70
0
102
RTVSPropertyOp16
70
0
102
RTVSPropertyOp17
70
0
102
RTVSPropertyOp18
70
0
102
RTVSPropertyOp19
70
0
102
RTVSPropertyOp20
70
0
102
RTVSPropertyOp21
70
0
102
RTVSPropertyOp22
70
0
102
RTVSPropertyOp23
70
0
102
RTVSPropertyOp24
70
0
102
RTVSPropertyOp25
70
0
102
RTVSPropertyOp26
70
0
102
RTVSPropertyOp27
70
0
0
XRECORD
5
1093
102
{ACAD_REACTORS
330
1092
102
}
330
1092
100
AcDbXrecord
280
1
102
RTVSPropertyOp0
70
1
102
RTVSPropertyOp1
70
1
102
RTVSPropertyOp2
70
1
102
RTVSPropertyOp3
70
1
102
RTVSPropertyOp4
70
1
102
RTVSPropertyOp5
70
1
102
RTVSPropertyOp6
70
1
102
RTVSPropertyOp7
70
1
102
RTVSPropertyOp8
70
1
102
RTVSPropertyOp9
70
1
102
RTVSPropertyOp10
70
1
102
RTVSPropertyOp11
70
1
102
RTVSPropertyOp12
70
1
102
RTVSPropertyOp13
70
1
102
RTVSPropertyOp14
70
1
102
RTVSPropertyOp15
70
1
102
RTVSPropertyOp16
70
1
102
RTVSPropertyOp17
70
1
102
RTVSPropertyOp18
70
1
102
RTVSPropertyOp19
70
1
102
RTVSPropertyOp20
70
1
102
RTVSPropertyOp21
70
1
102
RTVSPropertyOp22
70
1
102
RTVSPropertyOp23
70
1
102
RTVSPropertyOp24
70
1
102
RTVSPropertyOp25
70
1
102
RTVSPropertyOp26
70
1
102
RTVSPropertyOp27
70
1
0
XRECORD
5
1099
102
{ACAD_REACTORS
330
1098
102
}
330
1098
100
AcDbXrecord
280
1
102
RTVSPropertyOp0
70
1
102
RTVSPropertyOp1
70
1
102
RTVSPropertyOp2
70
1
102
RTVSPropertyOp3
70
1
102
RTVSPropertyOp4
70
1
102
RTVSPropertyOp5
70
1
102
RTVSPropertyOp6
70
1
102
RTVSPropertyOp7
70
1
102
RTVSPropertyOp8
70
1
102
RTVSPropertyOp9
70
1
102
RTVSPropertyOp10
70
1
102
RTVSPropertyOp11
70
1
102
RTVSPropertyOp12
70
1
102
RTVSPropertyOp13
70
1
102
RTVSPropertyOp14
70
1
102
RTVSPropertyOp15
70
1
102
RTVSPropertyOp16
70
1
102
RTVSPropertyOp17
70
1
102
RTVSPropertyOp18
70
1
102
RTVSPropertyOp19
70
1
102
RTVSPropertyOp20
70
1
102
RTVSPropertyOp21
70
1
102
RTVSPropertyOp22
70
1
102
RTVSPropertyOp23
70
1
102
RTVSPropertyOp24
70
1
102
RTVSPropertyOp25
70
1
102
RTVSPropertyOp26
70
1
102
RTVSPropertyOp27
70
1
0
ENDSEC
0
EOF
