0
SECTION
2
HEADER
9
$ACADVER
1
AC1015
9
$ACADMAINTVER
70
20
9
$DWGCODEPAGE
3
ANSI_1252
9
$INSBASE
10
0.0
20
0.0
30
0.0
9
$EXTMIN
10
-150.000000000000
20
-105.000000000000
30
0.0
9
$EXTMAX
10
150.000000000000
20
105.000000000000
30
0.0
9
$LIMMIN
10
0.0
20
0.0
9
$LIMMAX
10
12.0
20
9.0
9
$ORTHOMODE
70
0
9
$REGENMODE
70
1
9
$FILLMODE
70
1
9
$QTEXTMODE
70
0
9
$MIRRTEXT
70
1
9
$LTSCALE
40
1.0
9
$ATTMODE
70
1
9
$TEXTSIZE
40
0.2
9
$TRACEWID
40
0.05
9
$TEXTSTYLE
7
Standard
9
$CLAYER
8
0
9
$CELTYPE
6
ByLayer
9
$CECOLOR
62
256
9
$CELTSCALE
40
1.0
9
$DISPSILH
70
0
9
$DIMSCALE
40
1.0
9
$DIMASZ
40
2.5
9
$DIMEXO
40
0.625
9
$DIMDLI
40
0.38
9
$DIMRND
40
0.0
9
$DIMDLE
40
0.0
9
$DIMEXE
40
1.25
9
$DIMTP
40
0.0
9
$DIMTM
40
0.000000001
9
$DIMTXT
40
2.5
9
$DIMCEN
40
0.09
9
$DIMTSZ
40
0.0
9
$DIMTOL
70
1
9
$DIMLIM
70
0
9
$DIMTIH
70
0
9
$DIMTOH
70
0
9
$DIMSE1
70
0
9
$DIMSE2
70
0
9
$DIMTAD
70
1
9
$DIMZIN
70
0
9
$DIMBLK
1
VDDIM_DEFAULT
9
$DIMASO
70
1
9
$DIMSHO
70
1
9
$DIMPOST
1

9
$DIMAPOST
1

9
$DIMALT
70
0
9
$DIMALTD
70
2
9
$DIMALTF
40
25.4
9
$DIMLFAC
40
1.00000000000000
9
$DIMTOFL
70
0
9
$DIMTVP
40
0.0
9
$DIMTIX
70
0
9
$DIMSOXD
70
0
9
$DIMSAH
70
0
9
$DIMBLK1
1

9
$DIMBLK2
1

9
$DIMSTYLE
2
BEM-ISBE
9
$DIMCLRD
70
0
9
$DIMCLRE
70
0
9
$DIMCLRT
70
0
9
$DIMTFAC
40
0.5
9
$DIMGAP
40
0.625
9
$DIMJUST
70
0
9
$DIMSD1
70
0
9
$DIMSD2
70
0
9
$DIMTOLJ
70
1
9
$DIMTZIN
70
0
9
$DIMALTZ
70
0
9
$DIMALTTZ
70
0
9
$DIMUPT
70
0
9
$DIMDEC
70
3
9
$DIMTDEC
70
3
9
$DIMALTU
70
2
9
$DIMALTTD
70
2
9
$DIMTXSTY
7
Standard
9
$DIMAUNIT
70
0
9
$DIMADEC
70
3
9
$DIMALTRND
40
0.0
9
$DIMAZIN
70
0
9
$DIMDSEP
70
46
9
$DIMATFIT
70
3
9
$DIMFRAC
70
0
9
$DIMLDRBLK
1

9
$DIMLUNIT
70
2
9
$DIMLWD
70
-2
9
$DIMLWE
70
-2
9
$DIMTMOVE
70
0
9
$LUNITS
70
2
9
$LUPREC
70
4
9
$SKETCHINC
40
0.1
9
$FILLETRAD
40
0.5
9
$AUNITS
70
0
9
$AUPREC
70
0
9
$MENU
1
.
9
$ELEVATION
40
0.0
9
$PELEVATION
40
0.0
9
$THICKNESS
40
0.0
9
$LIMCHECK
70
0
9
$CHAMFERA
40
0.5
9
$CHAMFERB
40
0.5
9
$CHAMFERC
40
1.0
9
$CHAMFERD
40
0.0
9
$SKPOLY
70
0
9
$TDCREATE
40
0.0
9
$TDUCREATE
40
0.0
9
$TDUPDATE
40
0.0
9
$TDUUPDATE
40
0.0
9
$TDINDWG
40
0.0
9
$TDUSRTIMER
40
0.0
9
$USRTIMER
70
1
9
$ANGBASE
50
0.0
9
$ANGDIR
70
0
9
$PDMODE
70
0
9
$PDSIZE
40
0.0
9
$PLINEWID
40
0.0
9
$SPLFRAME
70
0
9
$SPLINETYPE
70
6
9
$SPLINESEGS
70
8
9
$HANDSEED
5
10AB
9
$SURFTAB1
70
6
9
$SURFTAB2
70
6
9
$SURFTYPE
70
6
9
$SURFU
70
6
9
$SURFV
70
6
9
$UCSBASE
2

9
$UCSNAME
2

9
$UCSORG
10
0.0
20
0.0
30
0.0
9
$UCSXDIR
10
1.0
20
0.0
30
0.0
9
$UCSYDIR
10
0.0
20
1.0
30
0.0
9
$UCSORTHOREF
2

9
$UCSORTHOVIEW
70
0
9
$UCSORGTOP
10
0.0
20
0.0
30
0.0
9
$UCSORGBOTTOM
10
0.0
20
0.0
30
0.0
9
$UCSORGLEFT
10
0.0
20
0.0
30
0.0
9
$UCSORGRIGHT
10
0.0
20
0.0
30
0.0
9
$UCSORGFRONT
10
0.0
20
0.0
30
0.0
9
$UCSORGBACK
10
0.0
20
0.0
30
0.0
9
$PUCSBASE
2

9
$PUCSNAME
2

9
$PUCSORG
10
0.0
20
0.0
30
0.0
9
$PUCSXDIR
10
1.0
20
0.0
30
0.0
9
$PUCSYDIR
10
0.0
20
1.0
30
0.0
9
$PUCSORTHOREF
2

9
$PUCSORTHOVIEW
70
0
9
$PUCSORGTOP
10
0.0
20
0.0
30
0.0
9
$PUCSORGBOTTOM
10
0.0
20
0.0
30
0.0
9
$PUCSORGLEFT
10
0.0
20
0.0
30
0.0
9
$PUCSORGRIGHT
10
0.0
20
0.0
30
0.0
9
$PUCSORGFRONT
10
0.0
20
0.0
30
0.0
9
$PUCSORGBACK
10
0.0
20
0.0
30
0.0
9
$USERI1
70
0
9
$USERI2
70
0
9
$USERI3
70
0
9
$USERI4
70
0
9
$USERI5
70
0
9
$USERR1
40
0.0
9
$USERR2
40
0.0
9
$USERR3
40
0.0
9
$USERR4
40
0.0
9
$USERR5
40
0.0
9
$WORLDVIEW
70
1
9
$SHADEDGE
70
3
9
$SHADEDIF
70
70
9
$TILEMODE
70
1
9
$MAXACTVP
70
64
9
$PINSBASE
10
0.0
20
0.0
30
0.0
9
$PLIMCHECK
70
0
9
$PEXTMIN
10
1.000000000000000E+20
20
1.000000000000000E+20
30
1.000000000000000E+20
9
$PEXTMAX
10
-1.000000000000000E+20
20
-1.000000000000000E+20
30
-1.000000000000000E+20
9
$PLIMMIN
10
0.0
20
0.0
9
$PLIMMAX
10
12.0
20
9.0
9
$UNITMODE
70
0
9
$VISRETAIN
70
1
9
$PLINEGEN
70
0
9
$PSLTSCALE
70
1
9
$TREEDEPTH
70
3020
9
$CMLSTYLE
2
Standard
9
$CMLJUST
70
0
9
$CMLSCALE
40
1.0
9
$PROXYGRAPHICS
70
1
9
$MEASUREMENT
70
0
9
$CELWEIGHT
370
-1
9
$ENDCAPS
280
0
9
$JOINSTYLE
280
0
9
$LWDISPLAY
290
0
9
$INSUNITS
70
4
9
$HYPERLINKBASE
1

9
$STYLESHEET
1

9
$XEDIT
290
1
9
$CEPSNTYPE
380
0
9
$PSTYLEMODE
290
0
9
$FINGERPRINTGUID
2
{FAEB1C30-E019-11D5-929B-00C0DF256EC4}
9
$VERSIONGUID
2
{04C5C4E4-4947-4D90-8812-D401569E61F7}
9
$EXTNAMES
290
1
9
$PSVPSCALE
40
0.0
9
$OLESTARTUP
290
0
0
ENDSEC
0
SECTION
2
CLASSES
0
CLASS
1
ACDBDICTIONARYWDFLT
2
AcDbDictionaryWithDefault
3
ObjectDBX Classes
90
0
280
0
281
0
0
CLASS
1
ACDBPLACEHOLDER
2
AcDbPlaceHolder
3
ObjectDBX Classes
90
0
280
0
281
0
0
CLASS
1
LAYOUT
2
AcDbLayout
3
ObjectDBX Classes
90
0
280
0
281
0
0
CLASS
1
MATERIAL
2
AcDbMaterial
3
ObjectDBX Classes
90
1153
280
0
281
0
0
CLASS
1
VISUALSTYLE
2
AcDbVisualStyle
3
ObjectDBX Classes
90
4095
280
0
281
0
0
CLASS
1
TABLESTYLE
2
AcDbTableStyle
3
ObjectDBX Classes
90
4095
280
0
281
0
0
CLASS
1
SCALE
2
AcDbScale
3
ObjectDBX Classes
90
1153
280
0
281
0
0
CLASS
1
MLEADERSTYLE
2
AcDbMLeaderStyle
3
ACDB_MLEADERSTYLE_CLASS
90
4095
280
0
281
0
0
CLASS
1
DICTIONARYVAR
2
AcDbDictionaryVar
3
ObjectDBX Classes
90
0
280
0
281
0
0
CLASS
1
CELLSTYLEMAP
2
AcDbCellStyleMap
3
ObjectDBX Classes
90
1152
280
0
281
0
0
ENDSEC
0
SECTION
2
TABLES
0
TABLE
2
VPORT
5
24A
330
0
100
AcDbSymbolTable
70
1
0
VPORT
5
26B
330
24A
100
AcDbSymbolTableRecord
100
AcDbViewportTableRecord
2
*Active
70
0
10
0.0
20
0.0
11
1.0
21
1.0
12
0.00000000000000
22
0.00000000000000
13
0.0
23
0.0
14
10.0
24
10.0
15
10.0
25
10.0
16
0.0
26
0.0
36
1.0
17
0.0
27
0.0
37
0.0
40
210.000000000000
41
1.42857142857143
42
1.0
43
0.0
44
0.0
50
0.0
51
0.0000000000007958
71
0
72
100
73
1
74
3
75
0
76
0
77
0
78
1
281
0
65
1
110
0.0
120
0.0
130
0.0
111
1.0
121
0.0
131
0.0
112
0.0
122
1.0
132
0.0
79
0
146
0.0
0
ENDTAB
0
TABLE
2
LTYPE
5
247
330
0
100
AcDbSymbolTable
70
25
0
LTYPE
5
256
330
247
100
AcDbSymbolTableRecord
100
AcDbLinetypeTableRecord
2
ByBlock
70
0
3

72
65
73
0
40
0.0
0
LTYPE
5
257
330
247
100
AcDbSymbolTableRecord
100
AcDbLinetypeTableRecord
2
ByLayer
70
0
3

72
65
73
0
40
0.0
0
LTYPE
5
258
330
247
100
AcDbSymbolTableRecord
100
AcDbLinetypeTableRecord
2
Continuous
70
0
3
Solid line
72
65
73
0
40
0.0
0
LTYPE
5
273
330
247
100
AcDbSymbolTableRecord
100
AcDbLinetypeTableRecord
2
CENTER
70
0
3
Center ____ _ ____ _ ____ _ ____ _ ____ _ ____
72
65
73
4
40
2.0
49
1.25
74
0
49
-0.25
74
0
49
0.25
74
0
49
-0.25
74
0
0
LTYPE
5
274
330
247
100
AcDbSymbolTableRecord
100
AcDbLinetypeTableRecord
2
DASHDOT
70
0
3
Dashdot __ . __ . __ . __ . __ . __ . __ . __
72
65
73
4
40
1.0
49
0.5
74
0
49
-0.25
74
0
49
0.0
74
0
49
-0.25
74
0
0
LTYPE
5
275
330
247
100
AcDbSymbolTableRecord
100
AcDbLinetypeTableRecord
2
DASHED
70
0
3
Dashed __ __ __ __ __ __ __ __ __ __ __ __ __ _
72
65
73
2
40
0.75
49
0.5
74
0
49
-0.25
74
0
0
LTYPE
5
276
330
247
100
AcDbSymbolTableRecord
100
AcDbLinetypeTableRecord
2
HIDDEN
70
0
3
Hidden __ __ __ __ __ __ __ __ __ __ __ __ __ __
72
65
73
2
40
0.375
49
0.25
74
0
49
-0.125
74
0
0
LTYPE
5
277
330
247
100
AcDbSymbolTableRecord
100
AcDbLinetypeTableRecord
2
HIDDEN2
70
0
3
Hidden2 _ _ _ _ _ _ _ _ _ _ _ _ _ _ _ _ _
72
65
73
2
40
0.1875
49
0.125
74
0
49
-0.0625
74
0
0
LTYPE
5
278
330
247
100
AcDbSymbolTableRecord
100
AcDbLinetypeTableRecord
2
BORDER
70
0
3
Border __ __ . __ __ . __ __ . __ __ . __ __ .
72
65
73
6
40
1.75
49
0.5
74
0
49
-0.25
74
0
49
0.5
74
0
49
-0.25
74
0
49
0.0
74
0
49
-0.25
74
0
0
LTYPE
5
279
330
247
100
AcDbSymbolTableRecord
100
AcDbLinetypeTableRecord
2
BORDER2
70
0
3
Border2 __.__.__.__.__.__.__.__.__.__.__.
72
65
73
6
40
0.875
49
0.25
74
0
49
-0.125
74
0
49
0.25
74
0
49
-0.125
74
0
49
0.0
74
0
49
-0.125
74
0
0
LTYPE
5
27A
330
247
100
AcDbSymbolTableRecord
100
AcDbLinetypeTableRecord
2
BORDERX2
70
0
3
Borderx2  ____  ____  .  ____  ____  .  ___
72
65
73
6
40
3.5
49
1.0
74
0
49
-0.5
74
0
49
1.0
74
0
49
-0.5
74
0
49
0.0
74
0
49
-0.5
74
0
0
LTYPE
5
27B
330
247
100
AcDbSymbolTableRecord
100
AcDbLinetypeTableRecord
2
CENTER2
70
0
3
Center2  ___ _ ___ _ ___ _ ___ _ ___ _ ___
72
65
73
4
40
1.125
49
0.75
74
0
49
-0.125
74
0
49
0.125
74
0
49
-0.125
74
0
0
LTYPE
5
27C
330
247
100
AcDbSymbolTableRecord
100
AcDbLinetypeTableRecord
2
CENTERX2
70
0
3
Centerx2  ________  __  ________  __  _____
72
65
73
4
40
4.0
49
2.5
74
0
49
-0.5
74
0
49
0.5
74
0
49
-0.5
74
0
0
LTYPE
5
27D
330
247
100
AcDbSymbolTableRecord
100
AcDbLinetypeTableRecord
2
DASHDOT2
70
0
3
Dashdot2  _._._._._._._._._._._._._._._.
72
65
73
4
40
0.5
49
0.25
74
0
49
-0.125
74
0
49
0.0
74
0
49
-0.125
74
0
0
LTYPE
5
27E
330
247
100
AcDbSymbolTableRecord
100
AcDbLinetypeTableRecord
2
DASHDOTX2
70
0
3
Dashdotx2 ____  .  ____  .  ____  .  ___
72
65
73
4
40
2.0
49
1.0
74
0
49
-0.5
74
0
49
0.0
74
0
49
-0.5
74
0
0
LTYPE
5
27F
330
247
100
AcDbSymbolTableRecord
100
AcDbLinetypeTableRecord
2
DASHED2
70
0
3
Dashed2 _ _ _ _ _ _ _ _ _ _ _ _ _ _ _ _ _
72
65
73
2
40
0.375
49
0.25
74
0
49
-0.125
74
0
0
LTYPE
5
280
330
247
100
AcDbSymbolTableRecord
100
AcDbLinetypeTableRecord
2
DASHEDX2
70
0
3
Dashedx2 ____  ____  ____  ____  ____  ___
72
65
73
2
40
1.5
49
1.0
74
0
49
-0.5
74
0
0
LTYPE
5
281
330
247
100
AcDbSymbolTableRecord
100
AcDbLinetypeTableRecord
2
DIVIDE
70
0
3
Divide ____ . . ____ . . ____ . . ____ . . ____
72
65
73
6
40
1.25
49
0.5
74
0
49
-0.25
74
0
49
0.0
74
0
49
-0.25
74
0
49
0.0
74
0
49
-0.25
74
0
0
LTYPE
5
282
330
247
100
AcDbSymbolTableRecord
100
AcDbLinetypeTableRecord
2
DIVIDE2
70
0
3
Divide2 __..__..__..__..__..__..__..__.._
72
65
73
6
40
0.625
49
0.25
74
0
49
-0.125
74
0
49
0.0
74
0
49
-0.125
74
0
49
0.0
74
0
49
-0.125
74
0
0
LTYPE
5
283
330
247
100
AcDbSymbolTableRecord
100
AcDbLinetypeTableRecord
2
DIVIDEX2
70
0
3
Dividex2 ________  .  .  ________  .  .  _
72
65
73
6
40
2.5
49
1.0
74
0
49
-0.5
74
0
49
0.0
74
0
49
-0.5
74
0
49
0.0
74
0
49
-0.5
74
0
0
LTYPE
5
284
330
247
100
AcDbSymbolTableRecord
100
AcDbLinetypeTableRecord
2
DOT
70
0
3
Dot . . . . . . . . . . . . . . . . . . . . . . . .
72
65
73
2
40
0.25
49
0.0
74
0
49
-0.25
74
0
0
LTYPE
5
285
330
247
100
AcDbSymbolTableRecord
100
AcDbLinetypeTableRecord
2
DOT2
70
0
3
Dot2 ........................................
72
65
73
2
40
0.125
49
0.0
74
0
49
-0.125
74
0
0
LTYPE
5
286
330
247
100
AcDbSymbolTableRecord
100
AcDbLinetypeTableRecord
2
DOTX2
70
0
3
Dotx2 .  .  .  .  .  .  .  .  .  .  .  .  .  .
72
65
73
2
40
0.5
49
0.0
74
0
49
-0.5
74
0
0
LTYPE
5
287
330
247
100
AcDbSymbolTableRecord
100
AcDbLinetypeTableRecord
2
HIDDENX2
70
0
3
Hiddenx2 ____ ____ ____ ____ ____ ____ ____
72
65
73
2
40
0.75
49
0.5
74
0
49
-0.25
74
0
0
LTYPE
5
288
330
247
100
AcDbSymbolTableRecord
100
AcDbLinetypeTableRecord
2
PHANTOM
70
0
3
Phantom ______  __  __  ______  __  __  ______
72
65
73
6
40
2.5
49
1.25
74
0
49
-0.25
74
0
49
0.25
74
0
49
-0.25
74
0
49
0.25
74
0
49
-0.25
74
0
0
LTYPE
5
289
330
247
100
AcDbSymbolTableRecord
100
AcDbLinetypeTableRecord
2
PHANTOM2
70
0
3
Phantom2 ___ _ _ ___ _ _ ___ _ _ ___ _ _
72
65
73
6
40
1.25
49
0.625
74
0
49
-0.125
74
0
49
0.125
74
0
49
-0.125
74
0
49
0.125
74
0
49
-0.125
74
0
0
LTYPE
5
28A
330
247
100
AcDbSymbolTableRecord
100
AcDbLinetypeTableRecord
2
PHANTOMX2
70
0
3
Phantomx2 ____________    ____    ____   _
72
65
73
6
40
5.0
49
2.5
74
0
49
-0.5
74
0
49
0.5
74
0
49
-0.5
74
0
49
0.5
74
0
49
-0.5
74
0
0
ENDTAB
0
TABLE
2
LAYER
5
244
330
0
100
AcDbSymbolTable
70
6
0
LAYER
5
252
330
244
100
AcDbSymbolTableRecord
100
AcDbLayerTableRecord
2
0
70
0
62
7
6
Continuous
370
0
390
251
0
LAYER
5
23F
330
244
100
AcDbSymbolTableRecord
100
AcDbLayerTableRecord
2
Bemassung
70
0
 62
   7
6
Continuous
370
0
390
251
0
LAYER
5
240
330
244
100
AcDbSymbolTableRecord
100
AcDbLayerTableRecord
2
Rahmen
70
0
 62
   7
6
Continuous
370
0
390
251
0
LAYER
5
241
330
244
100
AcDbSymbolTableRecord
100
AcDbLayerTableRecord
2
Geo
70
0
 62
   7
6
Continuous
370
0
390
251
0
LAYER
5
33A
330
244
100
AcDbSymbolTableRecord
100
AcDbLayerTableRecord
2
Defpoints
70
0
62
7
6
Continuous
290
0
370
-3
390
251
0
LAYER
5
57E
330
244
100
AcDbSymbolTableRecord
100
AcDbLayerTableRecord
2
Text
70
0
 62
   7
6
Continuous
370
0
390
251
1001
AcAecLayerStandard
1000

1000

0
ENDTAB
0
TABLE
2
STYLE
5
245
330
0
100
AcDbSymbolTable
70
2
0
STYLE
5
253
330
245
100
AcDbSymbolTableRecord
100
AcDbTextStyleTableRecord
2
Standard
70
0
40
0.0
41
1.0
50
0.0
71
0
42
0.2
3
Arial
4

1001
ACAD
1000
Arial
1071
0
0
STYLE
5
132
330
245
100
AcDbSymbolTableRecord
100
AcDbTextStyleTableRecord
2
Beschriftung
70
0
40
0.0
41
1.0
50
0.0
71
0
42
0.2
3
Arial
4

1001
ACAD
1000
Arial
1071
0
1001
AcadAnnotative
1000
AnnotativeData
1070
1
1070
1
0
ENDTAB
0
TABLE
2
VIEW
5
248
330
0
100
AcDbSymbolTable
70
0
0
ENDTAB
0
TABLE
2
UCS
5
249
330
0
100
AcDbSymbolTable
70
0
0
ENDTAB
0
TABLE
2
APPID
5
24B
330
0
100
AcDbSymbolTable
70
13
0
APPID
5
254
330
24B
100
AcDbSymbolTableRecord
100
AcDbRegAppTableRecord
2
ACAD
70
0
0
APPID
5
26C
330
24B
100
AcDbSymbolTableRecord
100
AcDbRegAppTableRecord
2
VD_INVISIBLE_NOT_FOR_READ
70
0
0
APPID
5
26D
330
24B
100
AcDbSymbolTableRecord
100
AcDbRegAppTableRecord
2
VD_TEMPHATCH
70
0
0
APPID
5
26E
330
24B
100
AcDbSymbolTableRecord
100
AcDbRegAppTableRecord
2
VDEXTRAPARAM
70
0
0
APPID
5
26F
330
24B
100
AcDbSymbolTableRecord
100
AcDbRegAppTableRecord
2
PE_URL
70
0
0
APPID
5
270
330
24B
100
AcDbSymbolTableRecord
100
AcDbRegAppTableRecord
2
VD_UNKNOWN
70
0
0
APPID
5
28F
330
24B
100
AcDbSymbolTableRecord
100
AcDbRegAppTableRecord
2
AcadAnnotative
70
0
0
APPID
5
290
330
24B
100
AcDbSymbolTableRecord
100
AcDbRegAppTableRecord
2
ACAD_DSTYLE_DIMJAG
70
0
0
APPID
5
291
330
24B
100
AcDbSymbolTableRecord
100
AcDbRegAppTableRecord
2
ACAD_DSTYLE_DIMTALN
70
0
0
APPID
5
293
330
24B
100
AcDbSymbolTableRecord
100
AcDbRegAppTableRecord
2
ACAD_PSEXT
70
0
0
APPID
5
42A
330
24B
100
AcDbSymbolTableRecord
100
AcDbRegAppTableRecord
2
ACAD_MLEADERVER
70
0
0
APPID
5
532
330
24B
100
AcDbSymbolTableRecord
100
AcDbRegAppTableRecord
2
ACAD_EXEMPT_FROM_CAD_STANDARDS
70
0
0
APPID
5
57F
330
24B
100
AcDbSymbolTableRecord
100
AcDbRegAppTableRecord
2
AcAecLayerStandard
70
0
0
ENDTAB
0
TABLE
2
DIMSTYLE
5
24C
330
0
100
AcDbSymbolTable
70
3
100
AcDbDimStyleTable
71
2
340
27
340
269
0
DIMSTYLE
105
269
330
24C
100
AcDbSymbolTableRecord
100
AcDbDimStyleTableRecord
2
Standard
70
0
172
1
174
1
288
1
340
253
342
23C
0
DIMSTYLE
105
137
330
24C
100
AcDbSymbolTableRecord
100
AcDbDimStyleTableRecord
2
Beschriftung
70
0
41
2.5
42
0.625
44
1.25
73
0
74
0
77
1
140
2.5
147
0.625
172
1
174
1
271
2
288
1
340
253
342
23C
1001
AcadAnnotative
1000
AnnotativeData
1070
1
1070
1
1001
ACAD_DSTYLE_DIMJAG
1070
388
1040
1.5
1001
ACAD_DSTYLE_DIMTALN
1070
392
1070
0
0
DIMSTYLE
105
27
102
{ACAD_REACTORS
102
}
330
24C
100
AcDbSymbolTableRecord
100
AcDbDimStyleTableRecord
2
BEM-ISBE
70
0
41
2.5
42
0.625
44
1.25
48
0.000000001
71
1
73
0
74
0
77
1
140
2.5
144
1.00000000000000
146
0.5
147
0.625
171
 3
172
 1
179
 3
271
 3
272
 3
274
 3
340
253
342
23C
1001
ACAD_DSTYLE_DIMJAG
1070
388
1040
1.5
1001
ACAD_DSTYLE_DIMTALN
1070
392
1070
1
0
ENDTAB
0
TABLE
2
BLOCK_RECORD
5
243
330
0
100
AcDbSymbolTable
70
5
0
BLOCK_RECORD
5
261
330
243
100
AcDbSymbolTableRecord
100
AcDbBlockTableRecord
2
*Model_Space
340
FD0
0
BLOCK_RECORD
5
25D
330
243
100
AcDbSymbolTableRecord
100
AcDbBlockTableRecord
2
*Paper_Space
340
FD1
0
BLOCK_RECORD
5
265
330
243
100
AcDbSymbolTableRecord
100
AcDbBlockTableRecord
2
*Paper_Space0
340
0
0
BLOCK_RECORD
5
23C
330
243
100
AcDbSymbolTableRecord
100
AcDbBlockTableRecord
2
VDDIM_DEFAULT
340
0
102
{BLKREFS
102
}
0
BLOCK_RECORD
5
23E
330
243
100
AcDbSymbolTableRecord
100
AcDbBlockTableRecord
2
VDDIM_NONE
340
0
0
ENDTAB
0
ENDSEC
0
SECTION
2
BLOCKS
0
BLOCK
5
262
330
261
100
AcDbEntity
8
0
100
AcDbBlockBegin
2
*Model_Space
70
0
10
0.0
20
0.0
30
0.0
3
*Model_Space
1

0
ENDBLK
5
263
330
261
100
AcDbEntity
8
0
100
AcDbBlockEnd
0
BLOCK
5
25E
330
25D
100
AcDbEntity
67
1
8
0
100
AcDbBlockBegin
2
*Paper_Space
70
0
10
0.0
20
0.0
30
0.0
3
*Paper_Space
1

0
ENDBLK
5
25F
330
25D
100
AcDbEntity
67
1
8
0
100
AcDbBlockEnd
0
BLOCK
5
266
330
265
100
AcDbEntity
8
0
100
AcDbBlockBegin
2
*Paper_Space0
70
0
10
0.0
20
0.0
30
0.0
3
*Paper_Space0
1

0
VIEWPORT
5
296
102
{ACAD_XDICTIONARY
360
58E
102
}
330
265
100
AcDbEntity
8
0
60
1
100
AcDbViewport
10
0.0
20
0.0
30
0.0
40
10.0
41
10.0
69
0
12
0.0
22
0.0
13
0.0
23
0.0
14
1.0
24
1.0
15
0.0
25
0.0
16
0.0
26
0.0
36
1.0
17
0.0
27
0.0
37
0.0
42
0.0
43
0.0
44
0.0
45
10.0
50
0.0
51
0.0000000000007958
72
100
90
163872
1

281
0
71
0
74
0
110
0.0
120
0.0
130
0.0
111
1.0
121
0.0
131
0.0
112
0.0
122
1.0
132
0.0
79
0
146
0.0
1001
VD_INVISIBLE_NOT_FOR_READ
1000
VD_INVISIBLE_NOT_FOR_READ
0
VIEWPORT
5
297
102
{ACAD_XDICTIONARY
360
590
102
}
330
265
100
AcDbEntity
8
0
60
1
100
AcDbViewport
10
0.0
20
0.0
30
0.0
40
10.0
41
10.0
69
0
12
0.0
22
0.0
13
0.0
23
0.0
14
1.0
24
1.0
15
0.0
25
0.0
16
0.0
26
0.0
36
1.0
17
0.0
27
0.0
37
0.0
42
0.0
43
0.0
44
0.0
45
10.0
50
0.0
51
0.0000000000007958
72
100
90
163872
1

281
0
71
0
74
0
110
0.0
120
0.0
130
0.0
111
1.0
121
0.0
131
0.0
112
0.0
122
1.0
132
0.0
79
0
146
0.0
1001
VD_INVISIBLE_NOT_FOR_READ
1000
VD_INVISIBLE_NOT_FOR_READ
0
ENDBLK
5
267
330
265
100
AcDbEntity
8
0
100
AcDbBlockEnd
0
BLOCK
5
28B
330
23C
100
AcDbEntity
8
0
100
AcDbBlockBegin
2
VDDIM_DEFAULT
70
0
10
0.0
20
0.0
30
0.0
3
VDDIM_DEFAULT
1

0
LWPOLYLINE
5
23D
330
23C
100
AcDbEntity
8
0
6
Continuous
62
0
100
AcDbPolyline
90
4
70
0
43
0.0
10
0.0
20
0.0
10
-1.0
20
-0.1665
10
-1.0
20
0.1665
10
0.0
20
0.0
1001
VDEXTRAPARAM
1071
1
1071
0
1071
0
1040
1.0
1000

1000

1040
0.0
1040
0.0
0
HATCH
5
292
330
23C
100
AcDbEntity
8
0
6
Continuous
62
0
100
AcDbHatch
10
0.0
20
0.0
30
0.0
210
0.0
220
0.0
230
1.0
2
SOLID
70
1
71
0
91
1
92
2
72
0
73
1
93
3
10
0.0
20
0.0
10
-1.0
20
-0.1665
10
-1.0
20
0.1665
97
0
75
0
76
1
98
1
10
0.0
20
0.0
1001
VDEXTRAPARAM
1071
1
1071
0
1071
0
1040
1.0
1000

1000

1040
0.0
1040
0.0
1001
VD_TEMPHATCH
1000
VD_TEMPHATCH
0
ENDBLK
5
28C
330
23C
100
AcDbEntity
8
0
100
AcDbBlockEnd
0
BLOCK
5
28D
330
23E
100
AcDbEntity
8
0
100
AcDbBlockBegin
2
VDDIM_NONE
70
0
10
0.0
20
0.0
30
0.0
3
VDDIM_NONE
1

0
ENDBLK
5
28E
330
23E
100
AcDbEntity
8
0
100
AcDbBlockEnd
0
ENDSEC
0
SECTION
2
ENTITIES
  0
ARC
  5
F10002
330
F10003
100
AcDbEntity
8
Geo
100
AcDbCircle
10
-86.1545574636723
20
21.6996917657419
30
0.00000000000000
 40
1.50000000000000
100
AcDbArc
 50
90.0000000000000
 51
180.000000000000
  0
LINE
  5
F10004
330
F10005
100
AcDbEntity
8
Geo
100
AcDbLine
10
-86.1545574636723
20
23.1996917657419
30
0.00000000000000
11
-79.6545574636723
21
23.1996917657419
31
0.00000000000000
  0
LINE
  5
F10006
330
F10007
100
AcDbEntity
8
Geo
100
AcDbLine
10
-79.6545574636723
20
23.1996917657419
30
0.00000000000000
11
-79.6536336750257
21
23.1996917657419
31
0.00000000000000
  0
LINE
  5
F10008
330
F10009
100
AcDbEntity
8
Geo
100
AcDbLine
10
-79.6536336750257
20
23.1996917657419
30
0.00000000000000
11
-74.0555574636723
21
24.6996917657419
31
0.00000000000000
  0
LINE
  5
F1000A
330
F1000B
100
AcDbEntity
8
Geo
100
AcDbLine
10
-74.0555574636723
20
24.6996917657419
30
0.00000000000000
11
-28.2545574636723
21
24.6996917657419
31
0.00000000000000
  0
LINE
  5
F1000C
330
F1000D
100
AcDbEntity
8
Geo
100
AcDbLine
10
-28.2545574636723
20
24.6996917657419
30
0.00000000000000
11
-27.6545574636723
21
24.0996917657419
31
0.00000000000000
  0
LINE
  5
F1000E
330
F1000F
100
AcDbEntity
8
Geo
100
AcDbLine
10
-87.4337129772826
20
22.4831208767663
30
0.00000000000000
11
-87.4145574636724
21
22.5117891780400
31
0.00000000000000
  0
LINE
  5
F10010
330
F10011
100
AcDbEntity
8
Geo
100
AcDbLine
10
-87.4145574636724
20
22.5117891780400
30
0.00000000000000
11
-87.3845574636724
21
22.5519460532572
31
0.00000000000000
  0
LINE
  5
F10012
330
F10013
100
AcDbEntity
8
Geo
100
AcDbLine
10
-87.3845574636724
20
22.5519460532572
30
0.00000000000000
11
-87.3545574636724
21
22.5886434830106
31
0.00000000000000
  0
LINE
  5
F10014
330
F10015
100
AcDbEntity
8
Geo
100
AcDbLine
10
-87.3545574636724
20
22.5886434830106
30
0.00000000000000
11
-87.3245574636723
21
22.6228796536276
31
0.00000000000000
  0
LINE
  5
F10016
330
F10017
100
AcDbEntity
8
Geo
100
AcDbLine
10
-87.3245574636723
20
22.6228796536276
30
0.00000000000000
11
-87.2945574636723
21
22.6551466137908
31
0.00000000000000
  0
LINE
  5
F10018
330
F10019
100
AcDbEntity
8
Geo
100
AcDbLine
10
-87.2945574636723
20
22.6551466137908
30
0.00000000000000
11
-87.2645574636723
21
22.6857639859623
31
0.00000000000000
  0
LINE
  5
F1001A
330
F1001B
100
AcDbEntity
8
Geo
100
AcDbLine
10
-87.2645574636723
20
22.6857639859623
30
0.00000000000000
11
-87.2345574636723
21
22.7149235749942
31
0.00000000000000
  0
LINE
  5
F1001C
330
F1001D
100
AcDbEntity
8
Geo
100
AcDbLine
10
-87.2345574636723
20
22.7149235749942
30
0.00000000000000
11
-87.2045574636723
21
22.7427666084431
31
0.00000000000000
  0
LINE
  5
F1001E
330
F1001F
100
AcDbEntity
8
Geo
100
AcDbLine
10
-87.2045574636723
20
22.7427666084431
30
0.00000000000000
11
-87.1745574636723
21
22.7689990593756
31
0.00000000000000
  0
LINE
  5
F10020
330
F10021
100
AcDbEntity
8
Geo
100
AcDbLine
10
-87.1745574636723
20
22.7689990593756
30
0.00000000000000
11
-87.1445574636723
21
22.7934822954123
31
0.00000000000000
  0
LINE
  5
F10022
330
F10023
100
AcDbEntity
8
Geo
100
AcDbLine
10
-87.1445574636723
20
22.7934822954123
30
0.00000000000000
11
-87.1145574636723
21
22.8163234313080
31
0.00000000000000
  0
LINE
  5
F10024
330
F10025
100
AcDbEntity
8
Geo
100
AcDbLine
10
-87.1145574636723
20
22.8163234313080
30
0.00000000000000
11
-87.0845574636724
21
22.8376142922468
31
0.00000000000000
  0
LINE
  5
F10026
330
F10027
100
AcDbEntity
8
Geo
100
AcDbLine
10
-87.0845574636724
20
22.8376142922468
30
0.00000000000000
11
-87.0545574636724
21
22.8574343138321
31
0.00000000000000
  0
LINE
  5
F10028
330
F10029
100
AcDbEntity
8
Geo
100
AcDbLine
10
-87.0545574636724
20
22.8574343138321
30
0.00000000000000
11
-87.0245574636724
21
22.8758527805865
31
0.00000000000000
  0
LINE
  5
F1002A
330
F1002B
100
AcDbEntity
8
Geo
100
AcDbLine
10
-87.0245574636724
20
22.8758527805865
30
0.00000000000000
11
-86.9945574636724
21
22.8929305783646
31
0.00000000000000
  0
LINE
  5
F1002C
330
F1002D
100
AcDbEntity
8
Geo
100
AcDbLine
10
-86.9945574636724
20
22.8929305783646
30
0.00000000000000
11
-86.9645574636723
21
22.9087215836202
31
0.00000000000000
  0
LINE
  5
F1002E
330
F1002F
100
AcDbEntity
8
Geo
100
AcDbLine
10
-86.9645574636723
20
22.9087215836202
30
0.00000000000000
11
-86.9345574636723
21
22.9232737773282
31
0.00000000000000
  0
LINE
  5
F10030
330
F10031
100
AcDbEntity
8
Geo
100
AcDbLine
10
-86.9345574636723
20
22.9232737773282
30
0.00000000000000
11
-86.9045574636723
21
22.9366301473177
31
0.00000000000000
  0
LINE
  5
F10032
330
F10033
100
AcDbEntity
8
Geo
100
AcDbLine
10
-86.9045574636723
20
22.9366301473177
30
0.00000000000000
11
-86.8745574636723
21
22.9488294260271
31
0.00000000000000
  0
LINE
  5
F10034
330
F10035
100
AcDbEntity
8
Geo
100
AcDbLine
10
-86.8745574636723
20
22.9488294260271
30
0.00000000000000
11
-86.8445574636723
21
22.9599066988200
31
0.00000000000000
  0
LINE
  5
F10036
330
F10037
100
AcDbEntity
8
Geo
100
AcDbLine
10
-86.8445574636723
20
22.9599066988200
30
0.00000000000000
11
-86.8145574636723
21
22.9698939094591
31
0.00000000000000
  0
LINE
  5
F10038
330
F10039
100
AcDbEntity
8
Geo
100
AcDbLine
10
-86.8145574636723
20
22.9698939094591
30
0.00000000000000
11
-86.7845574636723
21
22.9788202831060
31
0.00000000000000
  0
LINE
  5
F1003A
330
F1003B
100
AcDbEntity
8
Geo
100
AcDbLine
10
-86.7845574636723
20
22.9788202831060
30
0.00000000000000
11
-86.7545574636723
21
22.9867126826068
31
0.00000000000000
  0
LINE
  5
F1003C
330
F1003D
100
AcDbEntity
8
Geo
100
AcDbLine
10
-86.7545574636723
20
22.9867126826068
30
0.00000000000000
11
-86.7245574636723
21
22.9935959103762
31
0.00000000000000
  0
LINE
  5
F1003E
330
F1003F
100
AcDbEntity
8
Geo
100
AcDbLine
10
-86.7245574636723
20
22.9935959103762
30
0.00000000000000
11
-86.6945574636724
21
22.9994929655921
31
0.00000000000000
  0
LINE
  5
F10040
330
F10041
100
AcDbEntity
8
Geo
100
AcDbLine
10
-86.6945574636724
20
22.9994929655921
30
0.00000000000000
11
-86.6645574636724
21
23.0044252644176
31
0.00000000000000
  0
LINE
  5
F10042
330
F10043
100
AcDbEntity
8
Geo
100
AcDbLine
10
-86.6645574636724
20
23.0044252644176
30
0.00000000000000
11
-86.6345574636724
21
23.0084128294361
31
0.00000000000000
  0
LINE
  5
F10044
330
F10045
100
AcDbEntity
8
Geo
100
AcDbLine
10
-86.6345574636724
20
23.0084128294361
30
0.00000000000000
11
-86.6045574636724
21
23.0114744532895
31
0.00000000000000
  0
LINE
  5
F10046
330
F10047
100
AcDbEntity
8
Geo
100
AcDbLine
10
-86.6045574636724
20
23.0114744532895
30
0.00000000000000
11
-86.5745574636723
21
23.0136278405738
31
0.00000000000000
  0
LINE
  5
F10048
330
F10049
100
AcDbEntity
8
Geo
100
AcDbLine
10
-86.5745574636723
20
23.0136278405738
30
0.00000000000000
11
-86.5445574636723
21
23.0148897313035
31
0.00000000000000
  0
LINE
  5
F1004A
330
F1004B
100
AcDbEntity
8
Geo
100
AcDbLine
10
-86.5445574636723
20
23.0148897313035
30
0.00000000000000
11
-86.5145574636723
21
23.0152760086708
31
0.00000000000000
  0
LINE
  5
F1004C
330
F1004D
100
AcDbEntity
8
Geo
100
AcDbLine
10
-86.5145574636723
20
23.0152760086708
30
0.00000000000000
11
-86.4845574636723
21
23.0148017933462
31
0.00000000000000
  0
LINE
  5
F1004E
330
F1004F
100
AcDbEntity
8
Geo
100
AcDbLine
10
-86.4845574636723
20
23.0148017933462
30
0.00000000000000
11
-86.4545574636723
21
23.0134815261913
31
0.00000000000000
  0
LINE
  5
F10050
330
F10051
100
AcDbEntity
8
Geo
100
AcDbLine
10
-86.4545574636723
20
23.0134815261913
30
0.00000000000000
11
-86.4245574636723
21
23.0113290409389
31
0.00000000000000
  0
LINE
  5
F10052
330
F10053
100
AcDbEntity
8
Geo
100
AcDbLine
10
-86.4245574636723
20
23.0113290409389
30
0.00000000000000
11
-86.3945574636723
21
23.0083576281441
31
0.00000000000000
  0
LINE
  5
F10054
330
F10055
100
AcDbEntity
8
Geo
100
AcDbLine
10
-86.3945574636723
20
23.0083576281441
30
0.00000000000000
11
-86.3645574636723
21
23.0045800915001
31
0.00000000000000
  0
LINE
  5
F10056
330
F10057
100
AcDbEntity
8
Geo
100
AcDbLine
10
-86.3645574636723
20
23.0045800915001
30
0.00000000000000
11
-86.3345574636723
21
23.0000087974386
31
0.00000000000000
  0
LINE
  5
F10058
330
F10059
100
AcDbEntity
8
Geo
100
AcDbLine
10
-86.3345574636723
20
23.0000087974386
30
0.00000000000000
11
-86.3045574636724
21
22.9946557187904
31
0.00000000000000
  0
LINE
  5
F1005A
330
F1005B
100
AcDbEntity
8
Geo
100
AcDbLine
10
-86.3045574636724
20
22.9946557187904
30
0.00000000000000
11
-86.2745574636724
21
22.9885324731606
31
0.00000000000000
  0
LINE
  5
F1005C
330
F1005D
100
AcDbEntity
8
Geo
100
AcDbLine
10
-86.2745574636724
20
22.9885324731606
30
0.00000000000000
11
-86.2445574636724
21
22.9816503565681
31
0.00000000000000
  0
LINE
  5
F1005E
330
F1005F
100
AcDbEntity
8
Geo
100
AcDbLine
10
-86.2445574636724
20
22.9816503565681
30
0.00000000000000
11
-86.2145574636723
21
22.9740203728143
31
0.00000000000000
  0
LINE
  5
F10060
330
F10061
100
AcDbEntity
8
Geo
100
AcDbLine
10
-86.2145574636723
20
22.9740203728143
30
0.00000000000000
11
-86.1845574636723
21
22.9656532589677
31
0.00000000000000
  0
LINE
  5
F10062
330
F10063
100
AcDbEntity
8
Geo
100
AcDbLine
10
-86.1845574636723
20
22.9656532589677
30
0.00000000000000
11
-86.1545574636723
21
22.9565595072844
31
0.00000000000000
  0
LINE
  5
F10064
330
F10065
100
AcDbEntity
8
Geo
100
AcDbLine
10
-86.1545574636723
20
22.9565595072844
30
0.00000000000000
11
-86.1245574636723
21
22.9470222965552
31
0.00000000000000
  0
LINE
  5
F10066
330
F10067
100
AcDbEntity
8
Geo
100
AcDbLine
10
-86.1245574636723
20
22.9470222965552
30
0.00000000000000
11
-86.0945574636723
21
22.9373187769365
31
0.00000000000000
  0
LINE
  5
F10068
330
F10069
100
AcDbEntity
8
Geo
100
AcDbLine
10
-86.0945574636723
20
22.9373187769365
30
0.00000000000000
11
-86.0645574636723
21
22.9274502422164
31
0.00000000000000
  0
LINE
  5
F1006A
330
F1006B
100
AcDbEntity
8
Geo
100
AcDbLine
10
-86.0645574636723
20
22.9274502422164
30
0.00000000000000
11
-86.0345574636723
21
22.9174180081851
31
0.00000000000000
  0
LINE
  5
F1006C
330
F1006D
100
AcDbEntity
8
Geo
100
AcDbLine
10
-86.0345574636723
20
22.9174180081851
30
0.00000000000000
11
-86.0045574636723
21
22.9072234124588
31
0.00000000000000
  0
LINE
  5
F1006E
330
F1006F
100
AcDbEntity
8
Geo
100
AcDbLine
10
-86.0045574636723
20
22.9072234124588
30
0.00000000000000
11
-85.9745574636723
21
22.8968678143018
31
0.00000000000000
  0
LINE
  5
F10070
330
F10071
100
AcDbEntity
8
Geo
100
AcDbLine
10
-85.9745574636723
20
22.8968678143018
30
0.00000000000000
11
-85.9445574636723
21
22.8863525944453
31
0.00000000000000
  0
LINE
  5
F10072
330
F10073
100
AcDbEntity
8
Geo
100
AcDbLine
10
-85.9445574636723
20
22.8863525944453
30
0.00000000000000
11
-85.9145574636724
21
22.8756791549030
31
0.00000000000000
  0
LINE
  5
F10074
330
F10075
100
AcDbEntity
8
Geo
100
AcDbLine
10
-85.9145574636724
20
22.8756791549030
30
0.00000000000000
11
-85.8845574636724
21
22.8648489187843
31
0.00000000000000
  0
LINE
  5
F10076
330
F10077
100
AcDbEntity
8
Geo
100
AcDbLine
10
-85.8845574636724
20
22.8648489187843
30
0.00000000000000
11
-85.8545574636724
21
22.8538633301047
31
0.00000000000000
  0
LINE
  5
F10078
330
F10079
100
AcDbEntity
8
Geo
100
AcDbLine
10
-85.8545574636724
20
22.8538633301047
30
0.00000000000000
11
-85.8245574636723
21
22.8427238535931
31
0.00000000000000
  0
LINE
  5
F1007A
330
F1007B
100
AcDbEntity
8
Geo
100
AcDbLine
10
-85.8245574636723
20
22.8427238535931
30
0.00000000000000
11
-85.7945574636723
21
22.8314319744964
31
0.00000000000000
  0
LINE
  5
F1007C
330
F1007D
100
AcDbEntity
8
Geo
100
AcDbLine
10
-85.7945574636723
20
22.8314319744964
30
0.00000000000000
11
-85.7645574636723
21
22.8199891983819
31
0.00000000000000
  0
LINE
  5
F1007E
330
F1007F
100
AcDbEntity
8
Geo
100
AcDbLine
10
-85.7645574636723
20
22.8199891983819
30
0.00000000000000
11
-85.7345574636723
21
22.8083970509361
31
0.00000000000000
  0
LINE
  5
F10080
330
F10081
100
AcDbEntity
8
Geo
100
AcDbLine
10
-85.7345574636723
20
22.8083970509361
30
0.00000000000000
11
-85.7045574636723
21
22.7966570777614
31
0.00000000000000
  0
LINE
  5
F10082
330
F10083
100
AcDbEntity
8
Geo
100
AcDbLine
10
-85.7045574636723
20
22.7966570777614
30
0.00000000000000
11
-85.6745574636723
21
22.7847708441702
31
0.00000000000000
  0
LINE
  5
F10084
330
F10085
100
AcDbEntity
8
Geo
100
AcDbLine
10
-85.6745574636723
20
22.7847708441702
30
0.00000000000000
11
-85.6445574636723
21
22.7727399349762
31
0.00000000000000
  0
LINE
  5
F10086
330
F10087
100
AcDbEntity
8
Geo
100
AcDbLine
10
-85.6445574636723
20
22.7727399349762
30
0.00000000000000
11
-85.6145574636723
21
22.7605659542825
31
0.00000000000000
  0
LINE
  5
F10088
330
F10089
100
AcDbEntity
8
Geo
100
AcDbLine
10
-85.6145574636723
20
22.7605659542825
30
0.00000000000000
11
-85.5845574636723
21
22.7482505252688
31
0.00000000000000
  0
LINE
  5
F1008A
330
F1008B
100
AcDbEntity
8
Geo
100
AcDbLine
10
-85.5845574636723
20
22.7482505252688
30
0.00000000000000
11
-85.5545574636724
21
22.7357952899738
31
0.00000000000000
  0
LINE
  5
F1008C
330
F1008D
100
AcDbEntity
8
Geo
100
AcDbLine
10
-85.5545574636724
20
22.7357952899738
30
0.00000000000000
11
-85.5245574636724
21
22.7232019090772
31
0.00000000000000
  0
LINE
  5
F1008E
330
F1008F
100
AcDbEntity
8
Geo
100
AcDbLine
10
-85.5245574636724
20
22.7232019090772
30
0.00000000000000
11
-85.4945574636724
21
22.7104720616779
31
0.00000000000000
  0
LINE
  5
F10090
330
F10091
100
AcDbEntity
8
Geo
100
AcDbLine
10
-85.4945574636724
20
22.7104720616779
30
0.00000000000000
11
-85.4645574636723
21
22.6976074450698
31
0.00000000000000
  0
LINE
  5
F10092
330
F10093
100
AcDbEntity
8
Geo
100
AcDbLine
10
-85.4645574636723
20
22.6976074450698
30
0.00000000000000
11
-85.4345574636723
21
22.6846097745162
31
0.00000000000000
  0
LINE
  5
F10094
330
F10095
100
AcDbEntity
8
Geo
100
AcDbLine
10
-85.4345574636723
20
22.6846097745162
30
0.00000000000000
11
-85.4045574636723
21
22.6714807830206
31
0.00000000000000
  0
LINE
  5
F10096
330
F10097
100
AcDbEntity
8
Geo
100
AcDbLine
10
-85.4045574636723
20
22.6714807830206
30
0.00000000000000
11
-85.3745574636723
21
22.6582222210957
31
0.00000000000000
  0
LINE
  5
F10098
330
F10099
100
AcDbEntity
8
Geo
100
AcDbLine
10
-85.3745574636723
20
22.6582222210957
30
0.00000000000000
11
-85.3445574636723
21
22.6448358565301
31
0.00000000000000
  0
LINE
  5
F1009A
330
F1009B
100
AcDbEntity
8
Geo
100
AcDbLine
10
-85.3445574636723
20
22.6448358565301
30
0.00000000000000
11
-85.3145574636723
21
22.6313234741527
31
0.00000000000000
  0
LINE
  5
F1009C
330
F1009D
100
AcDbEntity
8
Geo
100
AcDbLine
10
-85.3145574636723
20
22.6313234741527
30
0.00000000000000
11
-85.2845574636723
21
22.6176868755943
31
0.00000000000000
  0
LINE
  5
F1009E
330
F1009F
100
AcDbEntity
8
Geo
100
AcDbLine
10
-85.2845574636723
20
22.6176868755943
30
0.00000000000000
11
-85.2545574636723
21
22.6039278790479
31
0.00000000000000
  0
LINE
  5
F100A0
330
F100A1
100
AcDbEntity
8
Geo
100
AcDbLine
10
-85.2545574636723
20
22.6039278790479
30
0.00000000000000
11
-85.2245574636724
21
22.5900483190259
31
0.00000000000000
  0
LINE
  5
F100A2
330
F100A3
100
AcDbEntity
8
Geo
100
AcDbLine
10
-85.2245574636724
20
22.5900483190259
30
0.00000000000000
11
-85.1945574636724
21
22.5760500461160
31
0.00000000000000
  0
LINE
  5
F100A4
330
F100A5
100
AcDbEntity
8
Geo
100
AcDbLine
10
-85.1945574636724
20
22.5760500461160
30
0.00000000000000
11
-85.1645574636724
21
22.5619349267336
31
0.00000000000000
  0
LINE
  5
F100A6
330
F100A7
100
AcDbEntity
8
Geo
100
AcDbLine
10
-85.1645574636724
20
22.5619349267336
30
0.00000000000000
11
-85.1345574636724
21
22.5477048428738
31
0.00000000000000
  0
LINE
  5
F100A8
330
F100A9
100
AcDbEntity
8
Geo
100
AcDbLine
10
-85.1345574636724
20
22.5477048428738
30
0.00000000000000
11
-85.1045574636724
21
22.5333616918600
31
0.00000000000000
  0
LINE
  5
F100AA
330
F100AB
100
AcDbEntity
8
Geo
100
AcDbLine
10
-85.1045574636724
20
22.5333616918600
30
0.00000000000000
11
-85.0745574636723
21
22.5189073860912
31
0.00000000000000
  0
LINE
  5
F100AC
330
F100AD
100
AcDbEntity
8
Geo
100
AcDbLine
10
-85.0745574636723
20
22.5189073860912
30
0.00000000000000
11
-85.0445574636723
21
22.5043438527866
31
0.00000000000000
  0
LINE
  5
F100AE
330
F100AF
100
AcDbEntity
8
Geo
100
AcDbLine
10
-85.0445574636723
20
22.5043438527866
30
0.00000000000000
11
-85.0145574636723
21
22.4896730337291
31
0.00000000000000
  0
LINE
  5
F100B0
330
F100B1
100
AcDbEntity
8
Geo
100
AcDbLine
10
-85.0145574636723
20
22.4896730337291
30
0.00000000000000
11
-84.9845574636723
21
22.4748968850063
31
0.00000000000000
  0
LINE
  5
F100B2
330
F100B3
100
AcDbEntity
8
Geo
100
AcDbLine
10
-84.9845574636723
20
22.4748968850063
30
0.00000000000000
11
-84.9545574636723
21
22.4600173767493
31
0.00000000000000
  0
LINE
  5
F100B4
330
F100B5
100
AcDbEntity
8
Geo
100
AcDbLine
10
-84.9545574636723
20
22.4600173767493
30
0.00000000000000
11
-84.9245574636724
21
22.4450364928706
31
0.00000000000000
  0
LINE
  5
F100B6
330
F100B7
100
AcDbEntity
8
Geo
100
AcDbLine
10
-84.9245574636724
20
22.4450364928706
30
0.00000000000000
11
-84.8945574636724
21
22.4299562307992
31
0.00000000000000
  0
LINE
  5
F100B8
330
F100B9
100
AcDbEntity
8
Geo
100
AcDbLine
10
-84.8945574636724
20
22.4299562307992
30
0.00000000000000
11
-84.8645574636724
21
22.4147786012143
31
0.00000000000000
  0
LINE
  5
F100BA
330
F100BB
100
AcDbEntity
8
Geo
100
AcDbLine
10
-84.8645574636724
20
22.4147786012143
30
0.00000000000000
11
-84.8345574636724
21
22.3995056277773
31
0.00000000000000
  0
LINE
  5
F100BC
330
F100BD
100
AcDbEntity
8
Geo
100
AcDbLine
10
-84.8345574636724
20
22.3995056277773
30
0.00000000000000
11
-84.8045574636724
21
22.3841393468622
31
0.00000000000000
  0
LINE
  5
F100BE
330
F100BF
100
AcDbEntity
8
Geo
100
AcDbLine
10
-84.8045574636724
20
22.3841393468622
30
0.00000000000000
11
-84.7745574636724
21
22.3686818072836
31
0.00000000000000
  0
LINE
  5
F100C0
330
F100C1
100
AcDbEntity
8
Geo
100
AcDbLine
10
-84.7745574636724
20
22.3686818072836
30
0.00000000000000
11
-84.7445574636724
21
22.3531350700239
31
0.00000000000000
  0
LINE
  5
F100C2
330
F100C3
100
AcDbEntity
8
Geo
100
AcDbLine
10
-84.7445574636724
20
22.3531350700239
30
0.00000000000000
11
-84.7145574636723
21
22.3375012079584
31
0.00000000000000
  0
LINE
  5
F100C4
330
F100C5
100
AcDbEntity
8
Geo
100
AcDbLine
10
-84.7145574636723
20
22.3375012079584
30
0.00000000000000
11
-84.6845574636723
21
22.3217823055788
31
0.00000000000000
  0
LINE
  5
F100C6
330
F100C7
100
AcDbEntity
8
Geo
100
AcDbLine
10
-84.6845574636723
20
22.3217823055788
30
0.00000000000000
11
-84.6545574636723
21
22.3059804587154
31
0.00000000000000
  0
LINE
  5
F100C8
330
F100C9
100
AcDbEntity
8
Geo
100
AcDbLine
10
-84.6545574636723
20
22.3059804587154
30
0.00000000000000
11
-84.6245574636723
21
22.2900977742579
31
0.00000000000000
  0
LINE
  5
F100CA
330
F100CB
100
AcDbEntity
8
Geo
100
AcDbLine
10
-84.6245574636723
20
22.2900977742579
30
0.00000000000000
11
-84.5945574636724
21
22.2741363698739
31
0.00000000000000
  0
LINE
  5
F100CC
330
F100CD
100
AcDbEntity
8
Geo
100
AcDbLine
10
-84.5945574636724
20
22.2741363698739
30
0.00000000000000
11
-84.5645574636724
21
22.2580983737271
31
0.00000000000000
  0
LINE
  5
F100CE
330
F100CF
100
AcDbEntity
8
Geo
100
AcDbLine
10
-84.5645574636724
20
22.2580983737271
30
0.00000000000000
11
-84.5345574636724
21
22.2419859241931
31
0.00000000000000
  0
LINE
  5
F100D0
330
F100D1
100
AcDbEntity
8
Geo
100
AcDbLine
10
-84.5345574636724
20
22.2419859241931
30
0.00000000000000
11
-84.5045574636724
21
22.2258011695748
31
0.00000000000000
  0
LINE
  5
F100D2
330
F100D3
100
AcDbEntity
8
Geo
100
AcDbLine
10
-84.5045574636724
20
22.2258011695748
30
0.00000000000000
11
-84.4745574636724
21
22.2095462678153
31
0.00000000000000
  0
LINE
  5
F100D4
330
F100D5
100
AcDbEntity
8
Geo
100
AcDbLine
10
-84.4745574636724
20
22.2095462678153
30
0.00000000000000
11
-84.4445574636724
21
22.1932233862109
31
0.00000000000000
  0
LINE
  5
F100D6
330
F100D7
100
AcDbEntity
8
Geo
100
AcDbLine
10
-84.4445574636724
20
22.1932233862109
30
0.00000000000000
11
-84.4145574636724
21
22.1768347011216
31
0.00000000000000
  0
LINE
  5
F100D8
330
F100D9
100
AcDbEntity
8
Geo
100
AcDbLine
10
-84.4145574636724
20
22.1768347011216
30
0.00000000000000
11
-84.3845574636724
21
22.1603823976811
31
0.00000000000000
  0
LINE
  5
F100DA
330
F100DB
100
AcDbEntity
8
Geo
100
AcDbLine
10
-84.3845574636724
20
22.1603823976811
30
0.00000000000000
11
-84.3545574636724
21
22.1438686695055
31
0.00000000000000
  0
LINE
  5
F100DC
330
F100DD
100
AcDbEntity
8
Geo
100
AcDbLine
10
-84.3545574636724
20
22.1438686695055
30
0.00000000000000
11
-84.3245574636723
21
22.1272957184008
31
0.00000000000000
  0
LINE
  5
F100DE
330
F100DF
100
AcDbEntity
8
Geo
100
AcDbLine
10
-84.3245574636723
20
22.1272957184008
30
0.00000000000000
11
-84.2945574636723
21
22.1106657540692
31
0.00000000000000
  0
LINE
  5
F100E0
330
F100E1
100
AcDbEntity
8
Geo
100
AcDbLine
10
-84.2945574636723
20
22.1106657540692
30
0.00000000000000
11
-84.2645574636724
21
22.0939809938147
31
0.00000000000000
  0
LINE
  5
F100E2
330
F100E3
100
AcDbEntity
8
Geo
100
AcDbLine
10
-84.2645574636724
20
22.0939809938147
30
0.00000000000000
11
-84.2345574636724
21
22.0772436622473
31
0.00000000000000
  0
LINE
  5
F100E4
330
F100E5
100
AcDbEntity
8
Geo
100
AcDbLine
10
-84.2345574636724
20
22.0772436622473
30
0.00000000000000
11
-84.2045574636724
21
22.0604559909863
31
0.00000000000000
  0
LINE
  5
F100E6
330
F100E7
100
AcDbEntity
8
Geo
100
AcDbLine
10
-84.2045574636724
20
22.0604559909863
30
0.00000000000000
11
-84.1745574636724
21
22.0436202183631
31
0.00000000000000
  0
LINE
  5
F100E8
330
F100E9
100
AcDbEntity
8
Geo
100
AcDbLine
10
-84.1745574636724
20
22.0436202183631
30
0.00000000000000
11
-84.1445574636724
21
22.0267385891223
31
0.00000000000000
  0
LINE
  5
F100EA
330
F100EB
100
AcDbEntity
8
Geo
100
AcDbLine
10
-84.1445574636724
20
22.0267385891223
30
0.00000000000000
11
-84.1145574636724
21
22.0098133541230
31
0.00000000000000
  0
LINE
  5
F100EC
330
F100ED
100
AcDbEntity
8
Geo
100
AcDbLine
10
-84.1145574636724
20
22.0098133541230
30
0.00000000000000
11
-84.0845574636724
21
21.9928467700380
31
0.00000000000000
  0
LINE
  5
F100EE
330
F100EF
100
AcDbEntity
8
Geo
100
AcDbLine
10
-84.0845574636724
20
21.9928467700380
30
0.00000000000000
11
-84.0545574636724
21
21.9758410990534
31
0.00000000000000
  0
LINE
  5
F100F0
330
F100F1
100
AcDbEntity
8
Geo
100
AcDbLine
10
-84.0545574636724
20
21.9758410990534
30
0.00000000000000
11
-84.0245574636724
21
21.9587986085668
31
0.00000000000000
  0
LINE
  5
F100F2
330
F100F3
100
AcDbEntity
8
Geo
100
AcDbLine
10
-84.0245574636724
20
21.9587986085668
30
0.00000000000000
11
-83.9945574636724
21
21.9417215708850
31
0.00000000000000
  0
LINE
  5
F100F4
330
F100F5
100
AcDbEntity
8
Geo
100
AcDbLine
10
-83.9945574636724
20
21.9417215708850
30
0.00000000000000
11
-83.9645574636723
21
21.9246122629211
31
0.00000000000000
  0
LINE
  5
F100F6
330
F100F7
100
AcDbEntity
8
Geo
100
AcDbLine
10
-83.9645574636723
20
21.9246122629211
30
0.00000000000000
11
-83.9345574636724
21
21.9074729658908
31
0.00000000000000
  0
LINE
  5
F100F8
330
F100F9
100
AcDbEntity
8
Geo
100
AcDbLine
10
-83.9345574636724
20
21.9074729658908
30
0.00000000000000
11
-83.9045574636724
21
21.8903059650082
31
0.00000000000000
  0
LINE
  5
F100FA
330
F100FB
100
AcDbEntity
8
Geo
100
AcDbLine
10
-83.9045574636724
20
21.8903059650082
30
0.00000000000000
11
-83.8745574636724
21
21.8731135491815
31
0.00000000000000
  0
LINE
  5
F100FC
330
F100FD
100
AcDbEntity
8
Geo
100
AcDbLine
10
-83.8745574636724
20
21.8731135491815
30
0.00000000000000
11
-83.8445574636724
21
21.8558980107073
31
0.00000000000000
  0
LINE
  5
F100FE
330
F100FF
100
AcDbEntity
8
Geo
100
AcDbLine
10
-83.8445574636724
20
21.8558980107073
30
0.00000000000000
11
-83.8145574636724
21
21.8386616449652
31
0.00000000000000
  0
LINE
  5
F10100
330
F10101
100
AcDbEntity
8
Geo
100
AcDbLine
10
-83.8145574636724
20
21.8386616449652
30
0.00000000000000
11
-83.7845574636724
21
21.8214067501117
31
0.00000000000000
  0
LINE
  5
F10102
330
F10103
100
AcDbEntity
8
Geo
100
AcDbLine
10
-83.7845574636724
20
21.8214067501117
30
0.00000000000000
11
-83.7545574636724
21
21.8041356267739
31
0.00000000000000
  0
LINE
  5
F10104
330
F10105
100
AcDbEntity
8
Geo
100
AcDbLine
10
-83.7545574636724
20
21.8041356267739
30
0.00000000000000
11
-83.7245574636724
21
21.7868505777427
31
0.00000000000000
  0
LINE
  5
F10106
330
F10107
100
AcDbEntity
8
Geo
100
AcDbLine
10
-83.7245574636724
20
21.7868505777427
30
0.00000000000000
11
-83.6945574636724
21
21.7695539076657
31
0.00000000000000
  0
LINE
  5
F10108
330
F10109
100
AcDbEntity
8
Geo
100
AcDbLine
10
-83.6945574636724
20
21.7695539076657
30
0.00000000000000
11
-83.6645574636724
21
21.7522479227400
31
0.00000000000000
  0
LINE
  5
F1010A
330
F1010B
100
AcDbEntity
8
Geo
100
AcDbLine
10
-83.6645574636724
20
21.7522479227400
30
0.00000000000000
11
-83.6345574636724
21
21.7349349304045
31
0.00000000000000
  0
LINE
  5
F1010C
330
F1010D
100
AcDbEntity
8
Geo
100
AcDbLine
10
-83.6345574636724
20
21.7349349304045
30
0.00000000000000
11
-83.6045574636724
21
21.7176172390326
31
0.00000000000000
  0
LINE
  5
F1010E
330
F1010F
100
AcDbEntity
8
Geo
100
AcDbLine
10
-83.6045574636724
20
21.7176172390326
30
0.00000000000000
11
-83.5745574636724
21
21.7002971576242
31
0.00000000000000
  0
LINE
  5
F10110
330
F10111
100
AcDbEntity
8
Geo
100
AcDbLine
10
-83.5745574636724
20
21.7002971576242
30
0.00000000000000
11
-83.5445574636724
21
21.6829769954977
31
0.00000000000000
  0
LINE
  5
F10112
330
F10113
100
AcDbEntity
8
Geo
100
AcDbLine
10
-83.5445574636724
20
21.6829769954977
30
0.00000000000000
11
-83.5145574636724
21
21.6656590619825
31
0.00000000000000
  0
LINE
  5
F10114
330
F10115
100
AcDbEntity
8
Geo
100
AcDbLine
10
-83.5145574636724
20
21.6656590619825
30
0.00000000000000
11
-83.4845574636724
21
21.6483456661107
31
0.00000000000000
  0
LINE
  5
F10116
330
F10117
100
AcDbEntity
8
Geo
100
AcDbLine
10
-83.4845574636724
20
21.6483456661107
30
0.00000000000000
11
-83.4545574636724
21
21.6310391163095
31
0.00000000000000
  0
LINE
  5
F10118
330
F10119
100
AcDbEntity
8
Geo
100
AcDbLine
10
-83.4545574636724
20
21.6310391163095
30
0.00000000000000
11
-83.4245574636724
21
21.6137417200932
31
0.00000000000000
  0
LINE
  5
F1011A
330
F1011B
100
AcDbEntity
8
Geo
100
AcDbLine
10
-83.4245574636724
20
21.6137417200932
30
0.00000000000000
11
-83.3945574636724
21
21.5964557837556
31
0.00000000000000
  0
LINE
  5
F1011C
330
F1011D
100
AcDbEntity
8
Geo
100
AcDbLine
10
-83.3945574636724
20
21.5964557837556
30
0.00000000000000
11
-83.3645574636724
21
21.5791836120627
31
0.00000000000000
  0
LINE
  5
F1011E
330
F1011F
100
AcDbEntity
8
Geo
100
AcDbLine
10
-83.3645574636724
20
21.5791836120627
30
0.00000000000000
11
-83.3345574636724
21
21.5619275079450
31
0.00000000000000
  0
LINE
  5
F10120
330
F10121
100
AcDbEntity
8
Geo
100
AcDbLine
10
-83.3345574636724
20
21.5619275079450
30
0.00000000000000
11
-83.3045574636724
21
21.5446897721910
31
0.00000000000000
  0
LINE
  5
F10122
330
F10123
100
AcDbEntity
8
Geo
100
AcDbLine
10
-83.3045574636724
20
21.5446897721910
30
0.00000000000000
11
-83.2745574636724
21
21.5274727031398
31
0.00000000000000
  0
LINE
  5
F10124
330
F10125
100
AcDbEntity
8
Geo
100
AcDbLine
10
-83.2745574636724
20
21.5274727031398
30
0.00000000000000
11
-83.2445574636724
21
21.5102785963752
31
0.00000000000000
  0
LINE
  5
F10126
330
F10127
100
AcDbEntity
8
Geo
100
AcDbLine
10
-83.2445574636724
20
21.5102785963752
30
0.00000000000000
11
-83.2145574636723
21
21.4931097444192
31
0.00000000000000
  0
LINE
  5
F10128
330
F10129
100
AcDbEntity
8
Geo
100
AcDbLine
10
-83.2145574636723
20
21.4931097444192
30
0.00000000000000
11
-83.1845574636723
21
21.4759684364266
31
0.00000000000000
  0
LINE
  5
F1012A
330
F1012B
100
AcDbEntity
8
Geo
100
AcDbLine
10
-83.1845574636723
20
21.4759684364266
30
0.00000000000000
11
-83.1545574636723
21
21.4588569578799
31
0.00000000000000
  0
LINE
  5
F1012C
330
F1012D
100
AcDbEntity
8
Geo
100
AcDbLine
10
-83.1545574636723
20
21.4588569578799
30
0.00000000000000
11
-83.1245574636724
21
21.4417775902841
31
0.00000000000000
  0
LINE
  5
F1012E
330
F1012F
100
AcDbEntity
8
Geo
100
AcDbLine
10
-83.1245574636724
20
21.4417775902841
30
0.00000000000000
11
-83.0945574636724
21
21.4247326108629
31
0.00000000000000
  0
LINE
  5
F10130
330
F10131
100
AcDbEntity
8
Geo
100
AcDbLine
10
-83.0945574636724
20
21.4247326108629
30
0.00000000000000
11
-83.0645574636724
21
21.4077242922550
31
0.00000000000000
  0
LINE
  5
F10132
330
F10133
100
AcDbEntity
8
Geo
100
AcDbLine
10
-83.0645574636724
20
21.4077242922550
30
0.00000000000000
11
-83.0345574636724
21
21.3907549022111
31
0.00000000000000
  0
LINE
  5
F10134
330
F10135
100
AcDbEntity
8
Geo
100
AcDbLine
10
-83.0345574636724
20
21.3907549022111
30
0.00000000000000
11
-83.0045574636724
21
21.3738267032913
31
0.00000000000000
  0
LINE
  5
F10136
330
F10137
100
AcDbEntity
8
Geo
100
AcDbLine
10
-83.0045574636724
20
21.3738267032913
30
0.00000000000000
11
-82.9745574636724
21
21.3569419525637
31
0.00000000000000
  0
LINE
  5
F10138
330
F10139
100
AcDbEntity
8
Geo
100
AcDbLine
10
-82.9745574636724
20
21.3569419525637
30
0.00000000000000
11
-82.9445574636724
21
21.3401029013034
31
0.00000000000000
  0
LINE
  5
F1013A
330
F1013B
100
AcDbEntity
8
Geo
100
AcDbLine
10
-82.9445574636724
20
21.3401029013034
30
0.00000000000000
11
-82.9145574636724
21
21.3233117946923
31
0.00000000000000
  0
LINE
  5
F1013C
330
F1013D
100
AcDbEntity
8
Geo
100
AcDbLine
10
-82.9145574636724
20
21.3233117946923
30
0.00000000000000
11
-82.8845574636724
21
21.3065708715198
31
0.00000000000000
  0
LINE
  5
F1013E
330
F1013F
100
AcDbEntity
8
Geo
100
AcDbLine
10
-82.8845574636724
20
21.3065708715198
30
0.00000000000000
11
-82.8545574636724
21
21.2898823638841
31
0.00000000000000
  0
LINE
  5
F10140
330
F10141
100
AcDbEntity
8
Geo
100
AcDbLine
10
-82.8545574636724
20
21.2898823638841
30
0.00000000000000
11
-82.8245574636723
21
21.2732484968948
31
0.00000000000000
  0
LINE
  5
F10142
330
F10143
100
AcDbEntity
8
Geo
100
AcDbLine
10
-82.8245574636723
20
21.2732484968948
30
0.00000000000000
11
-82.7945574636723
21
21.2566714883763
31
0.00000000000000
  0
LINE
  5
F10144
330
F10145
100
AcDbEntity
8
Geo
100
AcDbLine
10
-82.7945574636723
20
21.2566714883763
30
0.00000000000000
11
-82.7645574636723
21
21.2401535485718
31
0.00000000000000
  0
LINE
  5
F10146
330
F10147
100
AcDbEntity
8
Geo
100
AcDbLine
10
-82.7645574636723
20
21.2401535485718
30
0.00000000000000
11
-82.7345574636723
21
21.2236968798488
31
0.00000000000000
  0
LINE
  5
F10148
330
F10149
100
AcDbEntity
8
Geo
100
AcDbLine
10
-82.7345574636723
20
21.2236968798488
30
0.00000000000000
11
-82.7045574636723
21
21.2073036764054
31
0.00000000000000
  0
LINE
  5
F1014A
330
F1014B
100
AcDbEntity
8
Geo
100
AcDbLine
10
-82.7045574636723
20
21.2073036764054
30
0.00000000000000
11
-82.6745574636724
21
21.1909761239778
31
0.00000000000000
  0
LINE
  5
F1014C
330
F1014D
100
AcDbEntity
8
Geo
100
AcDbLine
10
-82.6745574636724
20
21.1909761239778
30
0.00000000000000
11
-82.6445574636724
21
21.1747163995488
31
0.00000000000000
  0
LINE
  5
F1014E
330
F1014F
100
AcDbEntity
8
Geo
100
AcDbLine
10
-82.6445574636724
20
21.1747163995488
30
0.00000000000000
11
-82.6145574636724
21
21.1585266710575
31
0.00000000000000
  0
LINE
  5
F10150
330
F10151
100
AcDbEntity
8
Geo
100
AcDbLine
10
-82.6145574636724
20
21.1585266710575
30
0.00000000000000
11
-82.5845574636724
21
21.1424090971104
31
0.00000000000000
  0
LINE
  5
F10152
330
F10153
100
AcDbEntity
8
Geo
100
AcDbLine
10
-82.5845574636724
20
21.1424090971104
30
0.00000000000000
11
-82.5545574636724
21
21.1263658266936
31
0.00000000000000
  0
LINE
  5
F10154
330
F10155
100
AcDbEntity
8
Geo
100
AcDbLine
10
-82.5545574636724
20
21.1263658266936
30
0.00000000000000
11
-82.5245574636724
21
21.1103989988860
31
0.00000000000000
  0
LINE
  5
F10156
330
F10157
100
AcDbEntity
8
Geo
100
AcDbLine
10
-82.5245574636724
20
21.1103989988860
30
0.00000000000000
11
-82.4945574636724
21
21.0945107425742
31
0.00000000000000
  0
LINE
  5
F10158
330
F10159
100
AcDbEntity
8
Geo
100
AcDbLine
10
-82.4945574636724
20
21.0945107425742
30
0.00000000000000
11
-82.4645574636723
21
21.0787031761690
31
0.00000000000000
  0
LINE
  5
F1015A
330
F1015B
100
AcDbEntity
8
Geo
100
AcDbLine
10
-82.4645574636723
20
21.0787031761690
30
0.00000000000000
11
-82.4345574636723
21
21.0629784073224
31
0.00000000000000
  0
LINE
  5
F1015C
330
F1015D
100
AcDbEntity
8
Geo
100
AcDbLine
10
-82.4345574636723
20
21.0629784073224
30
0.00000000000000
11
-82.4045574636723
21
21.0473385326470
31
0.00000000000000
  0
LINE
  5
F1015E
330
F1015F
100
AcDbEntity
8
Geo
100
AcDbLine
10
-82.4045574636723
20
21.0473385326470
30
0.00000000000000
11
-82.3745574636723
21
21.0317856374362
31
0.00000000000000
  0
LINE
  5
F10160
330
F10161
100
AcDbEntity
8
Geo
100
AcDbLine
10
-82.3745574636723
20
21.0317856374362
30
0.00000000000000
11
-82.3445574636723
21
21.0163217953863
31
0.00000000000000
  0
LINE
  5
F10162
330
F10163
100
AcDbEntity
8
Geo
100
AcDbLine
10
-82.3445574636723
20
21.0163217953863
30
0.00000000000000
11
-82.3145574636723
21
21.0009490683202
31
0.00000000000000
  0
LINE
  5
F10164
330
F10165
100
AcDbEntity
8
Geo
100
AcDbLine
10
-82.3145574636723
20
21.0009490683202
30
0.00000000000000
11
-82.2845574636723
21
20.9856695059118
31
0.00000000000000
  0
LINE
  5
F10166
330
F10167
100
AcDbEntity
8
Geo
100
AcDbLine
10
-82.2845574636723
20
20.9856695059118
30
0.00000000000000
11
-82.2545574636723
21
20.9704851454136
31
0.00000000000000
  0
LINE
  5
F10168
330
F10169
100
AcDbEntity
8
Geo
100
AcDbLine
10
-82.2545574636723
20
20.9704851454136
30
0.00000000000000
11
-82.2245574636723
21
20.9553980113845
31
0.00000000000000
  0
LINE
  5
F1016A
330
F1016B
100
AcDbEntity
8
Geo
100
AcDbLine
10
-82.2245574636723
20
20.9553980113845
30
0.00000000000000
11
-82.1945574636723
21
20.9404101154200
31
0.00000000000000
  0
LINE
  5
F1016C
330
F1016D
100
AcDbEntity
8
Geo
100
AcDbLine
10
-82.1945574636723
20
20.9404101154200
30
0.00000000000000
11
-82.1645574636724
21
20.9255234558840
31
0.00000000000000
  0
LINE
  5
F1016E
330
F1016F
100
AcDbEntity
8
Geo
100
AcDbLine
10
-82.1645574636724
20
20.9255234558840
30
0.00000000000000
11
-82.1345574636724
21
20.9107400176424
31
0.00000000000000
  0
LINE
  5
F10170
330
F10171
100
AcDbEntity
8
Geo
100
AcDbLine
10
-82.1345574636724
20
20.9107400176424
30
0.00000000000000
11
-82.1045574636724
21
20.8960617717984
31
0.00000000000000
  0
LINE
  5
F10172
330
F10173
100
AcDbEntity
8
Geo
100
AcDbLine
10
-82.1045574636724
20
20.8960617717984
30
0.00000000000000
11
-82.0745574636723
21
20.8814906754297
31
0.00000000000000
  0
LINE
  5
F10174
330
F10175
100
AcDbEntity
8
Geo
100
AcDbLine
10
-82.0745574636723
20
20.8814906754297
30
0.00000000000000
11
-82.0445574636723
21
20.8670286713276
31
0.00000000000000
  0
LINE
  5
F10176
330
F10177
100
AcDbEntity
8
Geo
100
AcDbLine
10
-82.0445574636723
20
20.8670286713276
30
0.00000000000000
11
-82.0145574636723
21
20.8526776877378
31
0.00000000000000
  0
LINE
  5
F10178
330
F10179
100
AcDbEntity
8
Geo
100
AcDbLine
10
-82.0145574636723
20
20.8526776877378
30
0.00000000000000
11
-81.9845574636723
21
20.8384396381036
31
0.00000000000000
  0
LINE
  5
F1017A
330
F1017B
100
AcDbEntity
8
Geo
100
AcDbLine
10
-81.9845574636723
20
20.8384396381036
30
0.00000000000000
11
-81.9545574636723
21
20.8243164208105
31
0.00000000000000
  0
LINE
  5
F1017C
330
F1017D
100
AcDbEntity
8
Geo
100
AcDbLine
10
-81.9545574636723
20
20.8243164208105
30
0.00000000000000
11
-81.9245574636723
21
20.8103099189332
31
0.00000000000000
  0
LINE
  5
F1017E
330
F1017F
100
AcDbEntity
8
Geo
100
AcDbLine
10
-81.9245574636723
20
20.8103099189332
30
0.00000000000000
11
-81.8945574636723
21
20.7964219999846
31
0.00000000000000
  0
LINE
  5
F10180
330
F10181
100
AcDbEntity
8
Geo
100
AcDbLine
10
-81.8945574636723
20
20.7964219999846
30
0.00000000000000
11
-81.8645574636723
21
20.7826545156665
31
0.00000000000000
  0
LINE
  5
F10182
330
F10183
100
AcDbEntity
8
Geo
100
AcDbLine
10
-81.8645574636723
20
20.7826545156665
30
0.00000000000000
11
-81.8345574636723
21
20.7690093016232
31
0.00000000000000
  0
LINE
  5
F10184
330
F10185
100
AcDbEntity
8
Geo
100
AcDbLine
10
-81.8345574636723
20
20.7690093016232
30
0.00000000000000
11
-81.8045574636723
21
20.7554881771964
31
0.00000000000000
  0
LINE
  5
F10186
330
F10187
100
AcDbEntity
8
Geo
100
AcDbLine
10
-81.8045574636723
20
20.7554881771964
30
0.00000000000000
11
-81.7745574636723
21
20.7420929451825
31
0.00000000000000
  0
LINE
  5
F10188
330
F10189
100
AcDbEntity
8
Geo
100
AcDbLine
10
-81.7745574636723
20
20.7420929451825
30
0.00000000000000
11
-81.7445574636723
21
20.7288253915927
31
0.00000000000000
  0
LINE
  5
F1018A
330
F1018B
100
AcDbEntity
8
Geo
100
AcDbLine
10
-81.7445574636723
20
20.7288253915927
30
0.00000000000000
11
-81.7145574636723
21
20.7156872854145
31
0.00000000000000
  0
LINE
  5
F1018C
330
F1018D
100
AcDbEntity
8
Geo
100
AcDbLine
10
-81.7145574636723
20
20.7156872854145
30
0.00000000000000
11
-81.6845574636723
21
20.7026803783759
31
0.00000000000000
  0
LINE
  5
F1018E
330
F1018F
100
AcDbEntity
8
Geo
100
AcDbLine
10
-81.6845574636723
20
20.7026803783759
30
0.00000000000000
11
-81.6545574636723
21
20.6898064047119
31
0.00000000000000
  0
LINE
  5
F10190
330
F10191
100
AcDbEntity
8
Geo
100
AcDbLine
10
-81.6545574636723
20
20.6898064047119
30
0.00000000000000
11
-81.6245574636723
21
20.6770670809333
31
0.00000000000000
  0
LINE
  5
F10192
330
F10193
100
AcDbEntity
8
Geo
100
AcDbLine
10
-81.6245574636723
20
20.6770670809333
30
0.00000000000000
11
-81.5945574636723
21
20.6644641055976
31
0.00000000000000
  0
LINE
  5
F10194
330
F10195
100
AcDbEntity
8
Geo
100
AcDbLine
10
-81.5945574636723
20
20.6644641055976
30
0.00000000000000
11
-81.5645574636723
21
20.6519991590830
31
0.00000000000000
  0
LINE
  5
F10196
330
F10197
100
AcDbEntity
8
Geo
100
AcDbLine
10
-81.5645574636723
20
20.6519991590830
30
0.00000000000000
11
-81.5345574636723
21
20.6396739033638
31
0.00000000000000
  0
LINE
  5
F10198
330
F10199
100
AcDbEntity
8
Geo
100
AcDbLine
10
-81.5345574636723
20
20.6396739033638
30
0.00000000000000
11
-81.5045574636723
21
20.6274899817891
31
0.00000000000000
  0
LINE
  5
F1019A
330
F1019B
100
AcDbEntity
8
Geo
100
AcDbLine
10
-81.5045574636723
20
20.6274899817891
30
0.00000000000000
11
-81.4745574636723
21
20.6154490188639
31
0.00000000000000
  0
LINE
  5
F1019C
330
F1019D
100
AcDbEntity
8
Geo
100
AcDbLine
10
-81.4745574636723
20
20.6154490188639
30
0.00000000000000
11
-81.4445574636723
21
20.6035526200320
31
0.00000000000000
  0
LINE
  5
F1019E
330
F1019F
100
AcDbEntity
8
Geo
100
AcDbLine
10
-81.4445574636723
20
20.6035526200320
30
0.00000000000000
11
-81.4145574636723
21
20.5918023714623
31
0.00000000000000
  0
LINE
  5
F101A0
330
F101A1
100
AcDbEntity
8
Geo
100
AcDbLine
10
-81.4145574636723
20
20.5918023714623
30
0.00000000000000
11
-81.3845574636723
21
20.5801998398372
31
0.00000000000000
  0
LINE
  5
F101A2
330
F101A3
100
AcDbEntity
8
Geo
100
AcDbLine
10
-81.3845574636723
20
20.5801998398372
30
0.00000000000000
11
-81.3545574636723
21
20.5687465721437
31
0.00000000000000
  0
LINE
  5
F101A4
330
F101A5
100
AcDbEntity
8
Geo
100
AcDbLine
10
-81.3545574636723
20
20.5687465721437
30
0.00000000000000
11
-81.3245574636723
21
20.5574440954672
31
0.00000000000000
  0
LINE
  5
F101A6
330
F101A7
100
AcDbEntity
8
Geo
100
AcDbLine
10
-81.3245574636723
20
20.5574440954672
30
0.00000000000000
11
-81.2945574636723
21
20.5462939167879
31
0.00000000000000
  0
LINE
  5
F101A8
330
F101A9
100
AcDbEntity
8
Geo
100
AcDbLine
10
-81.2945574636723
20
20.5462939167879
30
0.00000000000000
11
-81.2645574636723
21
20.5352975227797
31
0.00000000000000
  0
LINE
  5
F101AA
330
F101AB
100
AcDbEntity
8
Geo
100
AcDbLine
10
-81.2645574636723
20
20.5352975227797
30
0.00000000000000
11
-81.2345574636723
21
20.5244563796122
31
0.00000000000000
  0
LINE
  5
F101AC
330
F101AD
100
AcDbEntity
8
Geo
100
AcDbLine
10
-81.2345574636723
20
20.5244563796122
30
0.00000000000000
11
-81.2045574636723
21
20.5137719327551
31
0.00000000000000
  0
LINE
  5
F101AE
330
F101AF
100
AcDbEntity
8
Geo
100
AcDbLine
10
-81.2045574636723
20
20.5137719327551
30
0.00000000000000
11
-81.1745574636723
21
20.5032456067855
31
0.00000000000000
  0
LINE
  5
F101B0
330
F101B1
100
AcDbEntity
8
Geo
100
AcDbLine
10
-81.1745574636723
20
20.5032456067855
30
0.00000000000000
11
-81.1445574636723
21
20.4928788051980
31
0.00000000000000
  0
LINE
  5
F101B2
330
F101B3
100
AcDbEntity
8
Geo
100
AcDbLine
10
-81.1445574636723
20
20.4928788051980
30
0.00000000000000
11
-81.1145574636723
21
20.4826729102173
31
0.00000000000000
  0
LINE
  5
F101B4
330
F101B5
100
AcDbEntity
8
Geo
100
AcDbLine
10
-81.1145574636723
20
20.4826729102173
30
0.00000000000000
11
-81.0845574636723
21
20.4726292826143
31
0.00000000000000
  0
LINE
  5
F101B6
330
F101B7
100
AcDbEntity
8
Geo
100
AcDbLine
10
-81.0845574636723
20
20.4726292826143
30
0.00000000000000
11
-81.0545574636723
21
20.4627492615246
31
0.00000000000000
  0
LINE
  5
F101B8
330
F101B9
100
AcDbEntity
8
Geo
100
AcDbLine
10
-81.0545574636723
20
20.4627492615246
30
0.00000000000000
11
-81.0245574636723
21
20.4530341642696
31
0.00000000000000
  0
LINE
  5
F101BA
330
F101BB
100
AcDbEntity
8
Geo
100
AcDbLine
10
-81.0245574636723
20
20.4530341642696
30
0.00000000000000
11
-80.9945574636723
21
20.4434852861813
31
0.00000000000000
  0
LINE
  5
F101BC
330
F101BD
100
AcDbEntity
8
Geo
100
AcDbLine
10
-80.9945574636723
20
20.4434852861813
30
0.00000000000000
11
-80.9645574636723
21
20.4341039004291
31
0.00000000000000
  0
LINE
  5
F101BE
330
F101BF
100
AcDbEntity
8
Geo
100
AcDbLine
10
-80.9645574636723
20
20.4341039004291
30
0.00000000000000
11
-80.9345574636723
21
20.4248912578508
31
0.00000000000000
  0
LINE
  5
F101C0
330
F101C1
100
AcDbEntity
8
Geo
100
AcDbLine
10
-80.9345574636723
20
20.4248912578508
30
0.00000000000000
11
-80.9045574636723
21
20.4158485867849
31
0.00000000000000
  0
LINE
  5
F101C2
330
F101C3
100
AcDbEntity
8
Geo
100
AcDbLine
10
-80.9045574636723
20
20.4158485867849
30
0.00000000000000
11
-80.8745574636723
21
20.4069770929076
31
0.00000000000000
  0
LINE
  5
F101C4
330
F101C5
100
AcDbEntity
8
Geo
100
AcDbLine
10
-80.8745574636723
20
20.4069770929076
30
0.00000000000000
11
-80.8445574636723
21
20.3982779590715
31
0.00000000000000
  0
LINE
  5
F101C6
330
F101C7
100
AcDbEntity
8
Geo
100
AcDbLine
10
-80.8445574636723
20
20.3982779590715
30
0.00000000000000
11
-80.8145574636723
21
20.3897523451483
31
0.00000000000000
  0
LINE
  5
F101C8
330
F101C9
100
AcDbEntity
8
Geo
100
AcDbLine
10
-80.8145574636723
20
20.3897523451483
30
0.00000000000000
11
-80.7845574636723
21
20.3814013878739
31
0.00000000000000
  0
LINE
  5
F101CA
330
F101CB
100
AcDbEntity
8
Geo
100
AcDbLine
10
-80.7845574636723
20
20.3814013878739
30
0.00000000000000
11
-80.7545574636723
21
20.3732262006968
31
0.00000000000000
  0
LINE
  5
F101CC
330
F101CD
100
AcDbEntity
8
Geo
100
AcDbLine
10
-80.7545574636723
20
20.3732262006968
30
0.00000000000000
11
-80.7245574636723
21
20.3652278736300
31
0.00000000000000
  0
LINE
  5
F101CE
330
F101CF
100
AcDbEntity
8
Geo
100
AcDbLine
10
-80.7245574636723
20
20.3652278736300
30
0.00000000000000
11
-80.6945574636723
21
20.3574074731051
31
0.00000000000000
  0
LINE
  5
F101D0
330
F101D1
100
AcDbEntity
8
Geo
100
AcDbLine
10
-80.6945574636723
20
20.3574074731051
30
0.00000000000000
11
-80.6645574636723
21
20.3497660418307
31
0.00000000000000
  0
LINE
  5
F101D2
330
F101D3
100
AcDbEntity
8
Geo
100
AcDbLine
10
-80.6645574636723
20
20.3497660418307
30
0.00000000000000
11
-80.6345574636723
21
20.3423045986529
31
0.00000000000000
  0
LINE
  5
F101D4
330
F101D5
100
AcDbEntity
8
Geo
100
AcDbLine
10
-80.6345574636723
20
20.3423045986529
30
0.00000000000000
11
-80.6045574636723
21
20.3350241384198
31
0.00000000000000
  0
LINE
  5
F101D6
330
F101D7
100
AcDbEntity
8
Geo
100
AcDbLine
10
-80.6045574636723
20
20.3350241384198
30
0.00000000000000
11
-80.5745574636723
21
20.3279256318486
31
0.00000000000000
  0
LINE
  5
F101D8
330
F101D9
100
AcDbEntity
8
Geo
100
AcDbLine
10
-80.5745574636723
20
20.3279256318486
30
0.00000000000000
11
-80.5445574636723
21
20.3210100253964
31
0.00000000000000
  0
LINE
  5
F101DA
330
F101DB
100
AcDbEntity
8
Geo
100
AcDbLine
10
-80.5445574636723
20
20.3210100253964
30
0.00000000000000
11
-80.5145574636723
21
20.3142782411337
31
0.00000000000000
  0
LINE
  5
F101DC
330
F101DD
100
AcDbEntity
8
Geo
100
AcDbLine
10
-80.5145574636723
20
20.3142782411337
30
0.00000000000000
11
-80.4845574636723
21
20.3077311766219
31
0.00000000000000
  0
LINE
  5
F101DE
330
F101DF
100
AcDbEntity
8
Geo
100
AcDbLine
10
-80.4845574636723
20
20.3077311766219
30
0.00000000000000
11
-80.4545574636723
21
20.3013697047931
31
0.00000000000000
  0
LINE
  5
F101E0
330
F101E1
100
AcDbEntity
8
Geo
100
AcDbLine
10
-80.4545574636723
20
20.3013697047931
30
0.00000000000000
11
-80.4245574636723
21
20.2951946738342
31
0.00000000000000
  0
LINE
  5
F101E2
330
F101E3
100
AcDbEntity
8
Geo
100
AcDbLine
10
-80.4245574636723
20
20.2951946738342
30
0.00000000000000
11
-80.3945574636723
21
20.2892069070735
31
0.00000000000000
  0
LINE
  5
F101E4
330
F101E5
100
AcDbEntity
8
Geo
100
AcDbLine
10
-80.3945574636723
20
20.2892069070735
30
0.00000000000000
11
-80.3645574636723
21
20.2834072028710
31
0.00000000000000
  0
LINE
  5
F101E6
330
F101E7
100
AcDbEntity
8
Geo
100
AcDbLine
10
-80.3645574636723
20
20.2834072028710
30
0.00000000000000
11
-80.3345574636723
21
20.2777963345121
31
0.00000000000000
  0
LINE
  5
F101E8
330
F101E9
100
AcDbEntity
8
Geo
100
AcDbLine
10
-80.3345574636723
20
20.2777963345121
30
0.00000000000000
11
-80.3045574636723
21
20.2723750501041
31
0.00000000000000
  0
LINE
  5
F101EA
330
F101EB
100
AcDbEntity
8
Geo
100
AcDbLine
10
-80.3045574636723
20
20.2723750501041
30
0.00000000000000
11
-80.2745574636723
21
20.2671440724770
31
0.00000000000000
  0
LINE
  5
F101EC
330
F101ED
100
AcDbEntity
8
Geo
100
AcDbLine
10
-80.2745574636723
20
20.2671440724770
30
0.00000000000000
11
-80.2445574636723
21
20.2621040990868
31
0.00000000000000
  0
LINE
  5
F101EE
330
F101EF
100
AcDbEntity
8
Geo
100
AcDbLine
10
-80.2445574636723
20
20.2621040990868
30
0.00000000000000
11
-80.2145574636723
21
20.2572558019223
31
0.00000000000000
  0
LINE
  5
F101F0
330
F101F1
100
AcDbEntity
8
Geo
100
AcDbLine
10
-80.2145574636723
20
20.2572558019223
30
0.00000000000000
11
-80.1845574636723
21
20.2525998274161
31
0.00000000000000
  0
LINE
  5
F101F2
330
F101F3
100
AcDbEntity
8
Geo
100
AcDbLine
10
-80.1845574636723
20
20.2525998274161
30
0.00000000000000
11
-80.1545574636723
21
20.2481367963578
31
0.00000000000000
  0
LINE
  5
F101F4
330
F101F5
100
AcDbEntity
8
Geo
100
AcDbLine
10
-80.1545574636723
20
20.2481367963578
30
0.00000000000000
11
-80.1245574636723
21
20.2438673038117
31
0.00000000000000
  0
LINE
  5
F101F6
330
F101F7
100
AcDbEntity
8
Geo
100
AcDbLine
10
-80.1245574636723
20
20.2438673038117
30
0.00000000000000
11
-80.0945574636723
21
20.2397919190371
31
0.00000000000000
  0
LINE
  5
F101F8
330
F101F9
100
AcDbEntity
8
Geo
100
AcDbLine
10
-80.0945574636723
20
20.2397919190371
30
0.00000000000000
11
-80.0645574636723
21
20.2359111854126
31
0.00000000000000
  0
LINE
  5
F101FA
330
F101FB
100
AcDbEntity
8
Geo
100
AcDbLine
10
-80.0645574636723
20
20.2359111854126
30
0.00000000000000
11
-80.0345574636723
21
20.2322256203635
31
0.00000000000000
  0
LINE
  5
F101FC
330
F101FD
100
AcDbEntity
8
Geo
100
AcDbLine
10
-80.0345574636723
20
20.2322256203635
30
0.00000000000000
11
-80.0045574636723
21
20.2287357152932
31
0.00000000000000
  0
LINE
  5
F101FE
330
F101FF
100
AcDbEntity
8
Geo
100
AcDbLine
10
-80.0045574636723
20
20.2287357152932
30
0.00000000000000
11
-79.9745574636723
21
20.2254419355170
31
0.00000000000000
  0
LINE
  5
F10200
330
F10201
100
AcDbEntity
8
Geo
100
AcDbLine
10
-79.9745574636723
20
20.2254419355170
30
0.00000000000000
11
-79.9445574636723
21
20.2223447202008
31
0.00000000000000
  0
LINE
  5
F10202
330
F10203
100
AcDbEntity
8
Geo
100
AcDbLine
10
-79.9445574636723
20
20.2223447202008
30
0.00000000000000
11
-79.9145574636723
21
20.2194444823021
31
0.00000000000000
  0
LINE
  5
F10204
330
F10205
100
AcDbEntity
8
Geo
100
AcDbLine
10
-79.9145574636723
20
20.2194444823021
30
0.00000000000000
11
-79.8845574636723
21
20.2167416085148
31
0.00000000000000
  0
LINE
  5
F10206
330
F10207
100
AcDbEntity
8
Geo
100
AcDbLine
10
-79.8845574636723
20
20.2167416085148
30
0.00000000000000
11
-79.8545574636723
21
20.2142364592183
31
0.00000000000000
  0
LINE
  5
F10208
330
F10209
100
AcDbEntity
8
Geo
100
AcDbLine
10
-79.8545574636723
20
20.2142364592183
30
0.00000000000000
11
-79.8245574636723
21
20.2119293684286
31
0.00000000000000
  0
LINE
  5
F1020A
330
F1020B
100
AcDbEntity
8
Geo
100
AcDbLine
10
-79.8245574636723
20
20.2119293684286
30
0.00000000000000
11
-79.7945574636723
21
20.2098206437544
31
0.00000000000000
  0
LINE
  5
F1020C
330
F1020D
100
AcDbEntity
8
Geo
100
AcDbLine
10
-79.7945574636723
20
20.2098206437544
30
0.00000000000000
11
-79.7645574636723
21
20.2079105663560
31
0.00000000000000
  0
LINE
  5
F1020E
330
F1020F
100
AcDbEntity
8
Geo
100
AcDbLine
10
-79.7645574636723
20
20.2079105663560
30
0.00000000000000
11
-79.7345574636723
21
20.2061993909075
31
0.00000000000000
  0
LINE
  5
F10210
330
F10211
100
AcDbEntity
8
Geo
100
AcDbLine
10
-79.7345574636723
20
20.2061993909075
30
0.00000000000000
11
-79.7045574636723
21
20.2046873455630
31
0.00000000000000
  0
LINE
  5
F10212
330
F10213
100
AcDbEntity
8
Geo
100
AcDbLine
10
-79.7045574636723
20
20.2046873455630
30
0.00000000000000
11
-79.6745574636723
21
20.2033746319265
31
0.00000000000000
  0
LINE
  5
F10214
330
F10215
100
AcDbEntity
8
Geo
100
AcDbLine
10
-87.4445574636724
20
21.9221663853726
30
0.00000000000000
11
-87.4445574636724
21
20.9348576318549
31
0.00000000000000
  0
LINE
  5
F10216
330
F10217
100
AcDbEntity
8
Geo
100
AcDbLine
10
-87.4445574636724
20
20.9348576318549
30
0.00000000000000
11
-87.4337129772826
21
20.9162626547176
31
0.00000000000000
  0
LINE
  5
F10218
330
F10219
100
AcDbEntity
8
Geo
100
AcDbLine
10
-80.3993600676749
20
23.1996917657419
30
0.00000000000000
11
-80.3945574636723
21
23.1996892030293
31
0.00000000000000
  0
LINE
  5
F1021A
330
F1021B
100
AcDbEntity
8
Geo
100
AcDbLine
10
-80.3945574636723
20
23.1996892030293
30
0.00000000000000
11
-80.3645574636723
21
23.1995571880873
31
0.00000000000000
  0
LINE
  5
F1021C
330
F1021D
100
AcDbEntity
8
Geo
100
AcDbLine
10
-80.3645574636723
20
23.1995571880873
30
0.00000000000000
11
-80.3345574636723
21
23.1992251933109
31
0.00000000000000
  0
LINE
  5
F1021E
330
F1021F
100
AcDbEntity
8
Geo
100
AcDbLine
10
-80.3345574636723
20
23.1992251933109
30
0.00000000000000
11
-80.3045574636723
21
23.1986932629657
31
0.00000000000000
  0
LINE
  5
F10220
330
F10221
100
AcDbEntity
8
Geo
100
AcDbLine
10
-80.3045574636723
20
23.1986932629657
30
0.00000000000000
11
-80.2745574636723
21
23.1979614679749
31
0.00000000000000
  0
LINE
  5
F10222
330
F10223
100
AcDbEntity
8
Geo
100
AcDbLine
10
-80.2745574636723
20
23.1979614679749
30
0.00000000000000
11
-80.2445574636723
21
23.1970299059101
31
0.00000000000000
  0
LINE
  5
F10224
330
F10225
100
AcDbEntity
8
Geo
100
AcDbLine
10
-80.2445574636723
20
23.1970299059101
30
0.00000000000000
11
-80.2145574636723
21
23.1958987009783
31
0.00000000000000
  0
LINE
  5
F10226
330
F10227
100
AcDbEntity
8
Geo
100
AcDbLine
10
-80.2145574636723
20
23.1958987009783
30
0.00000000000000
11
-80.1845574636723
21
23.1945680040050
31
0.00000000000000
  0
LINE
  5
F10228
330
F10229
100
AcDbEntity
8
Geo
100
AcDbLine
10
-80.1845574636723
20
23.1945680040050
30
0.00000000000000
11
-80.1545574636723
21
23.1930379924146
31
0.00000000000000
  0
LINE
  5
F1022A
330
F1022B
100
AcDbEntity
8
Geo
100
AcDbLine
10
-80.1545574636723
20
23.1930379924146
30
0.00000000000000
11
-80.1245574636723
21
23.1913088702063
31
0.00000000000000
  0
LINE
  5
F1022C
330
F1022D
100
AcDbEntity
8
Geo
100
AcDbLine
10
-80.1245574636723
20
23.1913088702063
30
0.00000000000000
11
-80.0945574636723
21
23.1893808679272
31
0.00000000000000
  0
LINE
  5
F1022E
330
F1022F
100
AcDbEntity
8
Geo
100
AcDbLine
10
-80.0945574636723
20
23.1893808679272
30
0.00000000000000
11
-80.0645574636723
21
23.1872542426414
31
0.00000000000000
  0
LINE
  5
F10230
330
F10231
100
AcDbEntity
8
Geo
100
AcDbLine
10
-80.0645574636723
20
23.1872542426414
30
0.00000000000000
11
-80.0345574636723
21
23.1849292778958
31
0.00000000000000
  0
LINE
  5
F10232
330
F10233
100
AcDbEntity
8
Geo
100
AcDbLine
10
-80.0345574636723
20
23.1849292778958
30
0.00000000000000
11
-80.0045574636723
21
23.1824062836823
31
0.00000000000000
  0
LINE
  5
F10234
330
F10235
100
AcDbEntity
8
Geo
100
AcDbLine
10
-80.0045574636723
20
23.1824062836823
30
0.00000000000000
11
-79.9745574636723
21
23.1796855963963
31
0.00000000000000
  0
LINE
  5
F10236
330
F10237
100
AcDbEntity
8
Geo
100
AcDbLine
10
-79.9745574636723
20
23.1796855963963
30
0.00000000000000
11
-79.9445574636723
21
23.1767675787922
31
0.00000000000000
  0
LINE
  5
F10238
330
F10239
100
AcDbEntity
8
Geo
100
AcDbLine
10
-79.9445574636723
20
23.1767675787922
30
0.00000000000000
11
-79.9145574636723
21
23.1736526199345
31
0.00000000000000
  0
LINE
  5
F1023A
330
F1023B
100
AcDbEntity
8
Geo
100
AcDbLine
10
-79.9145574636723
20
23.1736526199345
30
0.00000000000000
11
-79.8845574636723
21
23.1703411351466
31
0.00000000000000
  0
LINE
  5
F1023C
330
F1023D
100
AcDbEntity
8
Geo
100
AcDbLine
10
-79.8845574636723
20
23.1703411351466
30
0.00000000000000
11
-79.8545574636723
21
23.1668335659548
31
0.00000000000000
  0
LINE
  5
F1023E
330
F1023F
100
AcDbEntity
8
Geo
100
AcDbLine
10
-79.8545574636723
20
23.1668335659548
30
0.00000000000000
11
-79.8245574636723
21
23.1631303800299
31
0.00000000000000
  0
LINE
  5
F10240
330
F10241
100
AcDbEntity
8
Geo
100
AcDbLine
10
-79.8245574636723
20
23.1631303800299
30
0.00000000000000
11
-79.7945574636723
21
23.1592320711245
31
0.00000000000000
  0
LINE
  5
F10242
330
F10243
100
AcDbEntity
8
Geo
100
AcDbLine
10
-79.7945574636723
20
23.1592320711245
30
0.00000000000000
11
-79.7645574636723
21
23.1551391590072
31
0.00000000000000
  0
LINE
  5
F10244
330
F10245
100
AcDbEntity
8
Geo
100
AcDbLine
10
-79.7645574636723
20
23.1551391590072
30
0.00000000000000
11
-79.7345574636723
21
23.1508521893938
31
0.00000000000000
  0
LINE
  5
F10246
330
F10247
100
AcDbEntity
8
Geo
100
AcDbLine
10
-79.7345574636723
20
23.1508521893938
30
0.00000000000000
11
-79.7045574636723
21
23.1463717338737
31
0.00000000000000
  0
LINE
  5
F10248
330
F10249
100
AcDbEntity
8
Geo
100
AcDbLine
10
-79.7045574636723
20
23.1463717338737
30
0.00000000000000
11
-79.6745574636723
21
23.1416983898344
31
0.00000000000000
  0
LINE
  5
F1024A
330
F1024B
100
AcDbEntity
8
Geo
100
AcDbLine
10
-87.4445574636724
20
20.9348576318549
30
0.00000000000000
11
-87.4445574636724
21
21.9221663853726
31
0.00000000000000
  0
LINE
  5
F1024C
330
F1024D
100
AcDbEntity
8
Geo
100
AcDbLine
10
-87.4445574636724
20
21.9221663853726
30
0.00000000000000
11
-87.4145574636724
21
22.0762436498860
31
0.00000000000000
  0
LINE
  5
F1024E
330
F1024F
100
AcDbEntity
8
Geo
100
AcDbLine
10
-87.4145574636724
20
22.0762436498860
30
0.00000000000000
11
-87.3845574636724
21
22.1694156069497
31
0.00000000000000
  0
LINE
  5
F10250
330
F10251
100
AcDbEntity
8
Geo
100
AcDbLine
10
-87.3845574636724
20
22.1694156069497
30
0.00000000000000
11
-87.3545574636724
21
22.2405894057889
31
0.00000000000000
  0
LINE
  5
F10252
330
F10253
100
AcDbEntity
8
Geo
100
AcDbLine
10
-87.3545574636724
20
22.2405894057889
30
0.00000000000000
11
-87.3245574636723
21
22.2991248165556
31
0.00000000000000
  0
LINE
  5
F10254
330
F10255
100
AcDbEntity
8
Geo
100
AcDbLine
10
-87.3245574636723
20
22.2991248165556
30
0.00000000000000
11
-87.2945574636723
21
22.3490759358786
31
0.00000000000000
  0
LINE
  5
F10256
330
F10257
100
AcDbEntity
8
Geo
100
AcDbLine
10
-87.2945574636723
20
22.3490759358786
30
0.00000000000000
11
-87.2645574636723
21
22.3926384148182
31
0.00000000000000
  0
LINE
  5
F10258
330
F10259
100
AcDbEntity
8
Geo
100
AcDbLine
10
-87.2645574636723
20
22.3926384148182
30
0.00000000000000
11
-87.2345574636723
21
22.4311603726689
31
0.00000000000000
  0
LINE
  5
F1025A
330
F1025B
100
AcDbEntity
8
Geo
100
AcDbLine
10
-87.2345574636723
20
22.4311603726689
30
0.00000000000000
11
-87.2045574636723
21
22.4655399015370
31
0.00000000000000
  0
LINE
  5
F1025C
330
F1025D
100
AcDbEntity
8
Geo
100
AcDbLine
10
-87.2045574636723
20
22.4655399015370
30
0.00000000000000
11
-87.1745574636723
21
22.4964107859004
31
0.00000000000000
  0
LINE
  5
F1025E
330
F1025F
100
AcDbEntity
8
Geo
100
AcDbLine
10
-87.1745574636723
20
22.4964107859004
30
0.00000000000000
11
-87.1445574636723
21
22.5242399486146
31
0.00000000000000
  0
LINE
  5
F10260
330
F10261
100
AcDbEntity
8
Geo
100
AcDbLine
10
-87.1445574636723
20
22.5242399486146
30
0.00000000000000
11
-87.1145574636723
21
22.5493830711650
31
0.00000000000000
  0
LINE
  5
F10262
330
F10263
100
AcDbEntity
8
Geo
100
AcDbLine
10
-87.1145574636723
20
22.5493830711650
30
0.00000000000000
11
-87.0845574636724
21
22.5721184447573
31
0.00000000000000
  0
LINE
  5
F10264
330
F10265
100
AcDbEntity
8
Geo
100
AcDbLine
10
-87.0845574636724
20
22.5721184447573
30
0.00000000000000
11
-87.0545574636724
21
22.5926686433534
31
0.00000000000000
  0
LINE
  5
F10266
330
F10267
100
AcDbEntity
8
Geo
100
AcDbLine
10
-87.0545574636724
20
22.5926686433534
30
0.00000000000000
11
-87.0245574636724
21
22.6112149818323
31
0.00000000000000
  0
LINE
  5
F10268
330
F10269
100
AcDbEntity
8
Geo
100
AcDbLine
10
-87.0245574636724
20
22.6112149818323
30
0.00000000000000
11
-86.9945574636724
21
22.6279074949139
31
0.00000000000000
  0
LINE
  5
F1026A
330
F1026B
100
AcDbEntity
8
Geo
100
AcDbLine
10
-86.9945574636724
20
22.6279074949139
30
0.00000000000000
11
-86.9645574636723
21
22.6428720247474
31
0.00000000000000
  0
LINE
  5
F1026C
330
F1026D
100
AcDbEntity
8
Geo
100
AcDbLine
10
-86.9645574636723
20
22.6428720247474
30
0.00000000000000
11
-86.9345574636723
21
22.6562153796015
31
0.00000000000000
  0
LINE
  5
F1026E
330
F1026F
100
AcDbEntity
8
Geo
100
AcDbLine
10
-86.9345574636723
20
22.6562153796015
30
0.00000000000000
11
-86.9045574636723
21
22.6680291688146
31
0.00000000000000
  0
LINE
  5
F10270
330
F10271
100
AcDbEntity
8
Geo
100
AcDbLine
10
-86.9045574636723
20
22.6680291688146
30
0.00000000000000
11
-86.8745574636723
21
22.6783927067410
31
0.00000000000000
  0
LINE
  5
F10272
330
F10273
100
AcDbEntity
8
Geo
100
AcDbLine
10
-86.8745574636723
20
22.6783927067410
30
0.00000000000000
11
-86.8445574636723
21
22.6873752476721
31
0.00000000000000
  0
LINE
  5
F10274
330
F10275
100
AcDbEntity
8
Geo
100
AcDbLine
10
-86.8445574636723
20
22.6873752476721
30
0.00000000000000
11
-86.8145574636723
21
22.6950377307670
31
0.00000000000000
  0
LINE
  5
F10276
330
F10277
100
AcDbEntity
8
Geo
100
AcDbLine
10
-86.8145574636723
20
22.6950377307670
30
0.00000000000000
11
-86.7845574636723
21
22.7014341599836
31
0.00000000000000
  0
LINE
  5
F10278
330
F10279
100
AcDbEntity
8
Geo
100
AcDbLine
10
-86.7845574636723
20
22.7014341599836
30
0.00000000000000
11
-86.7545574636723
21
22.7066127079567
31
0.00000000000000
  0
LINE
  5
F1027A
330
F1027B
100
AcDbEntity
8
Geo
100
AcDbLine
10
-86.7545574636723
20
22.7066127079567
30
0.00000000000000
11
-86.7245574636723
21
22.7106166082098
31
0.00000000000000
  0
LINE
  5
F1027C
330
F1027D
100
AcDbEntity
8
Geo
100
AcDbLine
10
-86.7245574636723
20
22.7106166082098
30
0.00000000000000
11
-86.6945574636724
21
22.7134848830333
31
0.00000000000000
  0
LINE
  5
F1027E
330
F1027F
100
AcDbEntity
8
Geo
100
AcDbLine
10
-86.6945574636724
20
22.7134848830333
30
0.00000000000000
11
-86.6645574636724
21
22.7152529423171
31
0.00000000000000
  0
LINE
  5
F10280
330
F10281
100
AcDbEntity
8
Geo
100
AcDbLine
10
-86.6645574636724
20
22.7152529423171
30
0.00000000000000
11
-86.6345574636724
21
22.7159530799833
31
0.00000000000000
  0
LINE
  5
F10282
330
F10283
100
AcDbEntity
8
Geo
100
AcDbLine
10
-86.6345574636724
20
22.7159530799833
30
0.00000000000000
11
-86.6045574636724
21
22.7156148883699
31
0.00000000000000
  0
LINE
  5
F10284
330
F10285
100
AcDbEntity
8
Geo
100
AcDbLine
10
-86.6045574636724
20
22.7156148883699
30
0.00000000000000
11
-86.5745574636723
21
22.7142656062796
31
0.00000000000000
  0
LINE
  5
F10286
330
F10287
100
AcDbEntity
8
Geo
100
AcDbLine
10
-86.5745574636723
20
22.7142656062796
30
0.00000000000000
11
-86.5445574636723
21
22.7119304129440
31
0.00000000000000
  0
LINE
  5
F10288
330
F10289
100
AcDbEntity
8
Geo
100
AcDbLine
10
-86.5445574636723
20
22.7119304129440
30
0.00000000000000
11
-86.5145574636723
21
22.7086326775351
31
0.00000000000000
  0
LINE
  5
F1028A
330
F1028B
100
AcDbEntity
8
Geo
100
AcDbLine
10
-86.5145574636723
20
22.7086326775351
30
0.00000000000000
11
-86.4845574636723
21
22.7043941718658
31
0.00000000000000
  0
LINE
  5
F1028C
330
F1028D
100
AcDbEntity
8
Geo
100
AcDbLine
10
-86.4845574636723
20
22.7043941718658
30
0.00000000000000
11
-86.4545574636723
21
22.6992352523809
31
0.00000000000000
  0
LINE
  5
F1028E
330
F1028F
100
AcDbEntity
8
Geo
100
AcDbLine
10
-86.4545574636723
20
22.6992352523809
30
0.00000000000000
11
-86.4245574636723
21
22.6931750163432
31
0.00000000000000
  0
LINE
  5
F10290
330
F10291
100
AcDbEntity
8
Geo
100
AcDbLine
10
-86.4245574636723
20
22.6931750163432
30
0.00000000000000
11
-86.3945574636723
21
22.6862314361859
31
0.00000000000000
  0
LINE
  5
F10292
330
F10293
100
AcDbEntity
8
Geo
100
AcDbLine
10
-86.3945574636723
20
22.6862314361859
30
0.00000000000000
11
-86.3645574636723
21
22.6784214752538
31
0.00000000000000
  0
LINE
  5
F10294
330
F10295
100
AcDbEntity
8
Geo
100
AcDbLine
10
-86.3645574636723
20
22.6784214752538
30
0.00000000000000
11
-86.3345574636723
21
22.6697611875668
31
0.00000000000000
  0
LINE
  5
F10296
330
F10297
100
AcDbEntity
8
Geo
100
AcDbLine
10
-86.3345574636723
20
22.6697611875668
30
0.00000000000000
11
-86.3045574636724
21
22.6602658037582
31
0.00000000000000
  0
LINE
  5
F10298
330
F10299
100
AcDbEntity
8
Geo
100
AcDbLine
10
-86.3045574636724
20
22.6602658037582
30
0.00000000000000
11
-86.2745574636724
21
22.6499498049553
31
0.00000000000000
  0
LINE
  5
F1029A
330
F1029B
100
AcDbEntity
8
Geo
100
AcDbLine
10
-86.2745574636724
20
22.6499498049553
30
0.00000000000000
11
-86.2445574636724
21
22.6388269860452
31
0.00000000000000
  0
LINE
  5
F1029C
330
F1029D
100
AcDbEntity
8
Geo
100
AcDbLine
10
-86.2445574636724
20
22.6388269860452
30
0.00000000000000
11
-86.2145574636723
21
22.6269105095105
31
0.00000000000000
  0
LINE
  5
F1029E
330
F1029F
100
AcDbEntity
8
Geo
100
AcDbLine
10
-86.2145574636723
20
22.6269105095105
30
0.00000000000000
11
-86.1845574636723
21
22.6142129507901
31
0.00000000000000
  0
LINE
  5
F102A0
330
F102A1
100
AcDbEntity
8
Geo
100
AcDbLine
10
-86.1845574636723
20
22.6142129507901
30
0.00000000000000
11
-86.1545574636723
21
22.6007463359355
31
0.00000000000000
  0
LINE
  5
F102A2
330
F102A3
100
AcDbEntity
8
Geo
100
AcDbLine
10
-86.1545574636723
20
22.6007463359355
30
0.00000000000000
11
-86.1245574636723
21
22.5868393087644
31
0.00000000000000
  0
LINE
  5
F102A4
330
F102A5
100
AcDbEntity
8
Geo
100
AcDbLine
10
-86.1245574636723
20
22.5868393087644
30
0.00000000000000
11
-86.0945574636723
21
22.5728139965685
31
0.00000000000000
  0
LINE
  5
F102A6
330
F102A7
100
AcDbEntity
8
Geo
100
AcDbLine
10
-86.0945574636723
20
22.5728139965685
30
0.00000000000000
11
-86.0645574636723
21
22.5586722693687
31
0.00000000000000
  0
LINE
  5
F102A8
330
F102A9
100
AcDbEntity
8
Geo
100
AcDbLine
10
-86.0645574636723
20
22.5586722693687
30
0.00000000000000
11
-86.0345574636723
21
22.5444160127077
31
0.00000000000000
  0
LINE
  5
F102AA
330
F102AB
100
AcDbEntity
8
Geo
100
AcDbLine
10
-86.0345574636723
20
22.5444160127077
30
0.00000000000000
11
-86.0045574636723
21
22.5300471273984
31
0.00000000000000
  0
LINE
  5
F102AC
330
F102AD
100
AcDbEntity
8
Geo
100
AcDbLine
10
-86.0045574636723
20
22.5300471273984
30
0.00000000000000
11
-85.9745574636723
21
22.5155675292711
31
0.00000000000000
  0
LINE
  5
F102AE
330
F102AF
100
AcDbEntity
8
Geo
100
AcDbLine
10
-85.9745574636723
20
22.5155675292711
30
0.00000000000000
11
-85.9445574636723
21
22.5009791489174
31
0.00000000000000
  0
LINE
  5
F102B0
330
F102B1
100
AcDbEntity
8
Geo
100
AcDbLine
10
-85.9445574636723
20
22.5009791489174
30
0.00000000000000
11
-85.9145574636724
21
22.4862839314330
31
0.00000000000000
  0
LINE
  5
F102B2
330
F102B3
100
AcDbEntity
8
Geo
100
AcDbLine
10
-85.9145574636724
20
22.4862839314330
30
0.00000000000000
11
-85.8845574636724
21
22.4714838361584
31
0.00000000000000
  0
LINE
  5
F102B4
330
F102B5
100
AcDbEntity
8
Geo
100
AcDbLine
10
-85.8845574636724
20
22.4714838361584
30
0.00000000000000
11
-85.8545574636724
21
22.4565808364179
31
0.00000000000000
  0
LINE
  5
F102B6
330
F102B7
100
AcDbEntity
8
Geo
100
AcDbLine
10
-85.8545574636724
20
22.4565808364179
30
0.00000000000000
11
-85.8245574636723
21
22.4415769192560
31
0.00000000000000
  0
LINE
  5
F102B8
330
F102B9
100
AcDbEntity
8
Geo
100
AcDbLine
10
-85.8245574636723
20
22.4415769192560
30
0.00000000000000
11
-85.7945574636723
21
22.4264740851726
31
0.00000000000000
  0
LINE
  5
F102BA
330
F102BB
100
AcDbEntity
8
Geo
100
AcDbLine
10
-85.7945574636723
20
22.4264740851726
30
0.00000000000000
11
-85.7645574636723
21
22.4112743478567
31
0.00000000000000
  0
LINE
  5
F102BC
330
F102BD
100
AcDbEntity
8
Geo
100
AcDbLine
10
-85.7645574636723
20
22.4112743478567
30
0.00000000000000
11
-85.7345574636723
21
22.3959797339174
31
0.00000000000000
  0
LINE
  5
F102BE
330
F102BF
100
AcDbEntity
8
Geo
100
AcDbLine
10
-85.7345574636723
20
22.3959797339174
30
0.00000000000000
11
-85.7045574636723
21
22.3805922826139
31
0.00000000000000
  0
LINE
  5
F102C0
330
F102C1
100
AcDbEntity
8
Geo
100
AcDbLine
10
-85.7045574636723
20
22.3805922826139
30
0.00000000000000
11
-85.6745574636723
21
22.3651140455835
31
0.00000000000000
  0
LINE
  5
F102C2
330
F102C3
100
AcDbEntity
8
Geo
100
AcDbLine
10
-85.6745574636723
20
22.3651140455835
30
0.00000000000000
11
-85.6445574636723
21
22.3495470865683
31
0.00000000000000
  0
LINE
  5
F102C4
330
F102C5
100
AcDbEntity
8
Geo
100
AcDbLine
10
-85.6445574636723
20
22.3495470865683
30
0.00000000000000
11
-85.6145574636723
21
22.3338934811397
31
0.00000000000000
  0
LINE
  5
F102C6
330
F102C7
100
AcDbEntity
8
Geo
100
AcDbLine
10
-85.6145574636723
20
22.3338934811397
30
0.00000000000000
11
-85.5845574636723
21
22.3181553164219
31
0.00000000000000
  0
LINE
  5
F102C8
330
F102C9
100
AcDbEntity
8
Geo
100
AcDbLine
10
-85.5845574636723
20
22.3181553164219
30
0.00000000000000
11
-85.5545574636724
21
22.3023346908136
31
0.00000000000000
  0
LINE
  5
F102CA
330
F102CB
100
AcDbEntity
8
Geo
100
AcDbLine
10
-85.5545574636724
20
22.3023346908136
30
0.00000000000000
11
-85.5245574636724
21
22.2864337137081
31
0.00000000000000
  0
LINE
  5
F102CC
330
F102CD
100
AcDbEntity
8
Geo
100
AcDbLine
10
-85.5245574636724
20
22.2864337137081
30
0.00000000000000
11
-85.4945574636724
21
22.2704545052122
31
0.00000000000000
  0
LINE
  5
F102CE
330
F102CF
100
AcDbEntity
8
Geo
100
AcDbLine
10
-85.4945574636724
20
22.2704545052122
30
0.00000000000000
11
-85.4645574636723
21
22.2543991958632
31
0.00000000000000
  0
LINE
  5
F102D0
330
F102D1
100
AcDbEntity
8
Geo
100
AcDbLine
10
-85.4645574636723
20
22.2543991958632
30
0.00000000000000
11
-85.4345574636723
21
22.2382699263453
31
0.00000000000000
  0
LINE
  5
F102D2
330
F102D3
100
AcDbEntity
8
Geo
100
AcDbLine
10
-85.4345574636723
20
22.2382699263453
30
0.00000000000000
11
-85.4045574636723
21
22.2220688472039
31
0.00000000000000
  0
LINE
  5
F102D4
330
F102D5
100
AcDbEntity
8
Geo
100
AcDbLine
10
-85.4045574636723
20
22.2220688472039
30
0.00000000000000
11
-85.3745574636723
21
22.2057981185588
31
0.00000000000000
  0
LINE
  5
F102D6
330
F102D7
100
AcDbEntity
8
Geo
100
AcDbLine
10
-85.3745574636723
20
22.2057981185588
30
0.00000000000000
11
-85.3445574636723
21
22.1894599098165
31
0.00000000000000
  0
LINE
  5
F102D8
330
F102D9
100
AcDbEntity
8
Geo
100
AcDbLine
10
-85.3445574636723
20
22.1894599098165
30
0.00000000000000
11
-85.3145574636723
21
22.1730563993806
31
0.00000000000000
  0
LINE
  5
F102DA
330
F102DB
100
AcDbEntity
8
Geo
100
AcDbLine
10
-85.3145574636723
20
22.1730563993806
30
0.00000000000000
11
-85.2845574636723
21
22.1565897743614
31
0.00000000000000
  0
LINE
  5
F102DC
330
F102DD
100
AcDbEntity
8
Geo
100
AcDbLine
10
-85.2845574636723
20
22.1565897743614
30
0.00000000000000
11
-85.2545574636723
21
22.1400622302846
31
0.00000000000000
  0
LINE
  5
F102DE
330
F102DF
100
AcDbEntity
8
Geo
100
AcDbLine
10
-85.2545574636723
20
22.1400622302846
30
0.00000000000000
11
-85.2245574636724
21
22.1234759707983
31
0.00000000000000
  0
LINE
  5
F102E0
330
F102E1
100
AcDbEntity
8
Geo
100
AcDbLine
10
-85.2245574636724
20
22.1234759707983
30
0.00000000000000
11
-85.1945574636724
21
22.1068332073792
31
0.00000000000000
  0
LINE
  5
F102E2
330
F102E3
100
AcDbEntity
8
Geo
100
AcDbLine
10
-85.1945574636724
20
22.1068332073792
30
0.00000000000000
11
-85.1645574636724
21
22.0901361590377
31
0.00000000000000
  0
LINE
  5
F102E4
330
F102E5
100
AcDbEntity
8
Geo
100
AcDbLine
10
-85.1645574636724
20
22.0901361590377
30
0.00000000000000
11
-85.1345574636724
21
22.0733870520222
31
0.00000000000000
  0
LINE
  5
F102E6
330
F102E7
100
AcDbEntity
8
Geo
100
AcDbLine
10
-85.1345574636724
20
22.0733870520222
30
0.00000000000000
11
-85.1045574636724
21
22.0565881195221
31
0.00000000000000
  0
LINE
  5
F102E8
330
F102E9
100
AcDbEntity
8
Geo
100
AcDbLine
10
-85.1045574636724
20
22.0565881195221
30
0.00000000000000
11
-85.0745574636723
21
22.0397416013702
31
0.00000000000000
  0
LINE
  5
F102EA
330
F102EB
100
AcDbEntity
8
Geo
100
AcDbLine
10
-85.0745574636723
20
22.0397416013702
30
0.00000000000000
11
-85.0445574636723
21
22.0228497437441
31
0.00000000000000
  0
LINE
  5
F102EC
330
F102ED
100
AcDbEntity
8
Geo
100
AcDbLine
10
-85.0445574636723
20
22.0228497437441
30
0.00000000000000
11
-85.0145574636723
21
22.0059147988662
31
0.00000000000000
  0
LINE
  5
F102EE
330
F102EF
100
AcDbEntity
8
Geo
100
AcDbLine
10
-85.0145574636723
20
22.0059147988662
30
0.00000000000000
11
-84.9845574636723
21
21.9889390247043
31
0.00000000000000
  0
LINE
  5
F102F0
330
F102F1
100
AcDbEntity
8
Geo
100
AcDbLine
10
-84.9845574636723
20
21.9889390247043
30
0.00000000000000
11
-84.9545574636723
21
21.9719246846698
31
0.00000000000000
  0
LINE
  5
F102F2
330
F102F3
100
AcDbEntity
8
Geo
100
AcDbLine
10
-84.9545574636723
20
21.9719246846698
30
0.00000000000000
11
-84.9245574636724
21
21.9548740473160
31
0.00000000000000
  0
LINE
  5
F102F4
330
F102F5
100
AcDbEntity
8
Geo
100
AcDbLine
10
-84.9245574636724
20
21.9548740473160
30
0.00000000000000
11
-84.8945574636724
21
21.9377893860360
31
0.00000000000000
  0
LINE
  5
F102F6
330
F102F7
100
AcDbEntity
8
Geo
100
AcDbLine
10
-84.8945574636724
20
21.9377893860360
30
0.00000000000000
11
-84.8645574636724
21
21.9206729787594
31
0.00000000000000
  0
LINE
  5
F102F8
330
F102F9
100
AcDbEntity
8
Geo
100
AcDbLine
10
-84.8645574636724
20
21.9206729787594
30
0.00000000000000
11
-84.8345574636724
21
21.9035271076484
31
0.00000000000000
  0
LINE
  5
F102FA
330
F102FB
100
AcDbEntity
8
Geo
100
AcDbLine
10
-84.8345574636724
20
21.9035271076484
30
0.00000000000000
11
-84.8045574636724
21
21.8863540587939
31
0.00000000000000
  0
LINE
  5
F102FC
330
F102FD
100
AcDbEntity
8
Geo
100
AcDbLine
10
-84.8045574636724
20
21.8863540587939
30
0.00000000000000
11
-84.7745574636724
21
21.8691561219101
31
0.00000000000000
  0
LINE
  5
F102FE
330
F102FF
100
AcDbEntity
8
Geo
100
AcDbLine
10
-84.7745574636724
20
21.8691561219101
30
0.00000000000000
11
-84.7445574636724
21
21.8519355900299
31
0.00000000000000
  0
LINE
  5
F10300
330
F10301
100
AcDbEntity
8
Geo
100
AcDbLine
10
-84.7445574636724
20
21.8519355900299
30
0.00000000000000
11
-84.7145574636723
21
21.8346947591987
31
0.00000000000000
  0
LINE
  5
F10302
330
F10303
100
AcDbEntity
8
Geo
100
AcDbLine
10
-84.7145574636723
20
21.8346947591987
30
0.00000000000000
11
-84.6845574636723
21
21.8174359281683
31
0.00000000000000
  0
LINE
  5
F10304
330
F10305
100
AcDbEntity
8
Geo
100
AcDbLine
10
-84.6845574636723
20
21.8174359281683
30
0.00000000000000
11
-84.6545574636723
21
21.8001613980907
31
0.00000000000000
  0
LINE
  5
F10306
330
F10307
100
AcDbEntity
8
Geo
100
AcDbLine
10
-84.6545574636723
20
21.8001613980907
30
0.00000000000000
11
-84.6245574636723
21
21.7828734722110
31
0.00000000000000
  0
LINE
  5
F10308
330
F10309
100
AcDbEntity
8
Geo
100
AcDbLine
10
-84.6245574636723
20
21.7828734722110
30
0.00000000000000
11
-84.5945574636724
21
21.7655744555604
31
0.00000000000000
  0
LINE
  5
F1030A
330
F1030B
100
AcDbEntity
8
Geo
100
AcDbLine
10
-84.5945574636724
20
21.7655744555604
30
0.00000000000000
11
-84.5645574636724
21
21.7482666546486
31
0.00000000000000
  0
LINE
  5
F1030C
330
F1030D
100
AcDbEntity
8
Geo
100
AcDbLine
10
-84.5645574636724
20
21.7482666546486
30
0.00000000000000
11
-84.5345574636724
21
21.7309523771570
31
0.00000000000000
  0
LINE
  5
F1030E
330
F1030F
100
AcDbEntity
8
Geo
100
AcDbLine
10
-84.5345574636724
20
21.7309523771570
30
0.00000000000000
11
-84.5045574636724
21
21.7136339316302
31
0.00000000000000
  0
LINE
  5
F10310
330
F10311
100
AcDbEntity
8
Geo
100
AcDbLine
10
-84.5045574636724
20
21.7136339316302
30
0.00000000000000
11
-84.4745574636724
21
21.6963136271686
31
0.00000000000000
  0
LINE
  5
F10312
330
F10313
100
AcDbEntity
8
Geo
100
AcDbLine
10
-84.4745574636724
20
21.6963136271686
30
0.00000000000000
11
-84.4445574636724
21
21.6789937731204
31
0.00000000000000
  0
LINE
  5
F10314
330
F10315
100
AcDbEntity
8
Geo
100
AcDbLine
10
-84.4445574636724
20
21.6789937731204
30
0.00000000000000
11
-84.4145574636724
21
21.6616766787740
31
0.00000000000000
  0
LINE
  5
F10316
330
F10317
100
AcDbEntity
8
Geo
100
AcDbLine
10
-84.4145574636724
20
21.6616766787740
30
0.00000000000000
11
-84.3845574636724
21
21.6443646530495
31
0.00000000000000
  0
LINE
  5
F10318
330
F10319
100
AcDbEntity
8
Geo
100
AcDbLine
10
-84.3845574636724
20
21.6443646530495
30
0.00000000000000
11
-84.3545574636724
21
21.6270600041914
31
0.00000000000000
  0
LINE
  5
F1031A
330
F1031B
100
AcDbEntity
8
Geo
100
AcDbLine
10
-84.3545574636724
20
21.6270600041914
30
0.00000000000000
11
-84.3245574636723
21
21.6097650394605
31
0.00000000000000
  0
LINE
  5
F1031C
330
F1031D
100
AcDbEntity
8
Geo
100
AcDbLine
10
-84.3245574636723
20
21.6097650394605
30
0.00000000000000
11
-84.2945574636723
21
21.5924820648266
31
0.00000000000000
  0
LINE
  5
F1031E
330
F1031F
100
AcDbEntity
8
Geo
100
AcDbLine
10
-84.2945574636723
20
21.5924820648266
30
0.00000000000000
11
-84.2645574636724
21
21.5752133846607
31
0.00000000000000
  0
LINE
  5
F10320
330
F10321
100
AcDbEntity
8
Geo
100
AcDbLine
10
-84.2645574636724
20
21.5752133846607
30
0.00000000000000
11
-84.2345574636724
21
21.5579613014278
31
0.00000000000000
  0
LINE
  5
F10322
330
F10323
100
AcDbEntity
8
Geo
100
AcDbLine
10
-84.2345574636724
20
21.5579613014278
30
0.00000000000000
11
-84.2045574636724
21
21.5407281153802
31
0.00000000000000
  0
LINE
  5
F10324
330
F10325
100
AcDbEntity
8
Geo
100
AcDbLine
10
-84.2045574636724
20
21.5407281153802
30
0.00000000000000
11
-84.1745574636724
21
21.5235161242505
31
0.00000000000000
  0
LINE
  5
F10326
330
F10327
100
AcDbEntity
8
Geo
100
AcDbLine
10
-84.1745574636724
20
21.5235161242505
30
0.00000000000000
11
-84.1445574636724
21
21.5063276229453
31
0.00000000000000
  0
LINE
  5
F10328
330
F10329
100
AcDbEntity
8
Geo
100
AcDbLine
10
-84.1445574636724
20
21.5063276229453
30
0.00000000000000
11
-84.1145574636724
21
21.4891649032393
31
0.00000000000000
  0
LINE
  5
F1032A
330
F1032B
100
AcDbEntity
8
Geo
100
AcDbLine
10
-84.1145574636724
20
21.4891649032393
30
0.00000000000000
11
-84.0845574636724
21
21.4720302534698
31
0.00000000000000
  0
LINE
  5
F1032C
330
F1032D
100
AcDbEntity
8
Geo
100
AcDbLine
10
-84.0845574636724
20
21.4720302534698
30
0.00000000000000
11
-84.0545574636724
21
21.4549259582313
31
0.00000000000000
  0
LINE
  5
F1032E
330
F1032F
100
AcDbEntity
8
Geo
100
AcDbLine
10
-84.0545574636724
20
21.4549259582313
30
0.00000000000000
11
-84.0245574636724
21
21.4378542980713
31
0.00000000000000
  0
LINE
  5
F10330
330
F10331
100
AcDbEntity
8
Geo
100
AcDbLine
10
-84.0245574636724
20
21.4378542980713
30
0.00000000000000
11
-83.9945574636724
21
21.4208175491856
31
0.00000000000000
  0
LINE
  5
F10332
330
F10333
100
AcDbEntity
8
Geo
100
AcDbLine
10
-83.9945574636724
20
21.4208175491856
30
0.00000000000000
11
-83.9645574636723
21
21.4038179831157
31
0.00000000000000
  0
LINE
  5
F10334
330
F10335
100
AcDbEntity
8
Geo
100
AcDbLine
10
-83.9645574636723
20
21.4038179831157
30
0.00000000000000
11
-83.9345574636724
21
21.3868578664451
31
0.00000000000000
  0
LINE
  5
F10336
330
F10337
100
AcDbEntity
8
Geo
100
AcDbLine
10
-83.9345574636724
20
21.3868578664451
30
0.00000000000000
11
-83.9045574636724
21
21.3699394604977
31
0.00000000000000
  0
LINE
  5
F10338
330
F10339
100
AcDbEntity
8
Geo
100
AcDbLine
10
-83.9045574636724
20
21.3699394604977
30
0.00000000000000
11
-83.8745574636724
21
21.3530650210358
31
0.00000000000000
  0
LINE
  5
F1033A
330
F1033B
100
AcDbEntity
8
Geo
100
AcDbLine
10
-83.8745574636724
20
21.3530650210358
30
0.00000000000000
11
-83.8445574636724
21
21.3362367979596
31
0.00000000000000
  0
LINE
  5
F1033C
330
F1033D
100
AcDbEntity
8
Geo
100
AcDbLine
10
-83.8445574636724
20
21.3362367979596
30
0.00000000000000
11
-83.8145574636724
21
21.3194570350074
31
0.00000000000000
  0
LINE
  5
F1033E
330
F1033F
100
AcDbEntity
8
Geo
100
AcDbLine
10
-83.8145574636724
20
21.3194570350074
30
0.00000000000000
11
-83.7845574636724
21
21.3027279694560
31
0.00000000000000
  0
LINE
  5
F10340
330
F10341
100
AcDbEntity
8
Geo
100
AcDbLine
10
-83.7845574636724
20
21.3027279694560
30
0.00000000000000
11
-83.7545574636724
21
21.2860518318226
31
0.00000000000000
  0
LINE
  5
F10342
330
F10343
100
AcDbEntity
8
Geo
100
AcDbLine
10
-83.7545574636724
20
21.2860518318226
30
0.00000000000000
11
-83.7245574636724
21
21.2694308455676
31
0.00000000000000
  0
LINE
  5
F10344
330
F10345
100
AcDbEntity
8
Geo
100
AcDbLine
10
-83.7245574636724
20
21.2694308455676
30
0.00000000000000
11
-83.6945574636724
21
21.2528672267979
31
0.00000000000000
  0
LINE
  5
F10346
330
F10347
100
AcDbEntity
8
Geo
100
AcDbLine
10
-83.6945574636724
20
21.2528672267979
30
0.00000000000000
11
-83.6645574636724
21
21.2363631839715
31
0.00000000000000
  0
LINE
  5
F10348
330
F10349
100
AcDbEntity
8
Geo
100
AcDbLine
10
-83.6645574636724
20
21.2363631839715
30
0.00000000000000
11
-83.6345574636724
21
21.2199209176028
31
0.00000000000000
  0
LINE
  5
F1034A
330
F1034B
100
AcDbEntity
8
Geo
100
AcDbLine
10
-83.6345574636724
20
21.2199209176028
30
0.00000000000000
11
-83.6045574636724
21
21.2035426199698
31
0.00000000000000
  0
LINE
  5
F1034C
330
F1034D
100
AcDbEntity
8
Geo
100
AcDbLine
10
-83.6045574636724
20
21.2035426199698
30
0.00000000000000
11
-83.5745574636724
21
21.1872304748212
31
0.00000000000000
  0
LINE
  5
F1034E
330
F1034F
100
AcDbEntity
8
Geo
100
AcDbLine
10
-83.5745574636724
20
21.1872304748212
30
0.00000000000000
11
-83.5445574636724
21
21.1709866570856
31
0.00000000000000
  0
LINE
  5
F10350
330
F10351
100
AcDbEntity
8
Geo
100
AcDbLine
10
-83.5445574636724
20
21.1709866570856
30
0.00000000000000
11
-83.5145574636724
21
21.1548133325811
31
0.00000000000000
  0
LINE
  5
F10352
330
F10353
100
AcDbEntity
8
Geo
100
AcDbLine
10
-83.5145574636724
20
21.1548133325811
30
0.00000000000000
11
-83.4845574636724
21
21.1387126577272
31
0.00000000000000
  0
LINE
  5
F10354
330
F10355
100
AcDbEntity
8
Geo
100
AcDbLine
10
-83.4845574636724
20
21.1387126577272
30
0.00000000000000
11
-83.4545574636724
21
21.1226867792567
31
0.00000000000000
  0
LINE
  5
F10356
330
F10357
100
AcDbEntity
8
Geo
100
AcDbLine
10
-83.4545574636724
20
21.1226867792567
30
0.00000000000000
11
-83.4245574636724
21
21.1067378339295
31
0.00000000000000
  0
LINE
  5
F10358
330
F10359
100
AcDbEntity
8
Geo
100
AcDbLine
10
-83.4245574636724
20
21.1067378339295
30
0.00000000000000
11
-83.3945574636724
21
21.0908679482481
31
0.00000000000000
  0
LINE
  5
F1035A
330
F1035B
100
AcDbEntity
8
Geo
100
AcDbLine
10
-83.3945574636724
20
21.0908679482481
30
0.00000000000000
11
-83.3645574636724
21
21.0750792381737
31
0.00000000000000
  0
LINE
  5
F1035C
330
F1035D
100
AcDbEntity
8
Geo
100
AcDbLine
10
-83.3645574636724
20
21.0750792381737
30
0.00000000000000
11
-83.3345574636724
21
21.0593738088443
31
0.00000000000000
  0
LINE
  5
F1035E
330
F1035F
100
AcDbEntity
8
Geo
100
AcDbLine
10
-83.3345574636724
20
21.0593738088443
30
0.00000000000000
11
-83.3045574636724
21
21.0437537542939
31
0.00000000000000
  0
LINE
  5
F10360
330
F10361
100
AcDbEntity
8
Geo
100
AcDbLine
10
-83.3045574636724
20
21.0437537542939
30
0.00000000000000
11
-83.2745574636724
21
21.0282211571733
31
0.00000000000000
  0
LINE
  5
F10362
330
F10363
100
AcDbEntity
8
Geo
100
AcDbLine
10
-83.2745574636724
20
21.0282211571733
30
0.00000000000000
11
-83.2445574636724
21
21.0127780884724
31
0.00000000000000
  0
LINE
  5
F10364
330
F10365
100
AcDbEntity
8
Geo
100
AcDbLine
10
-83.2445574636724
20
21.0127780884724
30
0.00000000000000
11
-83.2145574636723
21
20.9974266072441
31
0.00000000000000
  0
LINE
  5
F10366
330
F10367
100
AcDbEntity
8
Geo
100
AcDbLine
10
-83.2145574636723
20
20.9974266072441
30
0.00000000000000
11
-83.1845574636723
21
20.9821687603299
31
0.00000000000000
  0
LINE
  5
F10368
330
F10369
100
AcDbEntity
8
Geo
100
AcDbLine
10
-83.1845574636723
20
20.9821687603299
30
0.00000000000000
11
-83.1545574636723
21
20.9670065820868
31
0.00000000000000
  0
LINE
  5
F1036A
330
F1036B
100
AcDbEntity
8
Geo
100
AcDbLine
10
-83.1545574636723
20
20.9670065820868
30
0.00000000000000
11
-83.1245574636724
21
20.9519420941161
31
0.00000000000000
  0
LINE
  5
F1036C
330
F1036D
100
AcDbEntity
8
Geo
100
AcDbLine
10
-83.1245574636724
20
20.9519420941161
30
0.00000000000000
11
-83.0945574636724
21
20.9369773049937
31
0.00000000000000
  0
LINE
  5
F1036E
330
F1036F
100
AcDbEntity
8
Geo
100
AcDbLine
10
-83.0945574636724
20
20.9369773049937
30
0.00000000000000
11
-83.0645574636724
21
20.9221142100029
31
0.00000000000000
  0
LINE
  5
F10370
330
F10371
100
AcDbEntity
8
Geo
100
AcDbLine
10
-83.0645574636724
20
20.9221142100029
30
0.00000000000000
11
-83.0345574636724
21
20.9073547908676
31
0.00000000000000
  0
LINE
  5
F10372
330
F10373
100
AcDbEntity
8
Geo
100
AcDbLine
10
-83.0345574636724
20
20.9073547908676
30
0.00000000000000
11
-83.0045574636724
21
20.8927010154884
31
0.00000000000000
  0
LINE
  5
F10374
330
F10375
100
AcDbEntity
8
Geo
100
AcDbLine
10
-83.0045574636724
20
20.8927010154884
30
0.00000000000000
11
-82.9745574636724
21
20.8781548376804
31
0.00000000000000
  0
LINE
  5
F10376
330
F10377
100
AcDbEntity
8
Geo
100
AcDbLine
10
-82.9745574636724
20
20.8781548376804
30
0.00000000000000
11
-82.9445574636724
21
20.8637181969123
31
0.00000000000000
  0
LINE
  5
F10378
330
F10379
100
AcDbEntity
8
Geo
100
AcDbLine
10
-82.9445574636724
20
20.8637181969123
30
0.00000000000000
11
-82.9145574636724
21
20.8493930180483
31
0.00000000000000
  0
LINE
  5
F1037A
330
F1037B
100
AcDbEntity
8
Geo
100
AcDbLine
10
-82.9145574636724
20
20.8493930180483
30
0.00000000000000
11
-82.8845574636724
21
20.8351812110910
31
0.00000000000000
  0
LINE
  5
F1037C
330
F1037D
100
AcDbEntity
8
Geo
100
AcDbLine
10
-82.8845574636724
20
20.8351812110910
30
0.00000000000000
11
-82.8545574636724
21
20.8210846709268
31
0.00000000000000
  0
LINE
  5
F1037E
330
F1037F
100
AcDbEntity
8
Geo
100
AcDbLine
10
-82.8545574636724
20
20.8210846709268
30
0.00000000000000
11
-82.8245574636723
21
20.8071052770737
31
0.00000000000000
  0
LINE
  5
F10380
330
F10381
100
AcDbEntity
8
Geo
100
AcDbLine
10
-82.8245574636723
20
20.8071052770737
30
0.00000000000000
11
-82.7945574636723
21
20.7932448934301
31
0.00000000000000
  0
LINE
  5
F10382
330
F10383
100
AcDbEntity
8
Geo
100
AcDbLine
10
-82.7945574636723
20
20.7932448934301
30
0.00000000000000
11
-82.7645574636723
21
20.7795053680265
31
0.00000000000000
  0
LINE
  5
F10384
330
F10385
100
AcDbEntity
8
Geo
100
AcDbLine
10
-82.7645574636723
20
20.7795053680265
30
0.00000000000000
11
-82.7345574636723
21
20.7658885327794
31
0.00000000000000
  0
LINE
  5
F10386
330
F10387
100
AcDbEntity
8
Geo
100
AcDbLine
10
-82.7345574636723
20
20.7658885327794
30
0.00000000000000
11
-82.7045574636723
21
20.7523962032466
31
0.00000000000000
  0
LINE
  5
F10388
330
F10389
100
AcDbEntity
8
Geo
100
AcDbLine
10
-82.7045574636723
20
20.7523962032466
30
0.00000000000000
11
-82.6745574636724
21
20.7390301783855
31
0.00000000000000
  0
LINE
  5
F1038A
330
F1038B
100
AcDbEntity
8
Geo
100
AcDbLine
10
-82.6745574636724
20
20.7390301783855
30
0.00000000000000
11
-82.6445574636724
21
20.7257922403127
31
0.00000000000000
  0
LINE
  5
F1038C
330
F1038D
100
AcDbEntity
8
Geo
100
AcDbLine
10
-82.6445574636724
20
20.7257922403127
30
0.00000000000000
11
-82.6145574636724
21
20.7126841540673
31
0.00000000000000
  0
LINE
  5
F1038E
330
F1038F
100
AcDbEntity
8
Geo
100
AcDbLine
10
-82.6145574636724
20
20.7126841540673
30
0.00000000000000
11
-82.5845574636724
21
20.6997076673745
31
0.00000000000000
  0
LINE
  5
F10390
330
F10391
100
AcDbEntity
8
Geo
100
AcDbLine
10
-82.5845574636724
20
20.6997076673745
30
0.00000000000000
11
-82.5545574636724
21
20.6868645104133
31
0.00000000000000
  0
LINE
  5
F10392
330
F10393
100
AcDbEntity
8
Geo
100
AcDbLine
10
-82.5545574636724
20
20.6868645104133
30
0.00000000000000
11
-82.5245574636724
21
20.6741563955858
31
0.00000000000000
  0
LINE
  5
F10394
330
F10395
100
AcDbEntity
8
Geo
100
AcDbLine
10
-82.5245574636724
20
20.6741563955858
30
0.00000000000000
11
-82.4945574636724
21
20.6615850172882
31
0.00000000000000
  0
LINE
  5
F10396
330
F10397
100
AcDbEntity
8
Geo
100
AcDbLine
10
-82.4945574636724
20
20.6615850172882
30
0.00000000000000
11
-82.4645574636723
21
20.6491520516859
31
0.00000000000000
  0
LINE
  5
F10398
330
F10399
100
AcDbEntity
8
Geo
100
AcDbLine
10
-82.4645574636723
20
20.6491520516859
30
0.00000000000000
11
-82.4345574636723
21
20.6368591564891
31
0.00000000000000
  0
LINE
  5
F1039A
330
F1039B
100
AcDbEntity
8
Geo
100
AcDbLine
10
-82.4345574636723
20
20.6368591564891
30
0.00000000000000
11
-82.4045574636723
21
20.6247079707323
31
0.00000000000000
  0
LINE
  5
F1039C
330
F1039D
100
AcDbEntity
8
Geo
100
AcDbLine
10
-82.4045574636723
20
20.6247079707323
30
0.00000000000000
11
-82.3745574636723
21
20.6127001145556
31
0.00000000000000
  0
LINE
  5
F1039E
330
F1039F
100
AcDbEntity
8
Geo
100
AcDbLine
10
-82.3745574636723
20
20.6127001145556
30
0.00000000000000
11
-82.3445574636723
21
20.6008371889888
31
0.00000000000000
  0
LINE
  5
F103A0
330
F103A1
100
AcDbEntity
8
Geo
100
AcDbLine
10
-82.3445574636723
20
20.6008371889888
30
0.00000000000000
11
-82.3145574636723
21
20.5891207757375
31
0.00000000000000
  0
LINE
  5
F103A2
330
F103A3
100
AcDbEntity
8
Geo
100
AcDbLine
10
-82.3145574636723
20
20.5891207757375
30
0.00000000000000
11
-82.2845574636723
21
20.5775524369730
31
0.00000000000000
  0
LINE
  5
F103A4
330
F103A5
100
AcDbEntity
8
Geo
100
AcDbLine
10
-82.2845574636723
20
20.5775524369730
30
0.00000000000000
11
-82.2545574636723
21
20.5661337151232
31
0.00000000000000
  0
LINE
  5
F103A6
330
F103A7
100
AcDbEntity
8
Geo
100
AcDbLine
10
-82.2545574636723
20
20.5661337151232
30
0.00000000000000
11
-82.2245574636723
21
20.5548661326675
31
0.00000000000000
  0
LINE
  5
F103A8
330
F103A9
100
AcDbEntity
8
Geo
100
AcDbLine
10
-82.2245574636723
20
20.5548661326675
30
0.00000000000000
11
-82.1945574636723
21
20.5437511919336
31
0.00000000000000
  0
LINE
  5
F103AA
330
F103AB
100
AcDbEntity
8
Geo
100
AcDbLine
10
-82.1945574636723
20
20.5437511919336
30
0.00000000000000
11
-82.1645574636724
21
20.5327903748969
31
0.00000000000000
  0
LINE
  5
F103AC
330
F103AD
100
AcDbEntity
8
Geo
100
AcDbLine
10
-82.1645574636724
20
20.5327903748969
30
0.00000000000000
11
-82.1345574636724
21
20.5219851429837
31
0.00000000000000
  0
LINE
  5
F103AE
330
F103AF
100
AcDbEntity
8
Geo
100
AcDbLine
10
-82.1345574636724
20
20.5219851429837
30
0.00000000000000
11
-82.1045574636724
21
20.5113369368754
31
0.00000000000000
  0
LINE
  5
F103B0
330
F103B1
100
AcDbEntity
8
Geo
100
AcDbLine
10
-82.1045574636724
20
20.5113369368754
30
0.00000000000000
11
-82.0745574636723
21
20.5008471763171
31
0.00000000000000
  0
LINE
  5
F103B2
330
F103B3
100
AcDbEntity
8
Geo
100
AcDbLine
10
-82.0745574636723
20
20.5008471763171
30
0.00000000000000
11
-82.0445574636723
21
20.4905172599280
31
0.00000000000000
  0
LINE
  5
F103B4
330
F103B5
100
AcDbEntity
8
Geo
100
AcDbLine
10
-82.0445574636723
20
20.4905172599280
30
0.00000000000000
11
-82.0145574636723
21
20.4803485650149
31
0.00000000000000
  0
LINE
  5
F103B6
330
F103B7
100
AcDbEntity
8
Geo
100
AcDbLine
10
-82.0145574636723
20
20.4803485650149
30
0.00000000000000
11
-81.9845574636723
21
20.4703424473889
31
0.00000000000000
  0
LINE
  5
F103B8
330
F103B9
100
AcDbEntity
8
Geo
100
AcDbLine
10
-81.9845574636723
20
20.4703424473889
30
0.00000000000000
11
-81.9545574636723
21
20.4605002411841
31
0.00000000000000
  0
LINE
  5
F103BA
330
F103BB
100
AcDbEntity
8
Geo
100
AcDbLine
10
-81.9545574636723
20
20.4605002411841
30
0.00000000000000
11
-81.9245574636723
21
20.4508232586800
31
0.00000000000000
  0
LINE
  5
F103BC
330
F103BD
100
AcDbEntity
8
Geo
100
AcDbLine
10
-81.9245574636723
20
20.4508232586800
30
0.00000000000000
11
-81.8945574636723
21
20.4413127901268
31
0.00000000000000
  0
LINE
  5
F103BE
330
F103BF
100
AcDbEntity
8
Geo
100
AcDbLine
10
-81.8945574636723
20
20.4413127901268
30
0.00000000000000
11
-81.8645574636723
21
20.4319701035727
31
0.00000000000000
  0
LINE
  5
F103C0
330
F103C1
100
AcDbEntity
8
Geo
100
AcDbLine
10
-81.8645574636723
20
20.4319701035727
30
0.00000000000000
11
-81.8345574636723
21
20.4227964446954
31
0.00000000000000
  0
LINE
  5
F103C2
330
F103C3
100
AcDbEntity
8
Geo
100
AcDbLine
10
-81.8345574636723
20
20.4227964446954
30
0.00000000000000
11
-81.8045574636723
21
20.4137930366359
31
0.00000000000000
  0
LINE
  5
F103C4
330
F103C5
100
AcDbEntity
8
Geo
100
AcDbLine
10
-81.8045574636723
20
20.4137930366359
30
0.00000000000000
11
-81.7745574636723
21
20.4049610798353
31
0.00000000000000
  0
LINE
  5
F103C6
330
F103C7
100
AcDbEntity
8
Geo
100
AcDbLine
10
-81.7745574636723
20
20.4049610798353
30
0.00000000000000
11
-81.7445574636723
21
20.3963017518747
31
0.00000000000000
  0
LINE
  5
F103C8
330
F103C9
100
AcDbEntity
8
Geo
100
AcDbLine
10
-81.7445574636723
20
20.3963017518747
30
0.00000000000000
11
-81.7145574636723
21
20.3878162073183
31
0.00000000000000
  0
LINE
  5
F103CA
330
F103CB
100
AcDbEntity
8
Geo
100
AcDbLine
10
-81.7145574636723
20
20.3878162073183
30
0.00000000000000
11
-81.6845574636723
21
20.3795055775596
31
0.00000000000000
  0
LINE
  5
F103CC
330
F103CD
100
AcDbEntity
8
Geo
100
AcDbLine
10
-81.6845574636723
20
20.3795055775596
30
0.00000000000000
11
-81.6545574636723
21
20.3713709706701
31
0.00000000000000
  0
LINE
  5
F103CE
330
F103CF
100
AcDbEntity
8
Geo
100
AcDbLine
10
-81.6545574636723
20
20.3713709706701
30
0.00000000000000
11
-81.6245574636723
21
20.3634134712521
31
0.00000000000000
  0
LINE
  5
F103D0
330
F103D1
100
AcDbEntity
8
Geo
100
AcDbLine
10
-81.6245574636723
20
20.3634134712521
30
0.00000000000000
11
-81.5945574636723
21
20.3556341402937
31
0.00000000000000
  0
LINE
  5
F103D2
330
F103D3
100
AcDbEntity
8
Geo
100
AcDbLine
10
-81.5945574636723
20
20.3556341402937
30
0.00000000000000
11
-81.5645574636723
21
20.3480340150275
31
0.00000000000000
  0
LINE
  5
F103D4
330
F103D5
100
AcDbEntity
8
Geo
100
AcDbLine
10
-81.5645574636723
20
20.3480340150275
30
0.00000000000000
11
-81.5345574636723
21
20.3406141087923
31
0.00000000000000
  0
LINE
  5
F103D6
330
F103D7
100
AcDbEntity
8
Geo
100
AcDbLine
10
-81.5345574636723
20
20.3406141087923
30
0.00000000000000
11
-81.5045574636723
21
20.3333754108978
31
0.00000000000000
  0
LINE
  5
F103D8
330
F103D9
100
AcDbEntity
8
Geo
100
AcDbLine
10
-81.5045574636723
20
20.3333754108978
30
0.00000000000000
11
-81.4745574636723
21
20.3263188864933
31
0.00000000000000
  0
LINE
  5
F103DA
330
F103DB
100
AcDbEntity
8
Geo
100
AcDbLine
10
-81.4745574636723
20
20.3263188864933
30
0.00000000000000
11
-81.4445574636723
21
20.3194454764380
31
0.00000000000000
  0
LINE
  5
F103DC
330
F103DD
100
AcDbEntity
8
Geo
100
AcDbLine
10
-81.4445574636723
20
20.3194454764380
30
0.00000000000000
11
-81.4145574636723
21
20.3127560971764
31
0.00000000000000
  0
LINE
  5
F103DE
330
F103DF
100
AcDbEntity
8
Geo
100
AcDbLine
10
-81.4145574636723
20
20.3127560971764
30
0.00000000000000
11
-81.3845574636723
21
20.3062516406160
31
0.00000000000000
  0
LINE
  5
F103E0
330
F103E1
100
AcDbEntity
8
Geo
100
AcDbLine
10
-81.3845574636723
20
20.3062516406160
30
0.00000000000000
11
-81.3545574636723
21
20.2999329740079
31
0.00000000000000
  0
LINE
  5
F103E2
330
F103E3
100
AcDbEntity
8
Geo
100
AcDbLine
10
-81.3545574636723
20
20.2999329740079
30
0.00000000000000
11
-81.3245574636723
21
20.2938009398316
31
0.00000000000000
  0
LINE
  5
F103E4
330
F103E5
100
AcDbEntity
8
Geo
100
AcDbLine
10
-81.3245574636723
20
20.2938009398316
30
0.00000000000000
11
-81.2945574636723
21
20.2878563556827
31
0.00000000000000
  0
LINE
  5
F103E6
330
F103E7
100
AcDbEntity
8
Geo
100
AcDbLine
10
-81.2945574636723
20
20.2878563556827
30
0.00000000000000
11
-81.2645574636723
21
20.2821000141636
31
0.00000000000000
  0
LINE
  5
F103E8
330
F103E9
100
AcDbEntity
8
Geo
100
AcDbLine
10
-81.2645574636723
20
20.2821000141636
30
0.00000000000000
11
-81.2345574636723
21
20.2765326827778
31
0.00000000000000
  0
LINE
  5
F103EA
330
F103EB
100
AcDbEntity
8
Geo
100
AcDbLine
10
-81.2345574636723
20
20.2765326827778
30
0.00000000000000
11
-81.2045574636723
21
20.2711551038281
31
0.00000000000000
  0
LINE
  5
F103EC
330
F103ED
100
AcDbEntity
8
Geo
100
AcDbLine
10
-81.2045574636723
20
20.2711551038281
30
0.00000000000000
11
-81.1745574636723
21
20.2659679943169
31
0.00000000000000
  0
LINE
  5
F103EE
330
F103EF
100
AcDbEntity
8
Geo
100
AcDbLine
10
-81.1745574636723
20
20.2659679943169
30
0.00000000000000
11
-81.1445574636723
21
20.2609720458513
31
0.00000000000000
  0
LINE
  5
F103F0
330
F103F1
100
AcDbEntity
8
Geo
100
AcDbLine
10
-81.1445574636723
20
20.2609720458513
30
0.00000000000000
11
-81.1145574636723
21
20.2561679245502
31
0.00000000000000
  0
LINE
  5
F103F2
330
F103F3
100
AcDbEntity
8
Geo
100
AcDbLine
10
-81.1145574636723
20
20.2561679245502
30
0.00000000000000
11
-81.0845574636723
21
20.2515562709560
31
0.00000000000000
  0
LINE
  5
F103F4
330
F103F5
100
AcDbEntity
8
Geo
100
AcDbLine
10
-81.0845574636723
20
20.2515562709560
30
0.00000000000000
11
-81.0545574636723
21
20.2471376999492
31
0.00000000000000
  0
LINE
  5
F103F6
330
F103F7
100
AcDbEntity
8
Geo
100
AcDbLine
10
-81.0545574636723
20
20.2471376999492
30
0.00000000000000
11
-81.0245574636723
21
20.2429128006658
31
0.00000000000000
  0
LINE
  5
F103F8
330
F103F9
100
AcDbEntity
8
Geo
100
AcDbLine
10
-81.0245574636723
20
20.2429128006658
30
0.00000000000000
11
-80.9945574636723
21
20.2388821364196
31
0.00000000000000
  0
LINE
  5
F103FA
330
F103FB
100
AcDbEntity
8
Geo
100
AcDbLine
10
-80.9945574636723
20
20.2388821364196
30
0.00000000000000
11
-80.9645574636723
21
20.2350462446265
31
0.00000000000000
  0
LINE
  5
F103FC
330
F103FD
100
AcDbEntity
8
Geo
100
AcDbLine
10
-80.9645574636723
20
20.2350462446265
30
0.00000000000000
11
-80.9345574636723
21
20.2314056367330
31
0.00000000000000
  0
LINE
  5
F103FE
330
F103FF
100
AcDbEntity
8
Geo
100
AcDbLine
10
-80.9345574636723
20
20.2314056367330
30
0.00000000000000
11
-80.9045574636723
21
20.2279607981482
31
0.00000000000000
  0
LINE
  5
F10400
330
F10401
100
AcDbEntity
8
Geo
100
AcDbLine
10
-80.9045574636723
20
20.2279607981482
30
0.00000000000000
11
-80.8745574636723
21
20.2247121881787
31
0.00000000000000
  0
LINE
  5
F10402
330
F10403
100
AcDbEntity
8
Geo
100
AcDbLine
10
-80.8745574636723
20
20.2247121881787
30
0.00000000000000
11
-80.8445574636723
21
20.2216602399677
31
0.00000000000000
  0
LINE
  5
F10404
330
F10405
100
AcDbEntity
8
Geo
100
AcDbLine
10
-80.8445574636723
20
20.2216602399677
30
0.00000000000000
11
-80.8145574636723
21
20.2188053604372
31
0.00000000000000
  0
LINE
  5
F10406
330
F10407
100
AcDbEntity
8
Geo
100
AcDbLine
10
-80.8145574636723
20
20.2188053604372
30
0.00000000000000
11
-80.7845574636723
21
20.2161479302335
31
0.00000000000000
  0
LINE
  5
F10408
330
F10409
100
AcDbEntity
8
Geo
100
AcDbLine
10
-80.7845574636723
20
20.2161479302335
30
0.00000000000000
11
-80.7545574636723
21
20.2136883036767
31
0.00000000000000
  0
LINE
  5
F1040A
330
F1040B
100
AcDbEntity
8
Geo
100
AcDbLine
10
-80.7545574636723
20
20.2136883036767
30
0.00000000000000
11
-80.7245574636723
21
20.2114268087134
31
0.00000000000000
  0
LINE
  5
F1040C
330
F1040D
100
AcDbEntity
8
Geo
100
AcDbLine
10
-80.7245574636723
20
20.2114268087134
30
0.00000000000000
11
-80.6945574636723
21
20.2093637468728
31
0.00000000000000
  0
LINE
  5
F1040E
330
F1040F
100
AcDbEntity
8
Geo
100
AcDbLine
10
-80.6945574636723
20
20.2093637468728
30
0.00000000000000
11
-80.6645574636723
21
20.2074993932269
31
0.00000000000000
  0
LINE
  5
F10410
330
F10411
100
AcDbEntity
8
Geo
100
AcDbLine
10
-80.6645574636723
20
20.2074993932269
30
0.00000000000000
11
-80.6345574636723
21
20.2058339963533
31
0.00000000000000
  0
LINE
  5
F10412
330
F10413
100
AcDbEntity
8
Geo
100
AcDbLine
10
-80.6345574636723
20
20.2058339963533
30
0.00000000000000
11
-80.6045574636723
21
20.2043677783025
31
0.00000000000000
  0
LINE
  5
F10414
330
F10415
100
AcDbEntity
8
Geo
100
AcDbLine
10
-80.6045574636723
20
20.2043677783025
30
0.00000000000000
11
-80.5745574636723
21
20.2031009345681
31
0.00000000000000
  0
LINE
  5
F10416
330
F10417
100
AcDbEntity
8
Geo
100
AcDbLine
10
-80.5745574636723
20
20.2031009345681
30
0.00000000000000
11
-80.5445574636723
21
20.2020336340607
31
0.00000000000000
  0
LINE
  5
F10418
330
F10419
100
AcDbEntity
8
Geo
100
AcDbLine
10
-80.5445574636723
20
20.2020336340607
30
0.00000000000000
11
-80.5145574636723
21
20.2011660190855
31
0.00000000000000
  0
LINE
  5
F1041A
330
F1041B
100
AcDbEntity
8
Geo
100
AcDbLine
10
-80.5145574636723
20
20.2011660190855
30
0.00000000000000
11
-80.4845574636723
21
20.2004982053231
31
0.00000000000000
  0
LINE
  5
F1041C
330
F1041D
100
AcDbEntity
8
Geo
100
AcDbLine
10
-80.4845574636723
20
20.2004982053231
30
0.00000000000000
11
-80.4545574636723
21
20.2000302818144
31
0.00000000000000
  0
LINE
  5
F1041E
330
F1041F
100
AcDbEntity
8
Geo
100
AcDbLine
10
-80.4545574636723
20
20.2000302818144
30
0.00000000000000
11
-80.4245574636723
21
20.1997623109485
31
0.00000000000000
  0
LINE
  5
F10420
330
F10421
100
AcDbEntity
8
Geo
100
AcDbLine
10
-80.4245574636723
20
20.1997623109485
30
0.00000000000000
11
-80.3993600676749
21
20.1996917657419
31
0.00000000000000
  0
LINE
  5
F10422
330
F10423
100
AcDbEntity
8
Geo
100
AcDbLine
10
-79.6745574636723
20
20.2033746319265
30
0.00000000000000
11
-79.6445574636723
21
20.1998536639506
31
0.00000000000000
  0
LINE
  5
F10424
330
F10425
100
AcDbEntity
8
Geo
100
AcDbLine
10
-79.6445574636723
20
20.1998536639506
30
0.00000000000000
11
-79.6145574636723
21
20.1909588344338
31
0.00000000000000
  0
LINE
  5
F10426
330
F10427
100
AcDbEntity
8
Geo
100
AcDbLine
10
-79.6145574636723
20
20.1909588344338
30
0.00000000000000
11
-79.5845574636723
21
20.1822312167877
31
0.00000000000000
  0
LINE
  5
F10428
330
F10429
100
AcDbEntity
8
Geo
100
AcDbLine
10
-79.5845574636723
20
20.1822312167877
30
0.00000000000000
11
-79.5545574636723
21
20.1736740954578
31
0.00000000000000
  0
LINE
  5
F1042A
330
F1042B
100
AcDbEntity
8
Geo
100
AcDbLine
10
-79.5545574636723
20
20.1736740954578
30
0.00000000000000
11
-79.5245574636723
21
20.1652907361450
31
0.00000000000000
  0
LINE
  5
F1042C
330
F1042D
100
AcDbEntity
8
Geo
100
AcDbLine
10
-79.5245574636723
20
20.1652907361450
30
0.00000000000000
11
-79.4945574636723
21
20.1570843850948
31
0.00000000000000
  0
LINE
  5
F1042E
330
F1042F
100
AcDbEntity
8
Geo
100
AcDbLine
10
-79.4945574636723
20
20.1570843850948
30
0.00000000000000
11
-79.4816163731485
21
20.1535998686198
31
0.00000000000000
  0
LINE
  5
F10430
330
F10431
100
AcDbEntity
8
Geo
100
AcDbLine
10
-78.7681991481854
20
19.9624402993245
30
0.00000000000000
11
-78.7445574636724
21
19.9620997429418
31
0.00000000000000
  0
LINE
  5
F10432
330
F10433
100
AcDbEntity
8
Geo
100
AcDbLine
10
-78.7445574636724
20
19.9620997429418
30
0.00000000000000
11
-78.7145574636723
21
19.9978834990323
31
0.00000000000000
  0
LINE
  5
F10434
330
F10435
100
AcDbEntity
8
Geo
100
AcDbLine
10
-78.7145574636723
20
19.9978834990323
30
0.00000000000000
11
-78.6845574636723
21
20.1271840329101
31
0.00000000000000
  0
LINE
  5
F10436
330
F10437
100
AcDbEntity
8
Geo
100
AcDbLine
10
-78.6845574636723
20
20.1271840329101
30
0.00000000000000
11
-78.6545574636723
21
20.4527812190803
31
0.00000000000000
  0
LINE
  5
F10438
330
F10439
100
AcDbEntity
8
Geo
100
AcDbLine
10
-78.6545574636723
20
20.4527812190803
30
0.00000000000000
11
-78.6545574636723
21
20.6117875294812
31
0.00000000000000
  0
LINE
  5
F1043A
330
F1043B
100
AcDbEntity
8
Geo
100
AcDbLine
10
-78.6545574636723
20
20.6117875294812
30
0.00000000000000
11
-78.6845574636723
21
21.0497142751126
31
0.00000000000000
  0
LINE
  5
F1043C
330
F1043D
100
AcDbEntity
8
Geo
100
AcDbLine
10
-78.6845574636723
20
21.0497142751126
30
0.00000000000000
11
-78.7145574636723
21
21.4670995135349
31
0.00000000000000
  0
LINE
  5
F1043E
330
F1043F
100
AcDbEntity
8
Geo
100
AcDbLine
10
-78.7145574636723
20
21.4670995135349
30
0.00000000000000
11
-78.7445574636724
21
21.8341429939305
31
0.00000000000000
  0
LINE
  5
F10440
330
F10441
100
AcDbEntity
8
Geo
100
AcDbLine
10
-78.7445574636724
20
21.8341429939305
30
0.00000000000000
11
-78.7745574636724
21
22.1408264913521
31
0.00000000000000
  0
LINE
  5
F10442
330
F10443
100
AcDbEntity
8
Geo
100
AcDbLine
10
-78.7745574636724
20
22.1408264913521
30
0.00000000000000
11
-78.8045574636723
21
22.3884064483351
31
0.00000000000000
  0
LINE
  5
F10444
330
F10445
100
AcDbEntity
8
Geo
100
AcDbLine
10
-78.8045574636723
20
22.3884064483351
30
0.00000000000000
11
-78.8345574636723
21
22.5835474045330
31
0.00000000000000
  0
LINE
  5
F10446
330
F10447
100
AcDbEntity
8
Geo
100
AcDbLine
10
-78.8345574636723
20
22.5835474045330
30
0.00000000000000
11
-78.8645574636723
21
22.7347633648328
31
0.00000000000000
  0
LINE
  5
F10448
330
F10449
100
AcDbEntity
8
Geo
100
AcDbLine
10
-78.8645574636723
20
22.7347633648328
30
0.00000000000000
11
-78.8945574636723
21
22.8505015564144
31
0.00000000000000
  0
LINE
  5
F1044A
330
F1044B
100
AcDbEntity
8
Geo
100
AcDbLine
10
-78.8945574636723
20
22.8505015564144
30
0.00000000000000
11
-78.9245574636723
21
22.9382602247032
31
0.00000000000000
  0
LINE
  5
F1044C
330
F1044D
100
AcDbEntity
8
Geo
100
AcDbLine
10
-78.9245574636723
20
22.9382602247032
30
0.00000000000000
11
-78.9545574636723
21
23.0042966604708
31
0.00000000000000
  0
LINE
  5
F1044E
330
F1044F
100
AcDbEntity
8
Geo
100
AcDbLine
10
-78.9545574636723
20
23.0042966604708
30
0.00000000000000
11
-78.9845574636723
21
23.0536388162260
31
0.00000000000000
  0
LINE
  5
F10450
330
F10451
100
AcDbEntity
8
Geo
100
AcDbLine
10
-78.9845574636723
20
23.0536388162260
30
0.00000000000000
11
-79.0145574636723
21
23.0902309132437
31
0.00000000000000
  0
LINE
  5
F10452
330
F10453
100
AcDbEntity
8
Geo
100
AcDbLine
10
-79.0145574636723
20
23.0902309132437
30
0.00000000000000
11
-79.0445574636723
21
23.1171204695642
31
0.00000000000000
  0
LINE
  5
F10454
330
F10455
100
AcDbEntity
8
Geo
100
AcDbLine
10
-79.0445574636723
20
23.1171204695642
30
0.00000000000000
11
-79.0745574636723
21
23.1366408909878
31
0.00000000000000
  0
LINE
  5
F10456
330
F10457
100
AcDbEntity
8
Geo
100
AcDbLine
10
-79.0745574636723
20
23.1366408909878
30
0.00000000000000
11
-79.1045574636723
21
23.1505702441938
31
0.00000000000000
  0
LINE
  5
F10458
330
F10459
100
AcDbEntity
8
Geo
100
AcDbLine
10
-79.1045574636723
20
23.1505702441938
30
0.00000000000000
11
-79.1345574636723
21
23.1602608216559
31
0.00000000000000
  0
LINE
  5
F1045A
330
F1045B
100
AcDbEntity
8
Geo
100
AcDbLine
10
-79.1345574636723
20
23.1602608216559
30
0.00000000000000
11
-79.1645574636723
21
23.1667408355021
31
0.00000000000000
  0
LINE
  5
F1045C
330
F1045D
100
AcDbEntity
8
Geo
100
AcDbLine
10
-79.1645574636723
20
23.1667408355021
30
0.00000000000000
11
-79.1945574636723
21
23.1707923038971
31
0.00000000000000
  0
LINE
  5
F1045E
330
F1045F
100
AcDbEntity
8
Geo
100
AcDbLine
10
-79.1945574636723
20
23.1707923038971
30
0.00000000000000
11
-79.2245574636723
21
23.1730098499519
31
0.00000000000000
  0
LINE
  5
F10460
330
F10461
100
AcDbEntity
8
Geo
100
AcDbLine
10
-79.2245574636723
20
23.1730098499519
30
0.00000000000000
11
-79.2545574636723
21
23.1738448134924
31
0.00000000000000
  0
LINE
  5
F10462
330
F10463
100
AcDbEntity
8
Geo
100
AcDbLine
10
-79.2545574636723
20
23.1738448134924
30
0.00000000000000
11
-79.2845574636723
21
23.1736383732145
31
0.00000000000000
  0
LINE
  5
F10464
330
F10465
100
AcDbEntity
8
Geo
100
AcDbLine
10
-79.2845574636723
20
23.1736383732145
30
0.00000000000000
11
-79.3145574636723
21
23.1726465948702
31
0.00000000000000
  0
LINE
  5
F10466
330
F10467
100
AcDbEntity
8
Geo
100
AcDbLine
10
-79.3145574636723
20
23.1726465948702
30
0.00000000000000
11
-79.3445574636723
21
23.1710596029045
31
0.00000000000000
  0
LINE
  5
F10468
330
F10469
100
AcDbEntity
8
Geo
100
AcDbLine
10
-79.3445574636723
20
23.1710596029045
30
0.00000000000000
11
-79.3745574636723
21
23.1690164740645
31
0.00000000000000
  0
LINE
  5
F1046A
330
F1046B
100
AcDbEntity
8
Geo
100
AcDbLine
10
-79.3745574636723
20
23.1690164740645
30
0.00000000000000
11
-79.4045574636723
21
23.1666169826938
31
0.00000000000000
  0
LINE
  5
F1046C
330
F1046D
100
AcDbEntity
8
Geo
100
AcDbLine
10
-79.4045574636723
20
23.1666169826938
30
0.00000000000000
11
-79.4345574636723
21
23.1639309780993
31
0.00000000000000
  0
LINE
  5
F1046E
330
F1046F
100
AcDbEntity
8
Geo
100
AcDbLine
10
-79.4345574636723
20
23.1639309780993
30
0.00000000000000
11
-79.4645574636723
21
23.1610059252374
31
0.00000000000000
  0
LINE
  5
F10470
330
F10471
100
AcDbEntity
8
Geo
100
AcDbLine
10
-79.4645574636723
20
23.1610059252374
30
0.00000000000000
11
-79.4945574636723
21
23.1578729697961
31
0.00000000000000
  0
LINE
  5
F10472
330
F10473
100
AcDbEntity
8
Geo
100
AcDbLine
10
-79.4945574636723
20
23.1578729697961
30
0.00000000000000
11
-79.5245574636723
21
23.1545517776847
31
0.00000000000000
  0
LINE
  5
F10474
330
F10475
100
AcDbEntity
8
Geo
100
AcDbLine
10
-79.5245574636723
20
23.1545517776847
30
0.00000000000000
11
-79.5545574636723
21
23.1510543299779
31
0.00000000000000
  0
LINE
  5
F10476
330
F10477
100
AcDbEntity
8
Geo
100
AcDbLine
10
-79.5545574636723
20
23.1510543299779
30
0.00000000000000
11
-79.5845574636723
21
23.1473878137870
31
0.00000000000000
  0
LINE
  5
F10478
330
F10479
100
AcDbEntity
8
Geo
100
AcDbLine
10
-79.5845574636723
20
23.1473878137870
30
0.00000000000000
11
-79.6145574636723
21
23.1435567269027
31
0.00000000000000
  0
LINE
  5
F1047A
330
F1047B
100
AcDbEntity
8
Geo
100
AcDbLine
10
-79.6145574636723
20
23.1435567269027
30
0.00000000000000
11
-79.6445574636723
21
23.1395643018351
31
0.00000000000000
  0
LINE
  5
F1047C
330
F1047D
100
AcDbEntity
8
Geo
100
AcDbLine
10
-79.6445574636723
20
23.1395643018351
30
0.00000000000000
11
-79.6745574636723
21
23.1416983898344
31
0.00000000000000
  0
LINE
  5
F1047E
330
F1047F
100
AcDbEntity
8
Geo
100
AcDbLine
10
-79.4816163731485
20
23.2457836628641
30
0.00000000000000
11
-79.4645574636723
21
23.2503252631240
31
0.00000000000000
  0
LINE
  5
F10480
330
F10481
100
AcDbEntity
8
Geo
100
AcDbLine
10
-79.4645574636723
20
23.2503252631240
30
0.00000000000000
11
-79.4345574636723
21
23.2581679406298
31
0.00000000000000
  0
LINE
  5
F10482
330
F10483
100
AcDbEntity
8
Geo
100
AcDbLine
10
-79.4345574636723
20
23.2581679406298
30
0.00000000000000
11
-79.4045574636723
21
23.2658239970629
31
0.00000000000000
  0
LINE
  5
F10484
330
F10485
100
AcDbEntity
8
Geo
100
AcDbLine
10
-79.4045574636723
20
23.2658239970629
30
0.00000000000000
11
-79.3745574636723
21
23.2732902790732
31
0.00000000000000
  0
LINE
  5
F10486
330
F10487
100
AcDbEntity
8
Geo
100
AcDbLine
10
-79.3745574636723
20
23.2732902790732
30
0.00000000000000
11
-79.3445574636723
21
23.2805636774555
31
0.00000000000000
  0
LINE
  5
F10488
330
F10489
100
AcDbEntity
8
Geo
100
AcDbLine
10
-79.3445574636723
20
23.2805636774555
30
0.00000000000000
11
-79.3145574636723
21
23.2876411688414
31
0.00000000000000
  0
LINE
  5
F1048A
330
F1048B
100
AcDbEntity
8
Geo
100
AcDbLine
10
-79.3145574636723
20
23.2876411688414
30
0.00000000000000
11
-79.2845574636723
21
23.2945199169441
31
0.00000000000000
  0
LINE
  5
F1048C
330
F1048D
100
AcDbEntity
8
Geo
100
AcDbLine
10
-79.2845574636723
20
23.2945199169441
30
0.00000000000000
11
-79.2545574636723
21
23.3011974988455
31
0.00000000000000
  0
LINE
  5
F1048E
330
F1048F
100
AcDbEntity
8
Geo
100
AcDbLine
10
-79.2545574636723
20
23.3011974988455
30
0.00000000000000
11
-79.2245574636723
21
23.3076723761323
31
0.00000000000000
  0
LINE
  5
F10490
330
F10491
100
AcDbEntity
8
Geo
100
AcDbLine
10
-79.2245574636723
20
23.3076723761323
30
0.00000000000000
11
-79.1945574636723
21
23.3139448181693
31
0.00000000000000
  0
LINE
  5
F10492
330
F10493
100
AcDbEntity
8
Geo
100
AcDbLine
10
-79.1945574636723
20
23.3139448181693
30
0.00000000000000
11
-79.1645574636723
21
23.3200186188869
31
0.00000000000000
  0
LINE
  5
F10494
330
F10495
100
AcDbEntity
8
Geo
100
AcDbLine
10
-79.1645574636723
20
23.3200186188869
30
0.00000000000000
11
-79.1345574636723
21
23.3259041434572
31
0.00000000000000
  0
LINE
  5
F10496
330
F10497
100
AcDbEntity
8
Geo
100
AcDbLine
10
-79.1345574636723
20
23.3259041434572
30
0.00000000000000
11
-79.1045574636723
21
23.3316235065717
31
0.00000000000000
  0
LINE
  5
F10498
330
F10499
100
AcDbEntity
8
Geo
100
AcDbLine
10
-79.1045574636723
20
23.3316235065717
30
0.00000000000000
11
-79.0745574636723
21
23.3372190089855
31
0.00000000000000
  0
LINE
  5
F1049A
330
F1049B
100
AcDbEntity
8
Geo
100
AcDbLine
10
-79.0745574636723
20
23.3372190089855
30
0.00000000000000
11
-79.0445574636723
21
23.3427662765336
31
0.00000000000000
  0
LINE
  5
F1049C
330
F1049D
100
AcDbEntity
8
Geo
100
AcDbLine
10
-79.0445574636723
20
23.3427662765336
30
0.00000000000000
11
-79.0145574636723
21
23.3483936524984
31
0.00000000000000
  0
LINE
  5
F1049E
330
F1049F
100
AcDbEntity
8
Geo
100
AcDbLine
10
-79.0145574636723
20
23.3483936524984
30
0.00000000000000
11
-78.9845574636723
21
23.3543087813618
31
0.00000000000000
  0
LINE
  5
F104A0
330
F104A1
100
AcDbEntity
8
Geo
100
AcDbLine
10
-78.9845574636723
20
23.3543087813618
30
0.00000000000000
11
-78.9545574636723
21
23.3608308335923
31
0.00000000000000
  0
LINE
  5
F104A2
330
F104A3
100
AcDbEntity
8
Geo
100
AcDbLine
10
-78.9545574636723
20
23.3608308335923
30
0.00000000000000
11
-78.9245574636723
21
23.3684199796292
31
0.00000000000000
  0
LINE
  5
F104A4
330
F104A5
100
AcDbEntity
8
Geo
100
AcDbLine
10
-78.9245574636723
20
23.3684199796292
30
0.00000000000000
11
-78.8945574636723
21
23.3776794263731
31
0.00000000000000
  0
LINE
  5
F104A6
330
F104A7
100
AcDbEntity
8
Geo
100
AcDbLine
10
-78.8945574636723
20
23.3776794263731
30
0.00000000000000
11
-78.8645574636723
21
23.3892693924963
31
0.00000000000000
  0
LINE
  5
F104A8
330
F104A9
100
AcDbEntity
8
Geo
100
AcDbLine
10
-78.8645574636723
20
23.3892693924963
30
0.00000000000000
11
-78.8345574636723
21
23.4035970141467
31
0.00000000000000
  0
LINE
  5
F104AA
330
F104AB
100
AcDbEntity
8
Geo
100
AcDbLine
10
-78.8345574636723
20
23.4035970141467
30
0.00000000000000
11
-78.8045574636723
21
23.4199943152292
31
0.00000000000000
  0
LINE
  5
F104AC
330
F104AD
100
AcDbEntity
8
Geo
100
AcDbLine
10
-78.8045574636723
20
23.4199943152292
30
0.00000000000000
11
-78.7745574636724
21
23.4348046424300
31
0.00000000000000
  0
LINE
  5
F104AE
330
F104AF
100
AcDbEntity
8
Geo
100
AcDbLine
10
-78.7745574636724
20
23.4348046424300
30
0.00000000000000
11
-78.7681991481854
21
23.4369432321594
31
0.00000000000000
  0
LINE
  5
F104B0
330
F104B1
100
AcDbEntity
8
Geo
100
AcDbLine
10
-79.7519757788991
20
23.1996917657419
30
0.00000000000000
11
-79.7345574636723
21
23.1809951410282
31
0.00000000000000
  0
LINE
  5
F104B2
330
F104B3
100
AcDbEntity
8
Geo
100
AcDbLine
10
-79.7345574636723
20
23.1809951410282
30
0.00000000000000
11
-79.7045574636723
21
23.1807817145177
31
0.00000000000000
  0
LINE
  5
F104B4
330
F104B5
100
AcDbEntity
8
Geo
100
AcDbLine
10
-79.7045574636723
20
23.1807817145177
30
0.00000000000000
11
-79.6745574636723
21
23.1803708115415
31
0.00000000000000
  0
LINE
  5
F104B6
330
F104B7
100
AcDbEntity
8
Geo
100
AcDbLine
10
-87.4445574636724
20
22.4443807137281
30
0.00000000000000
11
-87.4145574636724
21
22.4760285006289
31
0.00000000000000
  0
LINE
  5
F104B8
330
F104B9
100
AcDbEntity
8
Geo
100
AcDbLine
10
-87.4145574636724
20
22.4760285006289
30
0.00000000000000
11
-87.3845574636724
21
22.5082396678139
31
0.00000000000000
  0
LINE
  5
F104BA
330
F104BB
100
AcDbEntity
8
Geo
100
AcDbLine
10
-87.3845574636724
20
22.5082396678139
30
0.00000000000000
11
-87.3545574636724
21
22.5398407325201
31
0.00000000000000
  0
LINE
  5
F104BC
330
F104BD
100
AcDbEntity
8
Geo
100
AcDbLine
10
-87.3545574636724
20
22.5398407325201
30
0.00000000000000
11
-87.3245574636723
21
22.5705437612944
31
0.00000000000000
  0
LINE
  5
F104BE
330
F104BF
100
AcDbEntity
8
Geo
100
AcDbLine
10
-87.3245574636723
20
22.5705437612944
30
0.00000000000000
11
-87.2945574636723
21
22.6002731140746
31
0.00000000000000
  0
LINE
  5
F104C0
330
F104C1
100
AcDbEntity
8
Geo
100
AcDbLine
10
-87.2945574636723
20
22.6002731140746
30
0.00000000000000
11
-87.2645574636723
21
22.6290535312376
31
0.00000000000000
  0
LINE
  5
F104C2
330
F104C3
100
AcDbEntity
8
Geo
100
AcDbLine
10
-87.2645574636723
20
22.6290535312376
30
0.00000000000000
11
-87.2345574636723
21
22.6568798639625
31
0.00000000000000
  0
LINE
  5
F104C4
330
F104C5
100
AcDbEntity
8
Geo
100
AcDbLine
10
-87.2345574636723
20
22.6568798639625
30
0.00000000000000
11
-87.2045574636723
21
22.6837674698297
31
0.00000000000000
  0
LINE
  5
F104C6
330
F104C7
100
AcDbEntity
8
Geo
100
AcDbLine
10
-87.2045574636723
20
22.6837674698297
30
0.00000000000000
11
-87.1745574636723
21
22.7091209728687
31
0.00000000000000
  0
LINE
  5
F104C8
330
F104C9
100
AcDbEntity
8
Geo
100
AcDbLine
10
-87.1745574636723
20
22.7091209728687
30
0.00000000000000
11
-87.1445574636723
21
22.7326562343090
31
0.00000000000000
  0
LINE
  5
F104CA
330
F104CB
100
AcDbEntity
8
Geo
100
AcDbLine
10
-87.1445574636723
20
22.7326562343090
30
0.00000000000000
11
-87.1145574636723
21
22.7544910960761
31
0.00000000000000
  0
LINE
  5
F104CC
330
F104CD
100
AcDbEntity
8
Geo
100
AcDbLine
10
-87.1145574636723
20
22.7544910960761
30
0.00000000000000
11
-87.0845574636724
21
22.7747261404999
31
0.00000000000000
  0
LINE
  5
F104CE
330
F104CF
100
AcDbEntity
8
Geo
100
AcDbLine
10
-87.0845574636724
20
22.7747261404999
30
0.00000000000000
11
-87.0545574636724
21
22.7934480398405
31
0.00000000000000
  0
LINE
  5
F104D0
330
F104D1
100
AcDbEntity
8
Geo
100
AcDbLine
10
-87.0545574636724
20
22.7934480398405
30
0.00000000000000
11
-87.0245574636724
21
22.8107321250134
31
0.00000000000000
  0
LINE
  5
F104D2
330
F104D3
100
AcDbEntity
8
Geo
100
AcDbLine
10
-87.0245574636724
20
22.8107321250134
30
0.00000000000000
11
-86.9945574636724
21
22.8266443846021
31
0.00000000000000
  0
LINE
  5
F104D4
330
F104D5
100
AcDbEntity
8
Geo
100
AcDbLine
10
-86.9945574636724
20
22.8266443846021
30
0.00000000000000
11
-86.9645574636723
21
22.8412430410153
31
0.00000000000000
  0
LINE
  5
F104D6
330
F104D7
100
AcDbEntity
8
Geo
100
AcDbLine
10
-86.9645574636723
20
22.8412430410153
30
0.00000000000000
11
-86.9345574636723
21
22.8545798079444
31
0.00000000000000
  0
LINE
  5
F104D8
330
F104D9
100
AcDbEntity
8
Geo
100
AcDbLine
10
-86.9345574636723
20
22.8545798079444
30
0.00000000000000
11
-86.9045574636723
21
22.8667009042761
31
0.00000000000000
  0
LINE
  5
F104DA
330
F104DB
100
AcDbEntity
8
Geo
100
AcDbLine
10
-86.9045574636723
20
22.8667009042761
30
0.00000000000000
11
-86.8745574636723
21
22.8776478795437
31
0.00000000000000
  0
LINE
  5
F104DC
330
F104DD
100
AcDbEntity
8
Geo
100
AcDbLine
10
-86.8745574636723
20
22.8776478795437
30
0.00000000000000
11
-86.8445574636723
21
22.8874582918664
31
0.00000000000000
  0
LINE
  5
F104DE
330
F104DF
100
AcDbEntity
8
Geo
100
AcDbLine
10
-86.8445574636723
20
22.8874582918664
30
0.00000000000000
11
-86.8145574636723
21
22.8961662692109
31
0.00000000000000
  0
LINE
  5
F104E0
330
F104E1
100
AcDbEntity
8
Geo
100
AcDbLine
10
-86.8145574636723
20
22.8961662692109
30
0.00000000000000
11
-86.7845574636723
21
22.9038029774757
31
0.00000000000000
  0
LINE
  5
F104E2
330
F104E3
100
AcDbEntity
8
Geo
100
AcDbLine
10
-86.7845574636723
20
22.9038029774757
30
0.00000000000000
11
-86.7545574636723
21
22.9103970134966
31
0.00000000000000
  0
LINE
  5
F104E4
330
F104E5
100
AcDbEntity
8
Geo
100
AcDbLine
10
-86.7545574636723
20
22.9103970134966
30
0.00000000000000
11
-86.7245574636723
21
22.9159747370596
31
0.00000000000000
  0
LINE
  5
F104E6
330
F104E7
100
AcDbEntity
8
Geo
100
AcDbLine
10
-86.7245574636723
20
22.9159747370596
30
0.00000000000000
11
-86.6945574636724
21
22.9205605529803
31
0.00000000000000
  0
LINE
  5
F104E8
330
F104E9
100
AcDbEntity
8
Geo
100
AcDbLine
10
-86.6945574636724
20
22.9205605529803
30
0.00000000000000
11
-86.6645574636724
21
22.9241771520112
31
0.00000000000000
  0
LINE
  5
F104EA
330
F104EB
100
AcDbEntity
8
Geo
100
AcDbLine
10
-86.6645574636724
20
22.9241771520112
30
0.00000000000000
11
-86.6345574636724
21
22.9268457175716
31
0.00000000000000
  0
LINE
  5
F104EC
330
F104ED
100
AcDbEntity
8
Geo
100
AcDbLine
10
-86.6345574636724
20
22.9268457175716
30
0.00000000000000
11
-86.6045574636724
21
22.9285861039225
31
0.00000000000000
  0
LINE
  5
F104EE
330
F104EF
100
AcDbEntity
8
Geo
100
AcDbLine
10
-86.6045574636724
20
22.9285861039225
30
0.00000000000000
11
-86.5745574636723
21
22.9294169903458
31
0.00000000000000
  0
LINE
  5
F104F0
330
F104F1
100
AcDbEntity
8
Geo
100
AcDbLine
10
-86.5745574636723
20
22.9294169903458
30
0.00000000000000
11
-86.5445574636723
21
22.9293560150351
31
0.00000000000000
  0
LINE
  5
F104F2
330
F104F3
100
AcDbEntity
8
Geo
100
AcDbLine
10
-86.5445574636723
20
22.9293560150351
30
0.00000000000000
11
-86.5145574636723
21
22.9284198917444
31
0.00000000000000
  0
LINE
  5
F104F4
330
F104F5
100
AcDbEntity
8
Geo
100
AcDbLine
10
-86.5145574636723
20
22.9284198917444
30
0.00000000000000
11
-86.4845574636723
21
22.9266245116997
31
0.00000000000000
  0
LINE
  5
F104F6
330
F104F7
100
AcDbEntity
8
Geo
100
AcDbLine
10
-86.4845574636723
20
22.9266245116997
30
0.00000000000000
11
-86.4545574636723
21
22.9239850328508
31
0.00000000000000
  0
LINE
  5
F104F8
330
F104F9
100
AcDbEntity
8
Geo
100
AcDbLine
10
-86.4545574636723
20
22.9239850328508
30
0.00000000000000
11
-86.4245574636723
21
22.9205159581911
31
0.00000000000000
  0
LINE
  5
F104FA
330
F104FB
100
AcDbEntity
8
Geo
100
AcDbLine
10
-86.4245574636723
20
22.9205159581911
30
0.00000000000000
11
-86.3945574636723
21
22.9162312045855
31
0.00000000000000
  0
LINE
  5
F104FC
330
F104FD
100
AcDbEntity
8
Geo
100
AcDbLine
10
-86.3945574636723
20
22.9162312045855
30
0.00000000000000
11
-86.3645574636723
21
22.9111441633180
31
0.00000000000000
  0
LINE
  5
F104FE
330
F104FF
100
AcDbEntity
8
Geo
100
AcDbLine
10
-86.3645574636723
20
22.9111441633180
30
0.00000000000000
11
-86.3345574636723
21
22.9052677533711
31
0.00000000000000
  0
LINE
  5
F10500
330
F10501
100
AcDbEntity
8
Geo
100
AcDbLine
10
-86.3345574636723
20
22.9052677533711
30
0.00000000000000
11
-86.3045574636724
21
22.8986144682926
31
0.00000000000000
  0
LINE
  5
F10502
330
F10503
100
AcDbEntity
8
Geo
100
AcDbLine
10
-86.3045574636724
20
22.8986144682926
30
0.00000000000000
11
-86.2745574636724
21
22.8911964173698
31
0.00000000000000
  0
LINE
  5
F10504
330
F10505
100
AcDbEntity
8
Geo
100
AcDbLine
10
-86.2745574636724
20
22.8911964173698
30
0.00000000000000
11
-86.2445574636724
21
22.8830253617159
31
0.00000000000000
  0
LINE
  5
F10506
330
F10507
100
AcDbEntity
8
Geo
100
AcDbLine
10
-86.2445574636724
20
22.8830253617159
30
0.00000000000000
11
-86.2145574636723
21
22.8741127457782
31
0.00000000000000
  0
LINE
  5
F10508
330
F10509
100
AcDbEntity
8
Geo
100
AcDbLine
10
-86.2145574636723
20
22.8741127457782
30
0.00000000000000
11
-86.1845574636723
21
22.8644697246944
31
0.00000000000000
  0
LINE
  5
F1050A
330
F1050B
100
AcDbEntity
8
Geo
100
AcDbLine
10
-86.1845574636723
20
22.8644697246944
30
0.00000000000000
11
-86.1545574636723
21
22.8541071878505
31
0.00000000000000
  0
LINE
  5
F1050C
330
F1050D
100
AcDbEntity
8
Geo
100
AcDbLine
10
-86.1545574636723
20
22.8541071878505
30
0.00000000000000
11
-86.1245574636723
21
22.8433117386242
31
0.00000000000000
  0
LINE
  5
F1050E
330
F1050F
100
AcDbEntity
8
Geo
100
AcDbLine
10
-86.1245574636723
20
22.8433117386242
30
0.00000000000000
11
-86.0945574636723
21
22.8323638084291
31
0.00000000000000
  0
LINE
  5
F10510
330
F10511
100
AcDbEntity
8
Geo
100
AcDbLine
10
-86.0945574636723
20
22.8323638084291
30
0.00000000000000
11
-86.0645574636723
21
22.8212648569730
31
0.00000000000000
  0
LINE
  5
F10512
330
F10513
100
AcDbEntity
8
Geo
100
AcDbLine
10
-86.0645574636723
20
22.8212648569730
30
0.00000000000000
11
-86.0345574636723
21
22.8100163640996
31
0.00000000000000
  0
LINE
  5
F10514
330
F10515
100
AcDbEntity
8
Geo
100
AcDbLine
10
-86.0345574636723
20
22.8100163640996
30
0.00000000000000
11
-86.0045574636723
21
22.7986198295914
31
0.00000000000000
  0
LINE
  5
F10516
330
F10517
100
AcDbEntity
8
Geo
100
AcDbLine
10
-86.0045574636723
20
22.7986198295914
30
0.00000000000000
11
-85.9745574636723
21
22.7870767729694
31
0.00000000000000
  0
LINE
  5
F10518
330
F10519
100
AcDbEntity
8
Geo
100
AcDbLine
10
-85.9745574636723
20
22.7870767729694
30
0.00000000000000
11
-85.9445574636723
21
22.7753887332906
31
0.00000000000000
  0
LINE
  5
F1051A
330
F1051B
100
AcDbEntity
8
Geo
100
AcDbLine
10
-85.9445574636723
20
22.7753887332906
30
0.00000000000000
11
-85.9145574636724
21
22.7635572689432
31
0.00000000000000
  0
LINE
  5
F1051C
330
F1051D
100
AcDbEntity
8
Geo
100
AcDbLine
10
-85.9145574636724
20
22.7635572689432
30
0.00000000000000
11
-85.8845574636724
21
22.7515839574381
31
0.00000000000000
  0
LINE
  5
F1051E
330
F1051F
100
AcDbEntity
8
Geo
100
AcDbLine
10
-85.8845574636724
20
22.7515839574381
30
0.00000000000000
11
-85.8545574636724
21
22.7394703951990
31
0.00000000000000
  0
LINE
  5
F10520
330
F10521
100
AcDbEntity
8
Geo
100
AcDbLine
10
-85.8545574636724
20
22.7394703951990
30
0.00000000000000
11
-85.8245574636723
21
22.7272181973499
31
0.00000000000000
  0
LINE
  5
F10522
330
F10523
100
AcDbEntity
8
Geo
100
AcDbLine
10
-85.8245574636723
20
22.7272181973499
30
0.00000000000000
11
-85.7945574636723
21
22.7148289974987
31
0.00000000000000
  0
LINE
  5
F10524
330
F10525
100
AcDbEntity
8
Geo
100
AcDbLine
10
-85.7945574636723
20
22.7148289974987
30
0.00000000000000
11
-85.7645574636723
21
22.7023044475206
31
0.00000000000000
  0
LINE
  5
F10526
330
F10527
100
AcDbEntity
8
Geo
100
AcDbLine
10
-85.7645574636723
20
22.7023044475206
30
0.00000000000000
11
-85.7345574636723
21
22.6896462173369
31
0.00000000000000
  0
LINE
  5
F10528
330
F10529
100
AcDbEntity
8
Geo
100
AcDbLine
10
-85.7345574636723
20
22.6896462173369
30
0.00000000000000
11
-85.7045574636723
21
22.6768559946929
31
0.00000000000000
  0
LINE
  5
F1052A
330
F1052B
100
AcDbEntity
8
Geo
100
AcDbLine
10
-85.7045574636723
20
22.6768559946929
30
0.00000000000000
11
-85.6745574636723
21
22.6639354849326
31
0.00000000000000
  0
LINE
  5
F1052C
330
F1052D
100
AcDbEntity
8
Geo
100
AcDbLine
10
-85.6745574636723
20
22.6639354849326
30
0.00000000000000
11
-85.6445574636723
21
22.6508864107717
31
0.00000000000000
  0
LINE
  5
F1052E
330
F1052F
100
AcDbEntity
8
Geo
100
AcDbLine
10
-85.6445574636723
20
22.6508864107717
30
0.00000000000000
11
-85.6145574636723
21
22.6377105120673
31
0.00000000000000
  0
LINE
  5
F10530
330
F10531
100
AcDbEntity
8
Geo
100
AcDbLine
10
-85.6145574636723
20
22.6377105120673
30
0.00000000000000
11
-85.5845574636723
21
22.6244095455863
31
0.00000000000000
  0
LINE
  5
F10532
330
F10533
100
AcDbEntity
8
Geo
100
AcDbLine
10
-85.5845574636723
20
22.6244095455863
30
0.00000000000000
11
-85.5545574636724
21
22.6109852847713
31
0.00000000000000
  0
LINE
  5
F10534
330
F10535
100
AcDbEntity
8
Geo
100
AcDbLine
10
-85.5545574636724
20
22.6109852847713
30
0.00000000000000
11
-85.5245574636724
21
22.5974395195039
31
0.00000000000000
  0
LINE
  5
F10536
330
F10537
100
AcDbEntity
8
Geo
100
AcDbLine
10
-85.5245574636724
20
22.5974395195039
30
0.00000000000000
11
-85.4945574636724
21
22.5837740558659
31
0.00000000000000
  0
LINE
  5
F10538
330
F10539
100
AcDbEntity
8
Geo
100
AcDbLine
10
-85.4945574636724
20
22.5837740558659
30
0.00000000000000
11
-85.4645574636723
21
22.5699907158990
31
0.00000000000000
  0
LINE
  5
F1053A
330
F1053B
100
AcDbEntity
8
Geo
100
AcDbLine
10
-85.4645574636723
20
22.5699907158990
30
0.00000000000000
11
-85.4345574636723
21
22.5560913373614
31
0.00000000000000
  0
LINE
  5
F1053C
330
F1053D
100
AcDbEntity
8
Geo
100
AcDbLine
10
-85.4345574636723
20
22.5560913373614
30
0.00000000000000
11
-85.4045574636723
21
22.5420777734829
31
0.00000000000000
  0
LINE
  5
F1053E
330
F1053F
100
AcDbEntity
8
Geo
100
AcDbLine
10
-85.4045574636723
20
22.5420777734829
30
0.00000000000000
11
-85.3745574636723
21
22.5279518927181
31
0.00000000000000
  0
LINE
  5
F10540
330
F10541
100
AcDbEntity
8
Geo
100
AcDbLine
10
-85.3745574636723
20
22.5279518927181
30
0.00000000000000
11
-85.3445574636723
21
22.5137155784967
31
0.00000000000000
  0
LINE
  5
F10542
330
F10543
100
AcDbEntity
8
Geo
100
AcDbLine
10
-85.3445574636723
20
22.5137155784967
30
0.00000000000000
11
-85.3145574636723
21
22.4993707289730
31
0.00000000000000
  0
LINE
  5
F10544
330
F10545
100
AcDbEntity
8
Geo
100
AcDbLine
10
-85.3145574636723
20
22.4993707289730
30
0.00000000000000
11
-85.2845574636723
21
22.4849192567721
31
0.00000000000000
  0
LINE
  5
F10546
330
F10547
100
AcDbEntity
8
Geo
100
AcDbLine
10
-85.2845574636723
20
22.4849192567721
30
0.00000000000000
11
-85.2545574636723
21
22.4703630887358
31
0.00000000000000
  0
LINE
  5
F10548
330
F10549
100
AcDbEntity
8
Geo
100
AcDbLine
10
-85.2545574636723
20
22.4703630887358
30
0.00000000000000
11
-85.2245574636724
21
22.4557041656647
31
0.00000000000000
  0
LINE
  5
F1054A
330
F1054B
100
AcDbEntity
8
Geo
100
AcDbLine
10
-85.2245574636724
20
22.4557041656647
30
0.00000000000000
11
-85.1945574636724
21
22.4409444420604
31
0.00000000000000
  0
LINE
  5
F1054C
330
F1054D
100
AcDbEntity
8
Geo
100
AcDbLine
10
-85.1945574636724
20
22.4409444420604
30
0.00000000000000
11
-85.1645574636724
21
22.4260858858641
31
0.00000000000000
  0
LINE
  5
F1054E
330
F1054F
100
AcDbEntity
8
Geo
100
AcDbLine
10
-85.1645574636724
20
22.4260858858641
30
0.00000000000000
11
-85.1345574636724
21
22.4111304781945
31
0.00000000000000
  0
LINE
  5
F10550
330
F10551
100
AcDbEntity
8
Geo
100
AcDbLine
10
-85.1345574636724
20
22.4111304781945
30
0.00000000000000
11
-85.1045574636724
21
22.3960802130839
31
0.00000000000000
  0
LINE
  5
F10552
330
F10553
100
AcDbEntity
8
Geo
100
AcDbLine
10
-85.1045574636724
20
22.3960802130839
30
0.00000000000000
11
-85.0745574636723
21
22.3809370972120
31
0.00000000000000
  0
LINE
  5
F10554
330
F10555
100
AcDbEntity
8
Geo
100
AcDbLine
10
-85.0745574636723
20
22.3809370972120
30
0.00000000000000
11
-85.0445574636723
21
22.3657031496385
31
0.00000000000000
  0
LINE
  5
F10556
330
F10557
100
AcDbEntity
8
Geo
100
AcDbLine
10
-85.0445574636723
20
22.3657031496385
30
0.00000000000000
11
-85.0145574636723
21
22.3503804015338
31
0.00000000000000
  0
LINE
  5
F10558
330
F10559
100
AcDbEntity
8
Geo
100
AcDbLine
10
-85.0145574636723
20
22.3503804015338
30
0.00000000000000
11
-84.9845574636723
21
22.3349708959084
31
0.00000000000000
  0
LINE
  5
F1055A
330
F1055B
100
AcDbEntity
8
Geo
100
AcDbLine
10
-84.9845574636723
20
22.3349708959084
30
0.00000000000000
11
-84.9545574636723
21
22.3194766873400
31
0.00000000000000
  0
LINE
  5
F1055C
330
F1055D
100
AcDbEntity
8
Geo
100
AcDbLine
10
-84.9545574636723
20
22.3194766873400
30
0.00000000000000
11
-84.9245574636724
21
22.3038998417003
31
0.00000000000000
  0
LINE
  5
F1055E
330
F1055F
100
AcDbEntity
8
Geo
100
AcDbLine
10
-84.9245574636724
20
22.3038998417003
30
0.00000000000000
11
-84.8945574636724
21
22.2882424358790
31
0.00000000000000
  0
LINE
  5
F10560
330
F10561
100
AcDbEntity
8
Geo
100
AcDbLine
10
-84.8945574636724
20
22.2882424358790
30
0.00000000000000
11
-84.8645574636724
21
22.2725065575069
31
0.00000000000000
  0
LINE
  5
F10562
330
F10563
100
AcDbEntity
8
Geo
100
AcDbLine
10
-84.8645574636724
20
22.2725065575069
30
0.00000000000000
11
-84.8345574636724
21
22.2566943046778
31
0.00000000000000
  0
LINE
  5
F10564
330
F10565
100
AcDbEntity
8
Geo
100
AcDbLine
10
-84.8345574636724
20
22.2566943046778
30
0.00000000000000
11
-84.8045574636724
21
22.2408077856687
31
0.00000000000000
  0
LINE
  5
F10566
330
F10567
100
AcDbEntity
8
Geo
100
AcDbLine
10
-84.8045574636724
20
22.2408077856687
30
0.00000000000000
11
-84.7745574636724
21
22.2248491186586
31
0.00000000000000
  0
LINE
  5
F10568
330
F10569
100
AcDbEntity
8
Geo
100
AcDbLine
10
-84.7745574636724
20
22.2248491186586
30
0.00000000000000
11
-84.7445574636724
21
22.2088204314461
31
0.00000000000000
  0
LINE
  5
F1056A
330
F1056B
100
AcDbEntity
8
Geo
100
AcDbLine
10
-84.7445574636724
20
22.2088204314461
30
0.00000000000000
11
-84.7145574636723
21
22.1927238611658
31
0.00000000000000
  0
LINE
  5
F1056C
330
F1056D
100
AcDbEntity
8
Geo
100
AcDbLine
10
-84.7145574636723
20
22.1927238611658
30
0.00000000000000
11
-84.6845574636723
21
22.1765615540032
31
0.00000000000000
  0
LINE
  5
F1056E
330
F1056F
100
AcDbEntity
8
Geo
100
AcDbLine
10
-84.6845574636723
20
22.1765615540032
30
0.00000000000000
11
-84.6545574636723
21
22.1603356649086
31
0.00000000000000
  0
LINE
  5
F10570
330
F10571
100
AcDbEntity
8
Geo
100
AcDbLine
10
-84.6545574636723
20
22.1603356649086
30
0.00000000000000
11
-84.6245574636723
21
22.1440483573099
31
0.00000000000000
  0
LINE
  5
F10572
330
F10573
100
AcDbEntity
8
Geo
100
AcDbLine
10
-84.6245574636723
20
22.1440483573099
30
0.00000000000000
11
-84.5945574636724
21
22.1277018028239
31
0.00000000000000
  0
LINE
  5
F10574
330
F10575
100
AcDbEntity
8
Geo
100
AcDbLine
10
-84.5945574636724
20
22.1277018028239
30
0.00000000000000
11
-84.5645574636724
21
22.1112981809671
31
0.00000000000000
  0
LINE
  5
F10576
330
F10577
100
AcDbEntity
8
Geo
100
AcDbLine
10
-84.5645574636724
20
22.1112981809671
30
0.00000000000000
11
-84.5345574636724
21
22.0948396788647
31
0.00000000000000
  0
LINE
  5
F10578
330
F10579
100
AcDbEntity
8
Geo
100
AcDbLine
10
-84.5345574636724
20
22.0948396788647
30
0.00000000000000
11
-84.5045574636724
21
22.0783284909593
31
0.00000000000000
  0
LINE
  5
F1057A
330
F1057B
100
AcDbEntity
8
Geo
100
AcDbLine
10
-84.5045574636724
20
22.0783284909593
30
0.00000000000000
11
-84.4745574636724
21
22.0617668187182
31
0.00000000000000
  0
LINE
  5
F1057C
330
F1057D
100
AcDbEntity
8
Geo
100
AcDbLine
10
-84.4745574636724
20
22.0617668187182
30
0.00000000000000
11
-84.4445574636724
21
22.0451568703397
31
0.00000000000000
  0
LINE
  5
F1057E
330
F1057F
100
AcDbEntity
8
Geo
100
AcDbLine
10
-84.4445574636724
20
22.0451568703397
30
0.00000000000000
11
-84.4145574636724
21
22.0285008604591
31
0.00000000000000
  0
LINE
  5
F10580
330
F10581
100
AcDbEntity
8
Geo
100
AcDbLine
10
-84.4145574636724
20
22.0285008604591
30
0.00000000000000
11
-84.3845574636724
21
22.0118010098529
31
0.00000000000000
  0
LINE
  5
F10582
330
F10583
100
AcDbEntity
8
Geo
100
AcDbLine
10
-84.3845574636724
20
22.0118010098529
30
0.00000000000000
11
-84.3545574636724
21
21.9950595451433
31
0.00000000000000
  0
LINE
  5
F10584
330
F10585
100
AcDbEntity
8
Geo
100
AcDbLine
10
-84.3545574636724
20
21.9950595451433
30
0.00000000000000
11
-84.3245574636723
21
21.9782786985007
31
0.00000000000000
  0
LINE
  5
F10586
330
F10587
100
AcDbEntity
8
Geo
100
AcDbLine
10
-84.3245574636723
20
21.9782786985007
30
0.00000000000000
11
-84.2945574636723
21
21.9614607073464
31
0.00000000000000
  0
LINE
  5
F10588
330
F10589
100
AcDbEntity
8
Geo
100
AcDbLine
10
-84.2945574636723
20
21.9614607073464
30
0.00000000000000
11
-84.2645574636724
21
21.9446078140544
31
0.00000000000000
  0
LINE
  5
F1058A
330
F1058B
100
AcDbEntity
8
Geo
100
AcDbLine
10
-84.2645574636724
20
21.9446078140544
30
0.00000000000000
11
-84.2345574636724
21
21.9277222656521
31
0.00000000000000
  0
LINE
  5
F1058C
330
F1058D
100
AcDbEntity
8
Geo
100
AcDbLine
10
-84.2345574636724
20
21.9277222656521
30
0.00000000000000
11
-84.2045574636724
21
21.9108063135209
31
0.00000000000000
  0
LINE
  5
F1058E
330
F1058F
100
AcDbEntity
8
Geo
100
AcDbLine
10
-84.2045574636724
20
21.9108063135209
30
0.00000000000000
11
-84.1745574636724
21
21.8938622130962
31
0.00000000000000
  0
LINE
  5
F10590
330
F10591
100
AcDbEntity
8
Geo
100
AcDbLine
10
-84.1745574636724
20
21.8938622130962
30
0.00000000000000
11
-84.1445574636724
21
21.8768922235661
31
0.00000000000000
  0
LINE
  5
F10592
330
F10593
100
AcDbEntity
8
Geo
100
AcDbLine
10
-84.1445574636724
20
21.8768922235661
30
0.00000000000000
11
-84.1145574636724
21
21.8598986075708
31
0.00000000000000
  0
LINE
  5
F10594
330
F10595
100
AcDbEntity
8
Geo
100
AcDbLine
10
-84.1145574636724
20
21.8598986075708
30
0.00000000000000
11
-84.0845574636724
21
21.8428836309007
31
0.00000000000000
  0
LINE
  5
F10596
330
F10597
100
AcDbEntity
8
Geo
100
AcDbLine
10
-84.0845574636724
20
21.8428836309007
30
0.00000000000000
11
-84.0545574636724
21
21.8258495621940
31
0.00000000000000
  0
LINE
  5
F10598
330
F10599
100
AcDbEntity
8
Geo
100
AcDbLine
10
-84.0545574636724
20
21.8258495621940
30
0.00000000000000
11
-84.0245574636724
21
21.8087986726346
31
0.00000000000000
  0
LINE
  5
F1059A
330
F1059B
100
AcDbEntity
8
Geo
100
AcDbLine
10
-84.0245574636724
20
21.8087986726346
30
0.00000000000000
11
-83.9945574636724
21
21.7917332356493
31
0.00000000000000
  0
LINE
  5
F1059C
330
F1059D
100
AcDbEntity
8
Geo
100
AcDbLine
10
-83.9945574636724
20
21.7917332356493
30
0.00000000000000
11
-83.9645574636723
21
21.7746555266044
31
0.00000000000000
  0
LINE
  5
F1059E
330
F1059F
100
AcDbEntity
8
Geo
100
AcDbLine
10
-83.9645574636723
20
21.7746555266044
30
0.00000000000000
11
-83.9345574636724
21
21.7575678225025
31
0.00000000000000
  0
LINE
  5
F105A0
330
F105A1
100
AcDbEntity
8
Geo
100
AcDbLine
10
-83.9345574636724
20
21.7575678225025
30
0.00000000000000
11
-83.9045574636724
21
21.7404724016787
31
0.00000000000000
  0
LINE
  5
F105A2
330
F105A3
100
AcDbEntity
8
Geo
100
AcDbLine
10
-83.9045574636724
20
21.7404724016787
30
0.00000000000000
11
-83.8745574636724
21
21.7233715434971
31
0.00000000000000
  0
LINE
  5
F105A4
330
F105A5
100
AcDbEntity
8
Geo
100
AcDbLine
10
-83.8745574636724
20
21.7233715434971
30
0.00000000000000
11
-83.8445574636724
21
21.7062675280470
31
0.00000000000000
  0
LINE
  5
F105A6
330
F105A7
100
AcDbEntity
8
Geo
100
AcDbLine
10
-83.8445574636724
20
21.7062675280470
30
0.00000000000000
11
-83.8145574636724
21
21.6891626358383
31
0.00000000000000
  0
LINE
  5
F105A8
330
F105A9
100
AcDbEntity
8
Geo
100
AcDbLine
10
-83.8145574636724
20
21.6891626358383
30
0.00000000000000
11
-83.7845574636724
21
21.6720591474980
31
0.00000000000000
  0
LINE
  5
F105AA
330
F105AB
100
AcDbEntity
8
Geo
100
AcDbLine
10
-83.7845574636724
20
21.6720591474980
30
0.00000000000000
11
-83.7545574636724
21
21.6549593434659
31
0.00000000000000
  0
LINE
  5
F105AC
330
F105AD
100
AcDbEntity
8
Geo
100
AcDbLine
10
-83.7545574636724
20
21.6549593434659
30
0.00000000000000
11
-83.7245574636724
21
21.6378655036904
31
0.00000000000000
  0
LINE
  5
F105AE
330
F105AF
100
AcDbEntity
8
Geo
100
AcDbLine
10
-83.7245574636724
20
21.6378655036904
30
0.00000000000000
11
-83.6945574636724
21
21.6207799073250
31
0.00000000000000
  0
LINE
  5
F105B0
330
F105B1
100
AcDbEntity
8
Geo
100
AcDbLine
10
-83.6945574636724
20
21.6207799073250
30
0.00000000000000
11
-83.6645574636724
21
21.6037048324238
31
0.00000000000000
  0
LINE
  5
F105B2
330
F105B3
100
AcDbEntity
8
Geo
100
AcDbLine
10
-83.6645574636724
20
21.6037048324238
30
0.00000000000000
11
-83.6345574636724
21
21.5866425556381
31
0.00000000000000
  0
LINE
  5
F105B4
330
F105B5
100
AcDbEntity
8
Geo
100
AcDbLine
10
-83.6345574636724
20
21.5866425556381
30
0.00000000000000
11
-83.6045574636724
21
21.5695953519130
31
0.00000000000000
  0
LINE
  5
F105B6
330
F105B7
100
AcDbEntity
8
Geo
100
AcDbLine
10
-83.6045574636724
20
21.5695953519130
30
0.00000000000000
11
-83.5745574636724
21
21.5525654941837
31
0.00000000000000
  0
LINE
  5
F105B8
330
F105B9
100
AcDbEntity
8
Geo
100
AcDbLine
10
-83.5745574636724
20
21.5525654941837
30
0.00000000000000
11
-83.5445574636724
21
21.5355552530726
31
0.00000000000000
  0
LINE
  5
F105BA
330
F105BB
100
AcDbEntity
8
Geo
100
AcDbLine
10
-83.5445574636724
20
21.5355552530726
30
0.00000000000000
11
-83.5145574636724
21
21.5185668965867
31
0.00000000000000
  0
LINE
  5
F105BC
330
F105BD
100
AcDbEntity
8
Geo
100
AcDbLine
10
-83.5145574636724
20
21.5185668965867
30
0.00000000000000
11
-83.4845574636724
21
21.5016026898150
31
0.00000000000000
  0
LINE
  5
F105BE
330
F105BF
100
AcDbEntity
8
Geo
100
AcDbLine
10
-83.4845574636724
20
21.5016026898150
30
0.00000000000000
11
-83.4545574636724
21
21.4846648946267
31
0.00000000000000
  0
LINE
  5
F105C0
330
F105C1
100
AcDbEntity
8
Geo
100
AcDbLine
10
-83.4545574636724
20
21.4846648946267
30
0.00000000000000
11
-83.4245574636724
21
21.4677557693692
31
0.00000000000000
  0
LINE
  5
F105C2
330
F105C3
100
AcDbEntity
8
Geo
100
AcDbLine
10
-83.4245574636724
20
21.4677557693692
30
0.00000000000000
11
-83.3945574636724
21
21.4508775685677
31
0.00000000000000
  0
LINE
  5
F105C4
330
F105C5
100
AcDbEntity
8
Geo
100
AcDbLine
10
-83.3945574636724
20
21.4508775685677
30
0.00000000000000
11
-83.3645574636724
21
21.4340325426239
31
0.00000000000000
  0
LINE
  5
F105C6
330
F105C7
100
AcDbEntity
8
Geo
100
AcDbLine
10
-83.3645574636724
20
21.4340325426239
30
0.00000000000000
11
-83.3345574636724
21
21.4172229375162
31
0.00000000000000
  0
LINE
  5
F105C8
330
F105C9
100
AcDbEntity
8
Geo
100
AcDbLine
10
-83.3345574636724
20
21.4172229375162
30
0.00000000000000
11
-83.3045574636724
21
21.4004509945005
31
0.00000000000000
  0
LINE
  5
F105CA
330
F105CB
100
AcDbEntity
8
Geo
100
AcDbLine
10
-83.3045574636724
20
21.4004509945005
30
0.00000000000000
11
-83.2745574636724
21
21.3837189498110
31
0.00000000000000
  0
LINE
  5
F105CC
330
F105CD
100
AcDbEntity
8
Geo
100
AcDbLine
10
-83.2745574636724
20
21.3837189498110
30
0.00000000000000
11
-83.2445574636724
21
21.3670290343622
31
0.00000000000000
  0
LINE
  5
F105CE
330
F105CF
100
AcDbEntity
8
Geo
100
AcDbLine
10
-83.2445574636724
20
21.3670290343622
30
0.00000000000000
11
-83.2145574636723
21
21.3503834734514
31
0.00000000000000
  0
LINE
  5
F105D0
330
F105D1
100
AcDbEntity
8
Geo
100
AcDbLine
10
-83.2145574636723
20
21.3503834734514
30
0.00000000000000
11
-83.1845574636723
21
21.3337844864621
31
0.00000000000000
  0
LINE
  5
F105D2
330
F105D3
100
AcDbEntity
8
Geo
100
AcDbLine
10
-83.1845574636723
20
21.3337844864621
30
0.00000000000000
11
-83.1545574636723
21
21.3172342865679
31
0.00000000000000
  0
LINE
  5
F105D4
330
F105D5
100
AcDbEntity
8
Geo
100
AcDbLine
10
-83.1545574636723
20
21.3172342865679
30
0.00000000000000
11
-83.1245574636724
21
21.3007350804377
31
0.00000000000000
  0
LINE
  5
F105D6
330
F105D7
100
AcDbEntity
8
Geo
100
AcDbLine
10
-83.1245574636724
20
21.3007350804377
30
0.00000000000000
11
-83.0945574636724
21
21.2842890679411
31
0.00000000000000
  0
LINE
  5
F105D8
330
F105D9
100
AcDbEntity
8
Geo
100
AcDbLine
10
-83.0945574636724
20
21.2842890679411
30
0.00000000000000
11
-83.0645574636724
21
21.2678984418555
31
0.00000000000000
  0
LINE
  5
F105DA
330
F105DB
100
AcDbEntity
8
Geo
100
AcDbLine
10
-83.0645574636724
20
21.2678984418555
30
0.00000000000000
11
-83.0345574636724
21
21.2515653875734
31
0.00000000000000
  0
LINE
  5
F105DC
330
F105DD
100
AcDbEntity
8
Geo
100
AcDbLine
10
-83.0345574636724
20
21.2515653875734
30
0.00000000000000
11
-83.0045574636724
21
21.2352920828112
31
0.00000000000000
  0
LINE
  5
F105DE
330
F105DF
100
AcDbEntity
8
Geo
100
AcDbLine
10
-83.0045574636724
20
21.2352920828112
30
0.00000000000000
11
-82.9745574636724
21
21.2190806973187
31
0.00000000000000
  0
LINE
  5
F105E0
330
F105E1
100
AcDbEntity
8
Geo
100
AcDbLine
10
-82.9745574636724
20
21.2190806973187
30
0.00000000000000
11
-82.9445574636724
21
21.2029333925900
31
0.00000000000000
  0
LINE
  5
F105E2
330
F105E3
100
AcDbEntity
8
Geo
100
AcDbLine
10
-82.9445574636724
20
21.2029333925900
30
0.00000000000000
11
-82.9145574636724
21
21.1868523215751
31
0.00000000000000
  0
LINE
  5
F105E4
330
F105E5
100
AcDbEntity
8
Geo
100
AcDbLine
10
-82.9145574636724
20
21.1868523215751
30
0.00000000000000
11
-82.8845574636724
21
21.1708396283929
31
0.00000000000000
  0
LINE
  5
F105E6
330
F105E7
100
AcDbEntity
8
Geo
100
AcDbLine
10
-82.8845574636724
20
21.1708396283929
30
0.00000000000000
11
-82.8545574636724
21
21.1548974480457
31
0.00000000000000
  0
LINE
  5
F105E8
330
F105E9
100
AcDbEntity
8
Geo
100
AcDbLine
10
-82.8545574636724
20
21.1548974480457
30
0.00000000000000
11
-82.8245574636723
21
21.1390279061336
31
0.00000000000000
  0
LINE
  5
F105EA
330
F105EB
100
AcDbEntity
8
Geo
100
AcDbLine
10
-82.8245574636723
20
21.1390279061336
30
0.00000000000000
11
-82.7945574636723
21
21.1232331185723
31
0.00000000000000
  0
LINE
  5
F105EC
330
F105ED
100
AcDbEntity
8
Geo
100
AcDbLine
10
-82.7945574636723
20
21.1232331185723
30
0.00000000000000
11
-82.7645574636723
21
21.1075151913099
31
0.00000000000000
  0
LINE
  5
F105EE
330
F105EF
100
AcDbEntity
8
Geo
100
AcDbLine
10
-82.7645574636723
20
21.1075151913099
30
0.00000000000000
11
-82.7345574636723
21
21.0918762200468
31
0.00000000000000
  0
LINE
  5
F105F0
330
F105F1
100
AcDbEntity
8
Geo
100
AcDbLine
10
-82.7345574636723
20
21.0918762200468
30
0.00000000000000
11
-82.7045574636723
21
21.0763182899560
31
0.00000000000000
  0
LINE
  5
F105F2
330
F105F3
100
AcDbEntity
8
Geo
100
AcDbLine
10
-82.7045574636723
20
21.0763182899560
30
0.00000000000000
11
-82.6745574636724
21
21.0608434754051
31
0.00000000000000
  0
LINE
  5
F105F4
330
F105F5
100
AcDbEntity
8
Geo
100
AcDbLine
10
-82.6745574636724
20
21.0608434754051
30
0.00000000000000
11
-82.6445574636724
21
21.0454538396798
31
0.00000000000000
  0
LINE
  5
F105F6
330
F105F7
100
AcDbEntity
8
Geo
100
AcDbLine
10
-82.6445574636724
20
21.0454538396798
30
0.00000000000000
11
-82.6145574636724
21
21.0301514347088
31
0.00000000000000
  0
LINE
  5
F105F8
330
F105F9
100
AcDbEntity
8
Geo
100
AcDbLine
10
-82.6145574636724
20
21.0301514347088
30
0.00000000000000
11
-82.5845574636724
21
21.0149383007900
31
0.00000000000000
  0
LINE
  5
F105FA
330
F105FB
100
AcDbEntity
8
Geo
100
AcDbLine
10
-82.5845574636724
20
21.0149383007900
30
0.00000000000000
11
-82.5545574636724
21
20.9998164663187
31
0.00000000000000
  0
LINE
  5
F105FC
330
F105FD
100
AcDbEntity
8
Geo
100
AcDbLine
10
-82.5545574636724
20
20.9998164663187
30
0.00000000000000
11
-82.5245574636724
21
20.9847879475172
31
0.00000000000000
  0
LINE
  5
F105FE
330
F105FF
100
AcDbEntity
8
Geo
100
AcDbLine
10
-82.5245574636724
20
20.9847879475172
30
0.00000000000000
11
-82.4945574636724
21
20.9698547481657
31
0.00000000000000
  0
LINE
  5
F10600
330
F10601
100
AcDbEntity
8
Geo
100
AcDbLine
10
-82.4945574636724
20
20.9698547481657
30
0.00000000000000
11
-82.4645574636723
21
20.9550188593353
31
0.00000000000000
  0
LINE
  5
F10602
330
F10603
100
AcDbEntity
8
Geo
100
AcDbLine
10
-82.4645574636723
20
20.9550188593353
30
0.00000000000000
11
-82.4345574636723
21
20.9402822591225
31
0.00000000000000
  0
LINE
  5
F10604
330
F10605
100
AcDbEntity
8
Geo
100
AcDbLine
10
-82.4345574636723
20
20.9402822591225
30
0.00000000000000
11
-82.4045574636723
21
20.9256469123855
31
0.00000000000000
  0
LINE
  5
F10606
330
F10607
100
AcDbEntity
8
Geo
100
AcDbLine
10
-82.4045574636723
20
20.9256469123855
30
0.00000000000000
11
-82.3745574636723
21
20.9111147704823
31
0.00000000000000
  0
LINE
  5
F10608
330
F10609
100
AcDbEntity
8
Geo
100
AcDbLine
10
-82.3745574636723
20
20.9111147704823
30
0.00000000000000
11
-82.3445574636723
21
20.8966877710102
31
0.00000000000000
  0
LINE
  5
F1060A
330
F1060B
100
AcDbEntity
8
Geo
100
AcDbLine
10
-82.3445574636723
20
20.8966877710102
30
0.00000000000000
11
-82.3145574636723
21
20.8823678375478
31
0.00000000000000
  0
LINE
  5
F1060C
330
F1060D
100
AcDbEntity
8
Geo
100
AcDbLine
10
-82.3145574636723
20
20.8823678375478
30
0.00000000000000
11
-82.2845574636723
21
20.8681568793982
31
0.00000000000000
  0
LINE
  5
F1060E
330
F1060F
100
AcDbEntity
8
Geo
100
AcDbLine
10
-82.2845574636723
20
20.8681568793982
30
0.00000000000000
11
-82.2545574636723
21
20.8540567913350
31
0.00000000000000
  0
LINE
  5
F10610
330
F10611
100
AcDbEntity
8
Geo
100
AcDbLine
10
-82.2545574636723
20
20.8540567913350
30
0.00000000000000
11
-82.2245574636723
21
20.8400694533488
31
0.00000000000000
  0
LINE
  5
F10612
330
F10613
100
AcDbEntity
8
Geo
100
AcDbLine
10
-82.2245574636723
20
20.8400694533488
30
0.00000000000000
11
-82.1945574636723
21
20.8261967303975
31
0.00000000000000
  0
LINE
  5
F10614
330
F10615
100
AcDbEntity
8
Geo
100
AcDbLine
10
-82.1945574636723
20
20.8261967303975
30
0.00000000000000
11
-82.1645574636724
21
20.8124404721569
31
0.00000000000000
  0
LINE
  5
F10616
330
F10617
100
AcDbEntity
8
Geo
100
AcDbLine
10
-82.1645574636724
20
20.8124404721569
30
0.00000000000000
11
-82.1345574636724
21
20.7988025127743
31
0.00000000000000
  0
LINE
  5
F10618
330
F10619
100
AcDbEntity
8
Geo
100
AcDbLine
10
-82.1345574636724
20
20.7988025127743
30
0.00000000000000
11
-82.1045574636724
21
20.7852846706241
31
0.00000000000000
  0
LINE
  5
F1061A
330
F1061B
100
AcDbEntity
8
Geo
100
AcDbLine
10
-82.1045574636724
20
20.7852846706241
30
0.00000000000000
11
-82.0745574636723
21
20.7718887480652
31
0.00000000000000
  0
LINE
  5
F1061C
330
F1061D
100
AcDbEntity
8
Geo
100
AcDbLine
10
-82.0745574636723
20
20.7718887480652
30
0.00000000000000
11
-82.0445574636723
21
20.7586165312008
31
0.00000000000000
  0
LINE
  5
F1061E
330
F1061F
100
AcDbEntity
8
Geo
100
AcDbLine
10
-82.0445574636723
20
20.7586165312008
30
0.00000000000000
11
-82.0145574636723
21
20.7454697896403
31
0.00000000000000
  0
LINE
  5
F10620
330
F10621
100
AcDbEntity
8
Geo
100
AcDbLine
10
-82.0145574636723
20
20.7454697896403
30
0.00000000000000
11
-81.9845574636723
21
20.7324502762628
31
0.00000000000000
  0
LINE
  5
F10622
330
F10623
100
AcDbEntity
8
Geo
100
AcDbLine
10
-81.9845574636723
20
20.7324502762628
30
0.00000000000000
11
-81.9545574636723
21
20.7195597269844
31
0.00000000000000
  0
LINE
  5
F10624
330
F10625
100
AcDbEntity
8
Geo
100
AcDbLine
10
-81.9545574636723
20
20.7195597269844
30
0.00000000000000
11
-81.9245574636723
21
20.7067998605257
31
0.00000000000000
  0
LINE
  5
F10626
330
F10627
100
AcDbEntity
8
Geo
100
AcDbLine
10
-81.9245574636723
20
20.7067998605257
30
0.00000000000000
11
-81.8945574636723
21
20.6941723781835
31
0.00000000000000
  0
LINE
  5
F10628
330
F10629
100
AcDbEntity
8
Geo
100
AcDbLine
10
-81.8945574636723
20
20.6941723781835
30
0.00000000000000
11
-81.8645574636723
21
20.6816789636033
31
0.00000000000000
  0
LINE
  5
F1062A
330
F1062B
100
AcDbEntity
8
Geo
100
AcDbLine
10
-81.8645574636723
20
20.6816789636033
30
0.00000000000000
11
-81.8345574636723
21
20.6693212825552
31
0.00000000000000
  0
LINE
  5
F1062C
330
F1062D
100
AcDbEntity
8
Geo
100
AcDbLine
10
-81.8345574636723
20
20.6693212825552
30
0.00000000000000
11
-81.8045574636723
21
20.6571009827117
31
0.00000000000000
  0
LINE
  5
F1062E
330
F1062F
100
AcDbEntity
8
Geo
100
AcDbLine
10
-81.8045574636723
20
20.6571009827117
30
0.00000000000000
11
-81.7745574636723
21
20.6450196934281
31
0.00000000000000
  0
LINE
  5
F10630
330
F10631
100
AcDbEntity
8
Geo
100
AcDbLine
10
-81.7745574636723
20
20.6450196934281
30
0.00000000000000
11
-81.7445574636723
21
20.6330790255250
31
0.00000000000000
  0
LINE
  5
F10632
330
F10633
100
AcDbEntity
8
Geo
100
AcDbLine
10
-81.7445574636723
20
20.6330790255250
30
0.00000000000000
11
-81.7145574636723
21
20.6212805710737
31
0.00000000000000
  0
LINE
  5
F10634
330
F10635
100
AcDbEntity
8
Geo
100
AcDbLine
10
-81.7145574636723
20
20.6212805710737
30
0.00000000000000
11
-81.6845574636723
21
20.6096259031841
31
0.00000000000000
  0
LINE
  5
F10636
330
F10637
100
AcDbEntity
8
Geo
100
AcDbLine
10
-81.6845574636723
20
20.6096259031841
30
0.00000000000000
11
-81.6545574636723
21
20.5981165757946
31
0.00000000000000
  0
LINE
  5
F10638
330
F10639
100
AcDbEntity
8
Geo
100
AcDbLine
10
-81.6545574636723
20
20.5981165757946
30
0.00000000000000
11
-81.6245574636723
21
20.5867541234651
31
0.00000000000000
  0
LINE
  5
F1063A
330
F1063B
100
AcDbEntity
8
Geo
100
AcDbLine
10
-81.6245574636723
20
20.5867541234651
30
0.00000000000000
11
-81.5945574636723
21
20.5755400611725
31
0.00000000000000
  0
LINE
  5
F1063C
330
F1063D
100
AcDbEntity
8
Geo
100
AcDbLine
10
-81.5945574636723
20
20.5755400611725
30
0.00000000000000
11
-81.5645574636723
21
20.5644758841084
31
0.00000000000000
  0
LINE
  5
F1063E
330
F1063F
100
AcDbEntity
8
Geo
100
AcDbLine
10
-81.5645574636723
20
20.5644758841084
30
0.00000000000000
11
-81.5345574636723
21
20.5535630674801
31
0.00000000000000
  0
LINE
  5
F10640
330
F10641
100
AcDbEntity
8
Geo
100
AcDbLine
10
-81.5345574636723
20
20.5535630674801
30
0.00000000000000
11
-81.5045574636723
21
20.5428030663136
31
0.00000000000000
  0
LINE
  5
F10642
330
F10643
100
AcDbEntity
8
Geo
100
AcDbLine
10
-81.5045574636723
20
20.5428030663136
30
0.00000000000000
11
-81.4745574636723
21
20.5321973152597
31
0.00000000000000
  0
LINE
  5
F10644
330
F10645
100
AcDbEntity
8
Geo
100
AcDbLine
10
-81.4745574636723
20
20.5321973152597
30
0.00000000000000
11
-81.4445574636723
21
20.5217472284030
31
0.00000000000000
  0
LINE
  5
F10646
330
F10647
100
AcDbEntity
8
Geo
100
AcDbLine
10
-81.4445574636723
20
20.5217472284030
30
0.00000000000000
11
-81.4145574636723
21
20.5114541990729
31
0.00000000000000
  0
LINE
  5
F10648
330
F10649
100
AcDbEntity
8
Geo
100
AcDbLine
10
-81.4145574636723
20
20.5114541990729
30
0.00000000000000
11
-81.3845574636723
21
20.5013195996579
31
0.00000000000000
  0
LINE
  5
F1064A
330
F1064B
100
AcDbEntity
8
Geo
100
AcDbLine
10
-81.3845574636723
20
20.5013195996579
30
0.00000000000000
11
-81.3545574636723
21
20.4913447814231
31
0.00000000000000
  0
LINE
  5
F1064C
330
F1064D
100
AcDbEntity
8
Geo
100
AcDbLine
10
-81.3545574636723
20
20.4913447814231
30
0.00000000000000
11
-81.3245574636723
21
20.4815310743294
31
0.00000000000000
  0
LINE
  5
F1064E
330
F1064F
100
AcDbEntity
8
Geo
100
AcDbLine
10
-81.3245574636723
20
20.4815310743294
30
0.00000000000000
11
-81.2945574636723
21
20.4718797868565
31
0.00000000000000
  0
LINE
  5
F10650
330
F10651
100
AcDbEntity
8
Geo
100
AcDbLine
10
-81.2945574636723
20
20.4718797868565
30
0.00000000000000
11
-81.2645574636723
21
20.4623922058285
31
0.00000000000000
  0
LINE
  5
F10652
330
F10653
100
AcDbEntity
8
Geo
100
AcDbLine
10
-81.2645574636723
20
20.4623922058285
30
0.00000000000000
11
-81.2345574636723
21
20.4530695962421
31
0.00000000000000
  0
LINE
  5
F10654
330
F10655
100
AcDbEntity
8
Geo
100
AcDbLine
10
-81.2345574636723
20
20.4530695962421
30
0.00000000000000
11
-81.2045574636723
21
20.4439132010982
31
0.00000000000000
  0
LINE
  5
F10656
330
F10657
100
AcDbEntity
8
Geo
100
AcDbLine
10
-81.2045574636723
20
20.4439132010982
30
0.00000000000000
11
-81.1745574636723
21
20.4349242412358
31
0.00000000000000
  0
LINE
  5
F10658
330
F10659
100
AcDbEntity
8
Geo
100
AcDbLine
10
-81.1745574636723
20
20.4349242412358
30
0.00000000000000
11
-81.1445574636723
21
20.4261039151696
31
0.00000000000000
  0
LINE
  5
F1065A
330
F1065B
100
AcDbEntity
8
Geo
100
AcDbLine
10
-81.1445574636723
20
20.4261039151696
30
0.00000000000000
11
-81.1145574636723
21
20.4174533989300
31
0.00000000000000
  0
LINE
  5
F1065C
330
F1065D
100
AcDbEntity
8
Geo
100
AcDbLine
10
-81.1145574636723
20
20.4174533989300
30
0.00000000000000
11
-81.0845574636723
21
20.4089738459065
31
0.00000000000000
  0
LINE
  5
F1065E
330
F1065F
100
AcDbEntity
8
Geo
100
AcDbLine
10
-81.0845574636723
20
20.4089738459065
30
0.00000000000000
11
-81.0545574636723
21
20.4006663866933
31
0.00000000000000
  0
LINE
  5
F10660
330
F10661
100
AcDbEntity
8
Geo
100
AcDbLine
10
-81.0545574636723
20
20.4006663866933
30
0.00000000000000
11
-81.0245574636723
21
20.3925321289396
31
0.00000000000000
  0
LINE
  5
F10662
330
F10663
100
AcDbEntity
8
Geo
100
AcDbLine
10
-81.0245574636723
20
20.3925321289396
30
0.00000000000000
11
-80.9945574636723
21
20.3845721572010
31
0.00000000000000
  0
LINE
  5
F10664
330
F10665
100
AcDbEntity
8
Geo
100
AcDbLine
10
-80.9945574636723
20
20.3845721572010
30
0.00000000000000
11
-80.9645574636723
21
20.3767875327951
31
0.00000000000000
  0
LINE
  5
F10666
330
F10667
100
AcDbEntity
8
Geo
100
AcDbLine
10
-80.9645574636723
20
20.3767875327951
30
0.00000000000000
11
-80.9345574636723
21
20.3691792936605
31
0.00000000000000
  0
LINE
  5
F10668
330
F10669
100
AcDbEntity
8
Geo
100
AcDbLine
10
-80.9345574636723
20
20.3691792936605
30
0.00000000000000
11
-80.9045574636723
21
20.3617484542177
31
0.00000000000000
  0
LINE
  5
F1066A
330
F1066B
100
AcDbEntity
8
Geo
100
AcDbLine
10
-80.9045574636723
20
20.3617484542177
30
0.00000000000000
11
-80.8745574636723
21
20.3544960052343
31
0.00000000000000
  0
LINE
  5
F1066C
330
F1066D
100
AcDbEntity
8
Geo
100
AcDbLine
10
-80.8745574636723
20
20.3544960052343
30
0.00000000000000
11
-80.8445574636723
21
20.3474229136928
31
0.00000000000000
  0
LINE
  5
F1066E
330
F1066F
100
AcDbEntity
8
Geo
100
AcDbLine
10
-80.8445574636723
20
20.3474229136928
30
0.00000000000000
11
-80.8145574636723
21
20.3405301226615
31
0.00000000000000
  0
LINE
  5
F10670
330
F10671
100
AcDbEntity
8
Geo
100
AcDbLine
10
-80.8145574636723
20
20.3405301226615
30
0.00000000000000
11
-80.7845574636723
21
20.3338185511690
31
0.00000000000000
  0
LINE
  5
F10672
330
F10673
100
AcDbEntity
8
Geo
100
AcDbLine
10
-80.7845574636723
20
20.3338185511690
30
0.00000000000000
11
-80.7545574636723
21
20.3272890940817
31
0.00000000000000
  0
LINE
  5
F10674
330
F10675
100
AcDbEntity
8
Geo
100
AcDbLine
10
-80.7545574636723
20
20.3272890940817
30
0.00000000000000
11
-80.7245574636723
21
20.3209426219841
31
0.00000000000000
  0
LINE
  5
F10676
330
F10677
100
AcDbEntity
8
Geo
100
AcDbLine
10
-80.7245574636723
20
20.3209426219841
30
0.00000000000000
11
-80.6945574636723
21
20.3147799810630
31
0.00000000000000
  0
LINE
  5
F10678
330
F10679
100
AcDbEntity
8
Geo
100
AcDbLine
10
-80.6945574636723
20
20.3147799810630
30
0.00000000000000
11
-80.6645574636723
21
20.3088019929949
31
0.00000000000000
  0
LINE
  5
F1067A
330
F1067B
100
AcDbEntity
8
Geo
100
AcDbLine
10
-80.6645574636723
20
20.3088019929949
30
0.00000000000000
11
-80.6345574636723
21
20.3030094548359
31
0.00000000000000
  0
LINE
  5
F1067C
330
F1067D
100
AcDbEntity
8
Geo
100
AcDbLine
10
-80.6345574636723
20
20.3030094548359
30
0.00000000000000
11
-80.6045574636723
21
20.2974031389159
31
0.00000000000000
  0
LINE
  5
F1067E
330
F1067F
100
AcDbEntity
8
Geo
100
AcDbLine
10
-80.6045574636723
20
20.2974031389159
30
0.00000000000000
11
-80.5745574636723
21
20.2919837927353
31
0.00000000000000
  0
LINE
  5
F10680
330
F10681
100
AcDbEntity
8
Geo
100
AcDbLine
10
-80.5745574636723
20
20.2919837927353
30
0.00000000000000
11
-80.5445574636723
21
20.2867521388656
31
0.00000000000000
  0
LINE
  5
F10682
330
F10683
100
AcDbEntity
8
Geo
100
AcDbLine
10
-80.5445574636723
20
20.2867521388656
30
0.00000000000000
11
-80.5145574636723
21
20.2817088748530
31
0.00000000000000
  0
LINE
  5
F10684
330
F10685
100
AcDbEntity
8
Geo
100
AcDbLine
10
-80.5145574636723
20
20.2817088748530
30
0.00000000000000
11
-80.4845574636723
21
20.2768546731251
31
0.00000000000000
  0
LINE
  5
F10686
330
F10687
100
AcDbEntity
8
Geo
100
AcDbLine
10
-80.4845574636723
20
20.2768546731251
30
0.00000000000000
11
-80.4545574636723
21
20.2721901809017
31
0.00000000000000
  0
LINE
  5
F10688
330
F10689
100
AcDbEntity
8
Geo
100
AcDbLine
10
-80.4545574636723
20
20.2721901809017
30
0.00000000000000
11
-80.4245574636723
21
20.2677160201081
31
0.00000000000000
  0
LINE
  5
F1068A
330
F1068B
100
AcDbEntity
8
Geo
100
AcDbLine
10
-80.4245574636723
20
20.2677160201081
30
0.00000000000000
11
-80.3945574636723
21
20.2634327872924
31
0.00000000000000
  0
LINE
  5
F1068C
330
F1068D
100
AcDbEntity
8
Geo
100
AcDbLine
10
-80.3945574636723
20
20.2634327872924
30
0.00000000000000
11
-80.3645574636723
21
20.2593410535462
31
0.00000000000000
  0
LINE
  5
F1068E
330
F1068F
100
AcDbEntity
8
Geo
100
AcDbLine
10
-80.3645574636723
20
20.2593410535462
30
0.00000000000000
11
-80.3345574636723
21
20.2554413644277
31
0.00000000000000
  0
LINE
  5
F10690
330
F10691
100
AcDbEntity
8
Geo
100
AcDbLine
10
-80.3345574636723
20
20.2554413644277
30
0.00000000000000
11
-80.3045574636723
21
20.2517342398897
31
0.00000000000000
  0
LINE
  5
F10692
330
F10693
100
AcDbEntity
8
Geo
100
AcDbLine
10
-80.3045574636723
20
20.2517342398897
30
0.00000000000000
11
-80.2745574636723
21
20.2482201742101
31
0.00000000000000
  0
LINE
  5
F10694
330
F10695
100
AcDbEntity
8
Geo
100
AcDbLine
10
-80.2745574636723
20
20.2482201742101
30
0.00000000000000
11
-80.2445574636723
21
20.2448996359257
31
0.00000000000000
  0
LINE
  5
F10696
330
F10697
100
AcDbEntity
8
Geo
100
AcDbLine
10
-80.2445574636723
20
20.2448996359257
30
0.00000000000000
11
-80.2145574636723
21
20.2417730677701
31
0.00000000000000
  0
LINE
  5
F10698
330
F10699
100
AcDbEntity
8
Geo
100
AcDbLine
10
-80.2145574636723
20
20.2417730677701
30
0.00000000000000
11
-80.1845574636723
21
20.2388408866143
31
0.00000000000000
  0
LINE
  5
F1069A
330
F1069B
100
AcDbEntity
8
Geo
100
AcDbLine
10
-80.1845574636723
20
20.2388408866143
30
0.00000000000000
11
-80.1545574636723
21
20.2361034834115
31
0.00000000000000
  0
LINE
  5
F1069C
330
F1069D
100
AcDbEntity
8
Geo
100
AcDbLine
10
-80.1545574636723
20
20.2361034834115
30
0.00000000000000
11
-80.1245574636723
21
20.2335612231448
31
0.00000000000000
  0
LINE
  5
F1069E
330
F1069F
100
AcDbEntity
8
Geo
100
AcDbLine
10
-80.1245574636723
20
20.2335612231448
30
0.00000000000000
11
-80.0945574636723
21
20.2312144447783
31
0.00000000000000
  0
LINE
  5
F106A0
330
F106A1
100
AcDbEntity
8
Geo
100
AcDbLine
10
-80.0945574636723
20
20.2312144447783
30
0.00000000000000
11
-80.0645574636723
21
20.2290634612125
31
0.00000000000000
  0
LINE
  5
F106A2
330
F106A3
100
AcDbEntity
8
Geo
100
AcDbLine
10
-80.0645574636723
20
20.2290634612125
30
0.00000000000000
11
-80.0345574636723
21
20.2271085592419
31
0.00000000000000
  0
LINE
  5
F106A4
330
F106A5
100
AcDbEntity
8
Geo
100
AcDbLine
10
-80.0345574636723
20
20.2271085592419
30
0.00000000000000
11
-80.0045574636723
21
20.2253499995173
31
0.00000000000000
  0
LINE
  5
F106A6
330
F106A7
100
AcDbEntity
8
Geo
100
AcDbLine
10
-80.0045574636723
20
20.2253499995173
30
0.00000000000000
11
-79.9745574636723
21
20.2237880165106
31
0.00000000000000
  0
LINE
  5
F106A8
330
F106A9
100
AcDbEntity
8
Geo
100
AcDbLine
10
-79.9745574636723
20
20.2237880165106
30
0.00000000000000
11
-79.9445574636723
21
20.2224228184840
31
0.00000000000000
  0
LINE
  5
F106AA
330
F106AB
100
AcDbEntity
8
Geo
100
AcDbLine
10
-79.9445574636723
20
20.2224228184840
30
0.00000000000000
11
-79.9145574636723
21
20.2212545874618
31
0.00000000000000
  0
LINE
  5
F106AC
330
F106AD
100
AcDbEntity
8
Geo
100
AcDbLine
10
-79.9145574636723
20
20.2212545874618
30
0.00000000000000
11
-79.8845574636723
21
20.2202834792064
31
0.00000000000000
  0
LINE
  5
F106AE
330
F106AF
100
AcDbEntity
8
Geo
100
AcDbLine
10
-79.8845574636723
20
20.2202834792064
30
0.00000000000000
11
-79.8545574636723
21
20.2195096231975
31
0.00000000000000
  0
LINE
  5
F106B0
330
F106B1
100
AcDbEntity
8
Geo
100
AcDbLine
10
-79.8545574636723
20
20.2195096231975
30
0.00000000000000
11
-79.8245574636723
21
20.2189331226148
31
0.00000000000000
  0
LINE
  5
F106B2
330
F106B3
100
AcDbEntity
8
Geo
100
AcDbLine
10
-79.8245574636723
20
20.2189331226148
30
0.00000000000000
11
-79.7945574636723
21
20.2185540543242
31
0.00000000000000
  0
LINE
  5
F106B4
330
F106B5
100
AcDbEntity
8
Geo
100
AcDbLine
10
-79.7945574636723
20
20.2185540543242
30
0.00000000000000
11
-79.7645574636723
21
20.2183724688674
31
0.00000000000000
  0
LINE
  5
F106B6
330
F106B7
100
AcDbEntity
8
Geo
100
AcDbLine
10
-79.7645574636723
20
20.2183724688674
30
0.00000000000000
11
-79.7519757788991
21
20.1996917657419
31
0.00000000000000
  0
LINE
  5
F106B8
330
F106B9
100
AcDbEntity
8
Geo
100
AcDbLine
10
-27.6545574636723
20
24.0996917657419
30
0.00000000000000
11
-27.6545574636723
21
21.6996917657419
31
0.00000000000000
  0
ARC
  5
F106BA
330
F106BB
100
AcDbEntity
8
Geo
100
AcDbCircle
10
-86.1545574636723
20
21.6996917657419
30
0.00000000000000
 40
1.50000000000000
100
AcDbArc
 50
180.000000000000
 51
270.000000000000
  0
LINE
  5
F106BC
330
F106BD
100
AcDbEntity
8
Geo
100
AcDbLine
10
-86.1545574636723
20
20.1996917657419
30
0.00000000000000
11
-79.6545574636723
21
20.1996917657419
31
0.00000000000000
  0
LINE
  5
F106BE
330
F106BF
100
AcDbEntity
8
Geo
100
AcDbLine
10
-79.6545574636723
20
20.1996917657419
30
0.00000000000000
11
-79.6536336750257
21
20.1996917657419
31
0.00000000000000
  0
LINE
  5
F106C0
330
F106C1
100
AcDbEntity
8
Geo
100
AcDbLine
10
-79.6536336750257
20
20.1996917657419
30
0.00000000000000
11
-74.0555574636723
21
18.6996917657419
31
0.00000000000000
  0
LINE
  5
F106C2
330
F106C3
100
AcDbEntity
8
Geo
100
AcDbLine
10
-74.0555574636723
20
18.6996917657419
30
0.00000000000000
11
-28.2545574636723
21
18.6996917657419
31
0.00000000000000
  0
LINE
  5
F106C4
330
F106C5
100
AcDbEntity
8
Geo
100
AcDbLine
10
-28.2545574636723
20
18.6996917657419
30
0.00000000000000
11
-27.6545574636723
21
19.2996917657419
31
0.00000000000000
  0
LINE
  5
F106C6
330
F106C7
100
AcDbEntity
8
Geo
100
AcDbLine
10
-86.1545574636723
20
23.1996917657419
30
0.00000000000000
11
-86.1545574636723
21
20.1996917657419
31
0.00000000000000
  0
LINE
  5
F106C8
330
F106C9
100
AcDbEntity
8
Geo
100
AcDbLine
10
-79.6545574636723
20
23.1996917657419
30
0.00000000000000
11
-79.6545574636723
21
20.1996917657419
31
0.00000000000000
  0
LINE
  5
F106CA
330
F106CB
100
AcDbEntity
8
Geo
100
AcDbLine
10
-79.6545574636723
20
23.1996917657419
30
0.00000000000000
11
-79.6545574636723
21
20.1996917657419
31
0.00000000000000
  0
LINE
  5
F106CC
330
F106CD
100
AcDbEntity
8
Geo
100
AcDbLine
10
-79.6536336750257
20
23.1996917657419
30
0.00000000000000
11
-79.6536336750257
21
20.1996917657419
31
0.00000000000000
  0
LINE
  5
F106CE
330
F106CF
100
AcDbEntity
8
Geo
100
AcDbLine
10
-74.0555574636723
20
24.6996917657419
30
0.00000000000000
11
-74.0555574636723
21
18.6996917657419
31
0.00000000000000
  0
LINE
  5
F106D0
330
F106D1
100
AcDbEntity
8
Geo
100
AcDbLine
10
-74.0555574636723
20
24.6996917657419
30
0.00000000000000
11
-74.0555574636723
21
18.6996917657419
31
0.00000000000000
  0
LINE
  5
F106D2
330
F106D3
100
AcDbEntity
8
Geo
100
AcDbLine
10
-28.2545574636723
20
24.6996917657419
30
0.00000000000000
11
-28.2545574636723
21
18.6996917657419
31
0.00000000000000
  0
LINE
  5
F106D4
330
F106D5
100
AcDbEntity
8
Geo
100
AcDbLine
10
-27.6545574636723
20
24.0996917657419
30
0.00000000000000
11
-27.6545574636723
21
19.2996917657419
31
0.00000000000000
  0
LINE
  5
F106D6
330
F106D7
100
AcDbEntity
8
Geo
 6
Dashdot
100
AcDbLine
10
-87.6545574636723
20
21.6996917657419
30
0.00000000000000
11
-27.6545574636723
21
21.6996917657419
31
0.00000000000000
0
VIEWPORT
5
294
102
{ACAD_XDICTIONARY
360
58A
102
}
330
25D
100
AcDbEntity
67
1
8
0
60
1
100
AcDbViewport
10
0.0
20
0.0
30
0.0
40
10.0
41
10.0
68
-1
69
1
12
0.0
22
0.0
13
0.0
23
0.0
14
1.0
24
1.0
15
0.0
25
0.0
16
0.0
26
0.0
36
1.0
17
0.0
27
0.0
37
0.0
42
0.0
43
0.0
44
0.0
45
10.0
50
0.0
51
0.0000000000007958
72
100
90
32800
1

281
0
71
0
74
0
110
0.0
120
0.0
130
0.0
111
1.0
121
0.0
131
0.0
112
0.0
122
1.0
132
0.0
79
0
146
0.0
1001
VD_INVISIBLE_NOT_FOR_READ
1000
VD_INVISIBLE_NOT_FOR_READ
0
VIEWPORT
5
295
102
{ACAD_XDICTIONARY
360
58C
102
}
330
25D
100
AcDbEntity
67
1
8
0
60
1
100
AcDbViewport
10
0.0
20
0.0
30
0.0
40
10.0
41
10.0
68
0
69
2
12
0.0
22
0.0
13
0.0
23
0.0
14
1.0
24
1.0
15
0.0
25
0.0
16
0.0
26
0.0
36
1.0
17
0.0
27
0.0
37
0.0
42
0.0
43
0.0
44
0.0
45
10.0
50
0.0
51
0.0000000000007958
72
100
90
163872
1

281
0
71
0
74
0
110
0.0
120
0.0
130
0.0
111
1.0
121
0.0
131
0.0
112
0.0
122
1.0
132
0.0
79
0
146
0.0
1001
VD_INVISIBLE_NOT_FOR_READ
1000
VD_INVISIBLE_NOT_FOR_READ
0
ENDSEC
0
SECTION
2
OBJECTS
0
DICTIONARY
5
13
330
0
100
AcDbDictionary
281
1
3
ACAD_COLOR
350
FA7
3
ACAD_GROUP
350
14
3
ACAD_LAYOUT
350
FCF
3
ACAD_MATERIAL
350
F7A
3
ACAD_MLEADERSTYLE
350
FCD
3
ACAD_MLINESTYLE
350
16
3
ACAD_PLOTSETTINGS
350
17
3
ACAD_PLOTSTYLENAME
350
18
3
ACAD_SCALELIST
350
FAB
3
ACAD_TABLESTYLE
350
FA8
3
ACAD_VISUALSTYLE
350
F93
3
ACDB_RECOMPOSE_DATA
350
107E
3
AcDbVariableDictionary
350
FF0
3
DWGPROPS
350
107F
0
DICTIONARY
5
FA7
102
{ACAD_REACTORS
330
13
102
}
330
13
100
AcDbDictionary
281
1
0
DICTIONARY
5
14
330
13
100
AcDbDictionary
281
1
0
DICTIONARY
5
FCF
102
{ACAD_REACTORS
330
13
102
}
330
13
100
AcDbDictionary
281
1
3
Layout1
350
FD1
3
Model
350
FD0
0
DICTIONARY
5
F7A
102
{ACAD_REACTORS
330
13
102
}
330
13
100
AcDbDictionary
281
1
3
ByBlock
350
F83
3
ByLayer
350
F7B
3
Global
350
F8B
0
DICTIONARY
5
FCD
102
{ACAD_REACTORS
330
13
102
}
330
13
100
AcDbDictionary
281
1
3
Standard
350
FCE
0
DICTIONARY
5
16
330
13
100
AcDbDictionary
281
1
3
Standard
350
FAA
0
DICTIONARY
5
17
102
{ACAD_REACTORS
330
13
102
}
330
13
100
AcDbDictionary
281
1
0
ACDBDICTIONARYWDFLT
5
18
102
{ACAD_REACTORS
330
13
102
}
330
13
100
AcDbDictionary
281
1
3
Normal
350
19
100
AcDbDictionaryWithDefault
340
19
0
DICTIONARY
5
FAB
102
{ACAD_REACTORS
330
13
102
}
330
13
100
AcDbDictionary
281
1
3
A0
350
FAC
3
A1
350
FAD
3
A2
350
FAE
3
A3
350
FAF
3
A4
350
FB0
3
A5
350
FB1
3
A6
350
FB2
3
A7
350
FB3
3
A8
350
FB4
3
A9
350
FB5
3
B0
350
FB6
3
B1
350
FB7
3
B2
350
FB8
3
B3
350
FB9
3
B4
350
FBA
3
B5
350
FBB
3
B6
350
FBC
3
B7
350
FBD
3
B8
350
FBE
3
B9
350
FBF
3
C0
350
FC0
3
C1
350
FC1
3
C2
350
FC2
3
C3
350
FC3
3
C4
350
FC4
3
C5
350
FC5
3
C6
350
FC6
3
C7
350
FC7
3
C8
350
FC8
3
C9
350
FC9
3
D0
350
FCA
3
D1
350
FCB
3
D2
350
FCC
0
DICTIONARY
5
FA8
102
{ACAD_REACTORS
330
13
102
}
330
13
100
AcDbDictionary
281
1
3
Standard
350
FA9
0
DICTIONARY
5
F93
102
{ACAD_REACTORS
330
13
102
}
330
13
100
AcDbDictionary
281
1
3
2dWireframe
350
F99
3
3D Hidden
350
F9B
3
3dWireframe
350
F9A
3
Basic
350
F98
3
Brighten
350
F9F
3
ColorChange
350
FA3
3
Conceptual
350
F9C
3
Dim
350
F9E
3
EdgeColorOff
350
FA6
3
Facepattern
350
FA2
3
Flat
350
F94
3
FlatWithEdges
350
F95
3
Gouraud
350
F96
3
GouraudWithEdges
350
F97
3
JitterOff
350
FA4
3
Linepattern
350
FA1
3
OverhangOff
350
FA5
3
Realistic
350
F9D
3
Thicken
350
FA0
0
XRECORD
5
107E
102
{ACAD_REACTORS
330
13
102
}
330
13
100
AcDbXrecord
280
1
90
1
330
FA9
0
DICTIONARY
5
FF0
102
{ACAD_REACTORS
330
13
102
}
330
13
100
AcDbDictionary
281
1
3
CANNOSCALE
350
FF3
3
CMLEADERSTYLE
350
FF2
3
CTABLESTYLE
350
FF1
3
DIMASSOC
350
FF6
3
INDEXCTL
350
FF5
3
SORTENTS
350
FF4
3
XCLIPFRAME
350
1078
0
XRECORD
5
107F
102
{ACAD_REACTORS
330
13
102
}
330
13
100
AcDbXrecord
280
1
1
DWGPROPS COOKIE
2

3

4

6

7

8

9

300
=
301
=
302
=
303
=
304
=
305
=
306
=
307
=
308
=
309
=
40
0.0
41
0.0
42
0.0
1

90
0
0
LAYOUT
5
FD1
102
{ACAD_XDICTIONARY
360
10A9
102
}
102
{ACAD_REACTORS
330
FCF
102
}
330
FCF
100
AcDbPlotSettings
1

2
Microsoft XPS Document Writer
4

6

40
0.0
41
0.0
42
0.0
43
0.0
44
0.0
45
0.0
46
0.0
47
0.0
48
0.0
49
0.0
140
0.0
141
0.0
142
1.0
143
1.0
70
688
72
0
73
0
74
5
7

75
16
147
1.0
148
0.0
149
0.0
100
AcDbLayout
1
Layout1
70
1
71
1
10
0.0
20
0.0
11
12.0
21
9.0
12
0.0
22
0.0
32
0.0
14
1.000000000000000E+20
24
1.000000000000000E+20
34
1.000000000000000E+20
15
-1.000000000000000E+20
25
-1.000000000000000E+20
35
-1.000000000000000E+20
146
0.0
13
0.0
23
0.0
33
0.0
16
1.0
26
0.0
36
0.0
17
0.0
27
1.0
37
0.0
76
0
330
25D
0
LAYOUT
5
FD0
102
{ACAD_XDICTIONARY
360
10A7
102
}
102
{ACAD_REACTORS
330
FCF
102
}
330
FCF
100
AcDbPlotSettings
1

2
Microsoft XPS Document Writer
4

6

40
0.0
41
0.0
42
0.0
43
0.0
44
0.0
45
0.0
46
0.0
47
0.0
48
0.0
49
0.0
140
0.0
141
0.0
142
1.0
143
1.0
70
1712
72
0
73
0
74
0
7

75
0
147
1.0
148
0.0
149
0.0
100
AcDbLayout
1
Model
70
1
71
0
10
0.0
20
0.0
11
12.0
21
9.0
12
0.0
22
0.0
32
0.0
14
0.0
24
0.0
34
0.0
15
0.0
25
0.0
35
0.0
146
0.0
13
0.0
23
0.0
33
0.0
16
1.0
26
0.0
36
0.0
17
0.0
27
1.0
37
0.0
76
0
330
261
331
26B
0
MATERIAL
5
F83
102
{ACAD_XDICTIONARY
360
F84
102
}
102
{ACAD_REACTORS
330
F7A
102
}
330
F7A
100
AcDbMaterial
1
ByBlock
72
0
43
0.0208333333333333
43
0.0
43
0.0
43
0.0
43
0.0
43
0.0208333333333333
43
0.0
43
0.0
43
0.0
43
0.0
43
1.0
43
0.0
43
0.0
43
0.0
43
0.0
43
1.0
77
0
47
0.0208333333333333
47
0.0
47
0.0
47
0.0
47
0.0
47
0.0208333333333333
47
0.0
47
0.0
47
0.0
47
0.0
47
1.0
47
0.0
47
0.0
47
0.0
47
0.0
47
1.0
171
0
49
0.0208333333333333
49
0.0
49
0.0
49
0.0
49
0.0
49
0.0208333333333333
49
0.0
49
0.0
49
0.0
49
0.0
49
1.0
49
0.0
49
0.0
49
0.0
49
0.0
49
1.0
175
0
142
0.0208333333333333
142
0.0
142
0.0
142
0.0
142
0.0
142
0.0208333333333333
142
0.0
142
0.0
142
0.0
142
0.0
142
1.0
142
0.0
142
0.0
142
0.0
142
0.0
142
1.0
179
0
144
0.0208333333333333
144
0.0
144
0.0
144
0.0
144
0.0
144
0.0208333333333333
144
0.0
144
0.0
144
0.0
144
0.0
144
1.0
144
0.0
144
0.0
144
0.0
144
0.0
144
1.0
147
0.0208333333333333
147
0.0
147
0.0
147
0.0
147
0.0
147
0.0208333333333333
147
0.0
147
0.0
147
0.0
147
0.0
147
1.0
147
0.0
147
0.0
147
0.0
147
0.0
147
1.0
0
MATERIAL
5
F7B
102
{ACAD_XDICTIONARY
360
F7C
102
}
102
{ACAD_REACTORS
330
F7A
102
}
330
F7A
100
AcDbMaterial
1
ByLayer
72
0
43
0.0208333333333333
43
0.0
43
0.0
43
0.0
43
0.0
43
0.0208333333333333
43
0.0
43
0.0
43
0.0
43
0.0
43
1.0
43
0.0
43
0.0
43
0.0
43
0.0
43
1.0
77
0
47
0.0208333333333333
47
0.0
47
0.0
47
0.0
47
0.0
47
0.0208333333333333
47
0.0
47
0.0
47
0.0
47
0.0
47
1.0
47
0.0
47
0.0
47
0.0
47
0.0
47
1.0
171
0
49
0.0208333333333333
49
0.0
49
0.0
49
0.0
49
0.0
49
0.0208333333333333
49
0.0
49
0.0
49
0.0
49
0.0
49
1.0
49
0.0
49
0.0
49
0.0
49
0.0
49
1.0
175
0
142
0.0208333333333333
142
0.0
142
0.0
142
0.0
142
0.0
142
0.0208333333333333
142
0.0
142
0.0
142
0.0
142
0.0
142
1.0
142
0.0
142
0.0
142
0.0
142
0.0
142
1.0
179
0
144
0.0208333333333333
144
0.0
144
0.0
144
0.0
144
0.0
144
0.0208333333333333
144
0.0
144
0.0
144
0.0
144
0.0
144
1.0
144
0.0
144
0.0
144
0.0
144
0.0
144
1.0
147
0.0208333333333333
147
0.0
147
0.0
147
0.0
147
0.0
147
0.0208333333333333
147
0.0
147
0.0
147
0.0
147
0.0
147
1.0
147
0.0
147
0.0
147
0.0
147
0.0
147
1.0
0
MATERIAL
5
F8B
102
{ACAD_XDICTIONARY
360
F8C
102
}
102
{ACAD_REACTORS
330
F7A
102
}
330
F7A
100
AcDbMaterial
1
Global
72
0
43
0.0208333333333333
43
0.0
43
0.0
43
0.0
43
0.0
43
0.0208333333333333
43
0.0
43
0.0
43
0.0
43
0.0
43
1.0
43
0.0
43
0.0
43
0.0
43
0.0
43
1.0
77
0
47
0.0208333333333333
47
0.0
47
0.0
47
0.0
47
0.0
47
0.0208333333333333
47
0.0
47
0.0
47
0.0
47
0.0
47
1.0
47
0.0
47
0.0
47
0.0
47
0.0
47
1.0
171
0
49
0.0208333333333333
49
0.0
49
0.0
49
0.0
49
0.0
49
0.0208333333333333
49
0.0
49
0.0
49
0.0
49
0.0
49
1.0
49
0.0
49
0.0
49
0.0
49
0.0
49
1.0
175
0
142
0.0208333333333333
142
0.0
142
0.0
142
0.0
142
0.0
142
0.0208333333333333
142
0.0
142
0.0
142
0.0
142
0.0
142
1.0
142
0.0
142
0.0
142
0.0
142
0.0
142
1.0
179
0
144
0.0208333333333333
144
0.0
144
0.0
144
0.0
144
0.0
144
0.0208333333333333
144
0.0
144
0.0
144
0.0
144
0.0
144
1.0
144
0.0
144
0.0
144
0.0
144
0.0
144
1.0
147
0.0208333333333333
147
0.0
147
0.0
147
0.0
147
0.0
147
0.0208333333333333
147
0.0
147
0.0
147
0.0
147
0.0
147
1.0
147
0.0
147
0.0
147
0.0
147
0.0
147
1.0
0
MLEADERSTYLE
5
FCE
102
{ACAD_REACTORS
330
FCD
102
}
330
FCD
100
AcDbMLeaderStyle
170
2
171
1
172
0
90
2
40
0.0
41
0.0
173
1
91
-1056964608
340
256
92
-2
290
1
42
0.09
291
1
43
0.36
3
Standard
44
0.18
300

342
253
174
1
178
6
175
1
176
0
93
-1056964608
45
0.18
292
0
297
0
46
0.18
94
-1056964608
47
1.0
49
1.0
140
1.0
293
1
141
0.0
294
1
177
0
142
1.0
295
0
296
0
143
0.125
1001
ACAD_MLEADERVER
1070
2
0
MLINESTYLE
5
FAA
102
{ACAD_REACTORS
330
16
102
}
330
16
100
AcDbMlineStyle
2
STANDARD
70
0
3

62
256
51
90.0
52
90.0
71
2
49
0.5
62
256
6
BYLAYER
49
-0.5
62
256
6
BYLAYER
0
ACDBPLACEHOLDER
5
19
102
{ACAD_REACTORS
330
18
102
}
330
18
0
SCALE
5
FAC
102
{ACAD_REACTORS
330
FAB
102
}
330
FAB
100
AcDbScale
70
0
300
1:1
140
1.0
141
1.0
290
1
0
SCALE
5
FAD
102
{ACAD_REACTORS
330
FAB
102
}
330
FAB
100
AcDbScale
70
0
300
1:2
140
1.0
141
2.0
290
0
0
SCALE
5
FAE
102
{ACAD_REACTORS
330
FAB
102
}
330
FAB
100
AcDbScale
70
0
300
1:4
140
1.0
141
4.0
290
0
0
SCALE
5
FAF
102
{ACAD_REACTORS
330
FAB
102
}
330
FAB
100
AcDbScale
70
0
300
1:5
140
1.0
141
5.0
290
0
0
SCALE
5
FB0
102
{ACAD_REACTORS
330
FAB
102
}
330
FAB
100
AcDbScale
70
0
300
1:8
140
1.0
141
8.0
290
0
0
SCALE
5
FB1
102
{ACAD_REACTORS
330
FAB
102
}
330
FAB
100
AcDbScale
70
0
300
1:10
140
1.0
141
10.0
290
0
0
SCALE
5
FB2
102
{ACAD_REACTORS
330
FAB
102
}
330
FAB
100
AcDbScale
70
0
300
1:16
140
1.0
141
16.0
290
0
0
SCALE
5
FB3
102
{ACAD_REACTORS
330
FAB
102
}
330
FAB
100
AcDbScale
70
0
300
1:20
140
1.0
141
20.0
290
0
0
SCALE
5
FB4
102
{ACAD_REACTORS
330
FAB
102
}
330
FAB
100
AcDbScale
70
0
300
1:30
140
1.0
141
30.0
290
0
0
SCALE
5
FB5
102
{ACAD_REACTORS
330
FAB
102
}
330
FAB
100
AcDbScale
70
0
300
1:40
140
1.0
141
40.0
290
0
0
SCALE
5
FB6
102
{ACAD_REACTORS
330
FAB
102
}
330
FAB
100
AcDbScale
70
0
300
1:50
140
1.0
141
50.0
290
0
0
SCALE
5
FB7
102
{ACAD_REACTORS
330
FAB
102
}
330
FAB
100
AcDbScale
70
0
300
1:100
140
1.0
141
100.0
290
0
0
SCALE
5
FB8
102
{ACAD_REACTORS
330
FAB
102
}
330
FAB
100
AcDbScale
70
0
300
2:1
140
2.0
141
1.0
290
0
0
SCALE
5
FB9
102
{ACAD_REACTORS
330
FAB
102
}
330
FAB
100
AcDbScale
70
0
300
4:1
140
4.0
141
1.0
290
0
0
SCALE
5
FBA
102
{ACAD_REACTORS
330
FAB
102
}
330
FAB
100
AcDbScale
70
0
300
8:1
140
8.0
141
1.0
290
0
0
SCALE
5
FBB
102
{ACAD_REACTORS
330
FAB
102
}
330
FAB
100
AcDbScale
70
0
300
10:1
140
10.0
141
1.0
290
0
0
SCALE
5
FBC
102
{ACAD_REACTORS
330
FAB
102
}
330
FAB
100
AcDbScale
70
0
300
100:1
140
100.0
141
1.0
290
0
0
SCALE
5
FBD
102
{ACAD_REACTORS
330
FAB
102
}
330
FAB
100
AcDbScale
70
0
300
1/128" = 1'-0"
140
0.0078125
141
12.0
290
0
0
SCALE
5
FBE
102
{ACAD_REACTORS
330
FAB
102
}
330
FAB
100
AcDbScale
70
0
300
1/64" = 1'-0"
140
0.015625
141
12.0
290
0
0
SCALE
5
FBF
102
{ACAD_REACTORS
330
FAB
102
}
330
FAB
100
AcDbScale
70
0
300
1/32" = 1'-0"
140
0.03125
141
12.0
290
0
0
SCALE
5
FC0
102
{ACAD_REACTORS
330
FAB
102
}
330
FAB
100
AcDbScale
70
0
300
1/16" = 1'-0"
140
0.0625
141
12.0
290
0
0
SCALE
5
FC1
102
{ACAD_REACTORS
330
FAB
102
}
330
FAB
100
AcDbScale
70
0
300
3/32" = 1'-0"
140
0.09375
141
12.0
290
0
0
SCALE
5
FC2
102
{ACAD_REACTORS
330
FAB
102
}
330
FAB
100
AcDbScale
70
0
300
1/8" = 1'-0"
140
0.125
141
12.0
290
0
0
SCALE
5
FC3
102
{ACAD_REACTORS
330
FAB
102
}
330
FAB
100
AcDbScale
70
0
300
3/16" = 1'-0"
140
0.1875
141
12.0
290
0
0
SCALE
5
FC4
102
{ACAD_REACTORS
330
FAB
102
}
330
FAB
100
AcDbScale
70
0
300
1/4" = 1'-0"
140
0.25
141
12.0
290
0
0
SCALE
5
FC5
102
{ACAD_REACTORS
330
FAB
102
}
330
FAB
100
AcDbScale
70
0
300
3/8" = 1'-0"
140
0.375
141
12.0
290
0
0
SCALE
5
FC6
102
{ACAD_REACTORS
330
FAB
102
}
330
FAB
100
AcDbScale
70
0
300
1/2" = 1'-0"
140
0.5
141
12.0
290
0
0
SCALE
5
FC7
102
{ACAD_REACTORS
330
FAB
102
}
330
FAB
100
AcDbScale
70
0
300
3/4" = 1'-0"
140
0.75
141
12.0
290
0
0
SCALE
5
FC8
102
{ACAD_REACTORS
330
FAB
102
}
330
FAB
100
AcDbScale
70
0
300
1" = 1'-0"
140
1.0
141
12.0
290
0
0
SCALE
5
FC9
102
{ACAD_REACTORS
330
FAB
102
}
330
FAB
100
AcDbScale
70
0
300
1-1/2" = 1'-0"
140
1.5
141
12.0
290
0
0
SCALE
5
FCA
102
{ACAD_REACTORS
330
FAB
102
}
330
FAB
100
AcDbScale
70
0
300
3" = 1'-0"
140
3.0
141
12.0
290
0
0
SCALE
5
FCB
102
{ACAD_REACTORS
330
FAB
102
}
330
FAB
100
AcDbScale
70
0
300
6" = 1'-0"
140
6.0
141
12.0
290
0
0
SCALE
5
FCC
102
{ACAD_REACTORS
330
FAB
102
}
330
FAB
100
AcDbScale
70
0
300
1'-0" = 1'-0"
140
12.0
141
12.0
290
0
0
TABLESTYLE
5
FA9
102
{ACAD_XDICTIONARY
360
FF8
102
}
102
{ACAD_REACTORS
330
FA8
102
}
330
FA8
100
AcDbTableStyle
3
Standard
70
0
71
0
40
0.06
41
0.06
280
0
281
0
7
Standard
140
0.18
170
2
62
0
63
7
283
0
274
-2
284
1
64
0
275
-2
285
1
65
0
276
-2
286
1
66
0
277
-2
287
1
67
0
278
-2
288
1
68
0
279
-2
289
1
69
0
7
Standard
140
0.25
170
5
62
0
63
7
283
0
274
-2
284
1
64
0
275
-2
285
1
65
0
276
-2
286
1
66
0
277
-2
287
1
67
0
278
-2
288
1
68
0
279
-2
289
1
69
0
7
Standard
140
0.18
170
5
62
0
63
7
283
0
274
-2
284
1
64
0
275
-2
285
1
65
0
276
-2
286
1
66
0
277
-2
287
1
67
0
278
-2
288
1
68
0
279
-2
289
1
69
0
0
VISUALSTYLE
5
F99
102
{ACAD_XDICTIONARY
360
108A
102
}
102
{ACAD_REACTORS
330
F93
102
}
330
F93
100
AcDbVisualStyle
2

70
4
71
0
72
2
73
0
90
0
40
-0.6
41
-30.0
62
5
63
7
74
1
91
4
64
7
65
257
75
1
175
1
42
1.0
92
0
66
257
43
1.0
76
1
77
6
78
2
67
7
79
5
170
0
171
0
290
0
174
0
93
1
44
0.0
173
0
291
0
45
0.0
1001
ACAD
1000
AcDbSavedByObjectVersion
1070
0
0
VISUALSTYLE
5
F9B
102
{ACAD_XDICTIONARY
360
108E
102
}
102
{ACAD_REACTORS
330
F93
102
}
330
F93
100
AcDbVisualStyle
2

70
6
71
1
72
2
73
2
90
0
40
-0.6
41
-30.0
62
5
63
7
74
2
91
2
64
7
65
257
75
2
175
1
42
179.0
92
0
66
257
43
1.0
76
1
77
6
78
2
67
7
79
3
170
0
171
0
290
0
174
0
93
1
44
0.0
173
0
291
0
45
0.0
1001
ACAD
1000
AcDbSavedByObjectVersion
1070
0
0
VISUALSTYLE
5
F9A
102
{ACAD_XDICTIONARY
360
108C
102
}
102
{ACAD_REACTORS
330
F93
102
}
330
F93
100
AcDbVisualStyle
2

70
5
71
0
72
2
73
0
90
0
40
-0.6
41
-30.0
62
5
63
7
74
1
91
4
64
7
65
257
75
1
175
1
42
1.0
92
0
66
257
43
1.0
76
1
77
6
78
2
67
7
79
5
170
0
171
0
290
0
174
0
93
1
44
0.0
173
0
291
0
45
0.0
1001
ACAD
1000
AcDbSavedByObjectVersion
1070
0
0
VISUALSTYLE
5
F98
102
{ACAD_XDICTIONARY
360
1088
102
}
102
{ACAD_REACTORS
330
F93
102
}
330
F93
100
AcDbVisualStyle
2

70
7
71
1
72
0
73
1
90
0
40
-0.6
41
-30.0
62
5
63
7
74
0
91
4
64
7
65
257
75
1
175
1
42
1.0
92
8
66
7
43
1.0
76
1
77
6
78
2
67
7
79
5
170
0
171
0
290
0
174
0
93
1
44
0.0
173
0
291
1
45
0.0
1001
ACAD
1000
AcDbSavedByObjectVersion
1070
0
0
VISUALSTYLE
5
F9F
102
{ACAD_XDICTIONARY
360
1096
102
}
102
{ACAD_REACTORS
330
F93
102
}
330
F93
100
AcDbVisualStyle
2

70
12
71
2
72
2
73
0
90
0
40
-0.6
41
-30.0
62
5
63
7
74
1
91
4
64
7
65
257
75
1
175
1
42
1.0
92
8
66
7
43
1.0
76
1
77
6
78
2
67
7
79
5
170
0
171
0
290
0
174
0
93
1
44
50.0
173
0
291
1
45
0.0
1001
ACAD
1000
AcDbSavedByObjectVersion
1070
0
0
VISUALSTYLE
5
FA3
102
{ACAD_XDICTIONARY
360
109E
102
}
102
{ACAD_REACTORS
330
F93
102
}
330
F93
100
AcDbVisualStyle
2

70
16
71
2
72
2
73
3
90
0
40
-0.6
41
-30.0
62
5
63
8
74
1
91
4
64
7
65
257
75
1
175
1
42
1.0
92
8
66
8
43
1.0
76
1
77
6
78
2
67
7
79
5
170
0
171
0
290
0
174
0
93
1
44
0.0
173
0
291
1
45
0.0
1001
ACAD
1000
AcDbSavedByObjectVersion
1070
0
0
VISUALSTYLE
5
F9C
102
{ACAD_XDICTIONARY
360
1090
102
}
102
{ACAD_REACTORS
330
F93
102
}
330
F93
100
AcDbVisualStyle
2

70
9
71
3
72
2
73
0
90
0
40
-0.6
41
-30.0
62
5
63
7
74
2
91
2
64
7
65
257
75
1
175
1
42
179.0
92
8
66
7
43
1.0
76
1
77
6
78
2
67
7
79
3
170
0
171
0
290
0
174
0
93
1
44
0.0
173
0
291
0
45
0.0
1001
ACAD
1000
AcDbSavedByObjectVersion
1070
0
0
VISUALSTYLE
5
F9E
102
{ACAD_XDICTIONARY
360
1094
102
}
102
{ACAD_REACTORS
330
F93
102
}
330
F93
100
AcDbVisualStyle
2

70
11
71
2
72
2
73
0
90
0
40
-0.6
41
-30.0
62
5
63
7
74
1
91
4
64
7
65
257
75
1
175
1
42
1.0
92
8
66
7
43
1.0
76
1
77
6
78
2
67
7
79
5
170
0
171
0
290
0
174
0
93
1
44
-50.0
173
0
291
1
45
0.0
1001
ACAD
1000
AcDbSavedByObjectVersion
1070
0
0
VISUALSTYLE
5
FA6
102
{ACAD_XDICTIONARY
360
10A4
102
}
102
{ACAD_REACTORS
330
F93
102
}
330
F93
100
AcDbVisualStyle
2

70
22
71
2
72
2
73
0
90
0
40
-0.6
41
-30.0
62
5
63
7
74
1
91
4
64
7
65
257
75
1
175
1
42
1.0
92
8
66
7
43
1.0
76
1
77
6
78
2
67
7
79
5
170
0
171
0
290
0
174
0
93
1
44
0.0
173
0
291
1
45
0.0
1001
ACAD
1000
AcDbSavedByObjectVersion
1070
0
0
VISUALSTYLE
5
FA2
102
{ACAD_XDICTIONARY
360
109C
102
}
102
{ACAD_REACTORS
330
F93
102
}
330
F93
100
AcDbVisualStyle
2

70
15
71
2
72
2
73
0
90
0
40
-0.6
41
-30.0
62
5
63
7
74
1
91
4
64
7
65
257
75
1
175
1
42
1.0
92
8
66
7
43
1.0
76
1
77
6
78
2
67
7
79
5
170
0
171
0
290
0
174
0
93
1
44
0.0
173
0
291
1
45
0.0
1001
ACAD
1000
AcDbSavedByObjectVersion
1070
0
0
VISUALSTYLE
5
F94
102
{ACAD_XDICTIONARY
360
1080
102
}
102
{ACAD_REACTORS
330
F93
102
}
330
F93
100
AcDbVisualStyle
2

70
0
71
2
72
1
73
1
90
2
40
-0.6
41
30.0
62
5
63
7
74
0
91
4
64
7
65
257
75
1
175
1
42
1.0
92
8
66
7
43
1.0
76
1
77
6
78
2
67
7
79
5
170
0
171
0
290
0
174
0
93
13
44
0.0
173
0
291
1
45
0.0
1001
ACAD
1000
AcDbSavedByObjectVersion
1070
0
0
VISUALSTYLE
5
F95
102
{ACAD_XDICTIONARY
360
1082
102
}
102
{ACAD_REACTORS
330
F93
102
}
330
F93
100
AcDbVisualStyle
2

70
1
71
2
72
1
73
1
90
2
40
-0.6
41
30.0
62
5
63
7
74
1
91
4
64
7
65
257
75
1
175
1
42
1.0
92
0
66
257
43
1.0
76
1
77
6
78
2
67
7
79
5
170
0
171
0
290
0
174
0
93
13
44
0.0
173
0
291
1
45
0.0
1001
ACAD
1000
AcDbSavedByObjectVersion
1070
0
0
VISUALSTYLE
5
F96
102
{ACAD_XDICTIONARY
360
1084
102
}
102
{ACAD_REACTORS
330
F93
102
}
330
F93
100
AcDbVisualStyle
2

70
2
71
2
72
2
73
1
90
2
40
-0.6
41
30.0
62
5
63
7
74
0
91
4
64
7
65
257
75
1
175
1
42
1.0
92
0
66
7
43
1.0
76
1
77
6
78
2
67
7
79
5
170
0
171
0
290
0
174
0
93
13
44
0.0
173
0
291
1
45
0.0
1001
ACAD
1000
AcDbSavedByObjectVersion
1070
0
0
VISUALSTYLE
5
F97
102
{ACAD_XDICTIONARY
360
1086
102
}
102
{ACAD_REACTORS
330
F93
102
}
330
F93
100
AcDbVisualStyle
2

70
3
71
2
72
2
73
1
90
2
40
-0.6
41
30.0
62
5
63
7
74
1
91
4
64
7
65
257
75
1
175
1
42
1.0
92
0
66
257
43
1.0
76
1
77
6
78
2
67
7
79
5
170
0
171
0
290
0
174
0
93
13
44
0.0
173
0
291
1
45
0.0
1001
ACAD
1000
AcDbSavedByObjectVersion
1070
0
0
VISUALSTYLE
5
FA4
102
{ACAD_XDICTIONARY
360
10A0
102
}
102
{ACAD_REACTORS
330
F93
102
}
330
F93
100
AcDbVisualStyle
2

70
20
71
2
72
2
73
0
90
0
40
-0.6
41
-30.0
62
5
63
7
74
1
91
4
64
7
65
257
75
1
175
1
42
1.0
92
10
66
7
43
1.0
76
1
77
6
78
2
67
7
79
5
170
0
171
0
290
0
174
0
93
1
44
0.0
173
0
291
1
45
0.0
1001
ACAD
1000
AcDbSavedByObjectVersion
1070
0
0
VISUALSTYLE
5
FA1
102
{ACAD_XDICTIONARY
360
109A
102
}
102
{ACAD_REACTORS
330
F93
102
}
330
F93
100
AcDbVisualStyle
2

70
14
71
2
72
2
73
0
90
0
40
-0.6
41
-30.0
62
5
63
7
74
1
91
4
64
7
65
257
75
7
175
7
42
1.0
92
8
66
7
43
1.0
76
1
77
6
78
2
67
7
79
5
170
0
171
0
290
0
174
0
93
1
44
0.0
173
0
291
1
45
0.0
1001
ACAD
1000
AcDbSavedByObjectVersion
1070
0
0
VISUALSTYLE
5
FA5
102
{ACAD_XDICTIONARY
360
10A2
102
}
102
{ACAD_REACTORS
330
F93
102
}
330
F93
100
AcDbVisualStyle
2

70
21
71
2
72
2
73
0
90
0
40
-0.6
41
-30.0
62
5
63
7
74
1
91
4
64
7
65
257
75
1
175
1
42
1.0
92
9
66
7
43
1.0
76
1
77
6
78
2
67
7
79
5
170
0
171
0
290
0
174
0
93
1
44
0.0
173
0
291
1
45
0.0
1001
ACAD
1000
AcDbSavedByObjectVersion
1070
0
0
VISUALSTYLE
5
F9D
102
{ACAD_XDICTIONARY
360
1092
102
}
102
{ACAD_REACTORS
330
F93
102
}
330
F93
100
AcDbVisualStyle
2

70
8
71
2
72
2
73
0
90
0
40
-0.6
41
-30.0
62
5
63
7
74
1
91
0
64
7
65
257
75
1
175
1
42
1.0
92
8
66
8
43
1.0
76
1
77
6
78
2
67
7
79
5
170
0
171
0
290
0
174
0
93
13
44
0.0
173
0
291
0
45
0.0
1001
ACAD
1000
AcDbSavedByObjectVersion
1070
0
0
VISUALSTYLE
5
FA0
102
{ACAD_XDICTIONARY
360
1098
102
}
102
{ACAD_REACTORS
330
F93
102
}
330
F93
100
AcDbVisualStyle
2

70
13
71
2
72
2
73
0
90
0
40
-0.6
41
-30.0
62
5
63
7
74
1
91
4
64
7
65
257
75
1
175
1
42
1.0
92
12
66
7
43
1.0
76
1
77
6
78
2
67
7
79
5
170
0
171
0
290
0
174
0
93
1
44
0.0
173
0
291
1
45
0.0
1001
ACAD
1000
AcDbSavedByObjectVersion
1070
0
0
DICTIONARYVAR
5
FF3
102
{ACAD_REACTORS
330
FF0
102
}
330
FF0
100
DictionaryVariables
280
0
1
1:1
0
DICTIONARYVAR
5
FF2
102
{ACAD_REACTORS
330
FF0
102
}
330
FF0
100
DictionaryVariables
280
0
1
STANDARD
0
DICTIONARYVAR
5
FF1
102
{ACAD_REACTORS
330
FF0
102
}
330
FF0
100
DictionaryVariables
280
0
1
STANDARD
0
DICTIONARYVAR
5
FF6
102
{ACAD_REACTORS
330
FF0
102
}
330
FF0
100
DictionaryVariables
280
0
1
1
0
DICTIONARYVAR
5
FF5
102
{ACAD_REACTORS
330
FF0
102
}
330
FF0
100
DictionaryVariables
280
0
1
0
0
DICTIONARYVAR
5
FF4
102
{ACAD_REACTORS
330
FF0
102
}
330
FF0
100
DictionaryVariables
280
0
1
127
0
DICTIONARYVAR
5
1078
102
{ACAD_REACTORS
330
FF0
102
}
330
FF0
100
DictionaryVariables
280
0
1
2
0
DICTIONARY
5
10A9
330
FD1
100
AcDbDictionary
280
1
281
1
3
ACAD_XREC_ROUNDTRIP
360
10AA
0
DICTIONARY
5
10A7
330
FD0
100
AcDbDictionary
280
1
281
1
3
ACAD_XREC_ROUNDTRIP
360
10A8
0
DICTIONARY
5
F84
330
F83
100
AcDbDictionary
280
1
281
1
3
ACAD_XREC_ROUNDTRIP
360
FFF
3
BUMPTILE
360
F86
3
DIFFUSETILE
360
F85
3
OPACITYTILE
360
F89
3
REFLECTIONTILE
360
F88
3
REFRACTIONTILE
360
F8A
3
SPECULARTILE
360
F87
0
DICTIONARY
5
F7C
330
F7B
100
AcDbDictionary
280
1
281
1
3
ACAD_XREC_ROUNDTRIP
360
FFE
3
BUMPTILE
360
F7E
3
DIFFUSETILE
360
F7D
3
OPACITYTILE
360
F81
3
REFLECTIONTILE
360
F80
3
REFRACTIONTILE
360
F82
3
SPECULARTILE
360
F7F
0
DICTIONARY
5
F8C
330
F8B
100
AcDbDictionary
280
1
281
1
3
ACAD_XREC_ROUNDTRIP
360
1000
3
BUMPTILE
360
F8E
3
DIFFUSETILE
360
F8D
3
OPACITYTILE
360
F91
3
REFLECTIONTILE
360
F90
3
REFRACTIONTILE
360
F92
3
SPECULARTILE
360
F8F
0
DICTIONARY
5
FF8
330
FA9
100
AcDbDictionary
280
1
281
1
3
ACAD_ROUNDTRIP_2008_TABLESTYLE_CELLSTYLEMAP
360
1079
3
ACAD_XREC_ROUNDTRIP
360
10A6
0
DICTIONARY
5
108A
330
F99
100
AcDbDictionary
280
1
281
1
3
ACAD_XREC_ROUNDTRIP
360
108B
0
DICTIONARY
5
108E
330
F9B
100
AcDbDictionary
280
1
281
1
3
ACAD_XREC_ROUNDTRIP
360
108F
0
DICTIONARY
5
108C
330
F9A
100
AcDbDictionary
280
1
281
1
3
ACAD_XREC_ROUNDTRIP
360
108D
0
DICTIONARY
5
1088
330
F98
100
AcDbDictionary
280
1
281
1
3
ACAD_XREC_ROUNDTRIP
360
1089
0
DICTIONARY
5
1096
330
F9F
100
AcDbDictionary
280
1
281
1
3
ACAD_XREC_ROUNDTRIP
360
1097
0
DICTIONARY
5
109E
330
FA3
100
AcDbDictionary
280
1
281
1
3
ACAD_XREC_ROUNDTRIP
360
109F
0
DICTIONARY
5
1090
330
F9C
100
AcDbDictionary
280
1
281
1
3
ACAD_XREC_ROUNDTRIP
360
1091
0
DICTIONARY
5
1094
330
F9E
100
AcDbDictionary
280
1
281
1
3
ACAD_XREC_ROUNDTRIP
360
1095
0
DICTIONARY
5
10A4
330
FA6
100
AcDbDictionary
280
1
281
1
3
ACAD_XREC_ROUNDTRIP
360
10A5
0
DICTIONARY
5
109C
330
FA2
100
AcDbDictionary
280
1
281
1
3
ACAD_XREC_ROUNDTRIP
360
109D
0
DICTIONARY
5
1080
330
F94
100
AcDbDictionary
280
1
281
1
3
ACAD_XREC_ROUNDTRIP
360
1081
0
DICTIONARY
5
1082
330
F95
100
AcDbDictionary
280
1
281
1
3
ACAD_XREC_ROUNDTRIP
360
1083
0
DICTIONARY
5
1084
330
F96
100
AcDbDictionary
280
1
281
1
3
ACAD_XREC_ROUNDTRIP
360
1085
0
DICTIONARY
5
1086
330
F97
100
AcDbDictionary
280
1
281
1
3
ACAD_XREC_ROUNDTRIP
360
1087
0
DICTIONARY
5
10A0
330
FA4
100
AcDbDictionary
280
1
281
1
3
ACAD_XREC_ROUNDTRIP
360
10A1
0
DICTIONARY
5
109A
330
FA1
100
AcDbDictionary
280
1
281
1
3
ACAD_XREC_ROUNDTRIP
360
109B
0
DICTIONARY
5
10A2
330
FA5
100
AcDbDictionary
280
1
281
1
3
ACAD_XREC_ROUNDTRIP
360
10A3
0
DICTIONARY
5
1092
330
F9D
100
AcDbDictionary
280
1
281
1
3
ACAD_XREC_ROUNDTRIP
360
1093
0
DICTIONARY
5
1098
330
FA0
100
AcDbDictionary
280
1
281
1
3
ACAD_XREC_ROUNDTRIP
360
1099
0
XRECORD
5
10AA
102
{ACAD_REACTORS
330
10A9
102
}
330
10A9
100
AcDbXrecord
280
1
102
SHADEPLOT
70
0
102
SHADEPLOTRESLEVEL
70
2
102
SHADEPLOTCUSTOMDPI
70
300
0
XRECORD
5
10A8
102
{ACAD_REACTORS
330
10A7
102
}
330
10A7
100
AcDbXrecord
280
1
102
SHADEPLOT
70
0
102
SHADEPLOTRESLEVEL
70
2
102
SHADEPLOTCUSTOMDPI
70
300
0
XRECORD
5
FFF
102
{ACAD_REACTORS
330
F84
102
}
330
F84
100
AcDbXrecord
280
1
102
MATERIAL
148
0.0
149
0.0
149
0.0
93
0
94
127
282
0
72
0
77
0
171
0
175
0
179
0
273
0
0
XRECORD
5
F86
102
{ACAD_REACTORS
330
F84
102
}
330
F84
100
AcDbXrecord
280
1
270
1
271
1
0
XRECORD
5
F85
102
{ACAD_REACTORS
330
F84
102
}
330
F84
100
AcDbXrecord
280
1
270
1
271
1
0
XRECORD
5
F89
102
{ACAD_REACTORS
330
F84
102
}
330
F84
100
AcDbXrecord
280
1
270
1
271
1
0
XRECORD
5
F88
102
{ACAD_REACTORS
330
F84
102
}
330
F84
100
AcDbXrecord
280
1
270
1
271
1
0
XRECORD
5
F8A
102
{ACAD_REACTORS
330
F84
102
}
330
F84
100
AcDbXrecord
280
1
270
1
271
1
0
XRECORD
5
F87
102
{ACAD_REACTORS
330
F84
102
}
330
F84
100
AcDbXrecord
280
1
270
1
271
1
0
XRECORD
5
FFE
102
{ACAD_REACTORS
330
F7C
102
}
330
F7C
100
AcDbXrecord
280
1
102
MATERIAL
148
0.0
149
0.0
149
0.0
93
0
94
127
282
0
72
0
77
0
171
0
175
0
179
0
273
0
0
XRECORD
5
F7E
102
{ACAD_REACTORS
330
F7C
102
}
330
F7C
100
AcDbXrecord
280
1
270
1
271
1
0
XRECORD
5
F7D
102
{ACAD_REACTORS
330
F7C
102
}
330
F7C
100
AcDbXrecord
280
1
270
1
271
1
0
XRECORD
5
F81
102
{ACAD_REACTORS
330
F7C
102
}
330
F7C
100
AcDbXrecord
280
1
270
1
271
1
0
XRECORD
5
F80
102
{ACAD_REACTORS
330
F7C
102
}
330
F7C
100
AcDbXrecord
280
1
270
1
271
1
0
XRECORD
5
F82
102
{ACAD_REACTORS
330
F7C
102
}
330
F7C
100
AcDbXrecord
280
1
270
1
271
1
0
XRECORD
5
F7F
102
{ACAD_REACTORS
330
F7C
102
}
330
F7C
100
AcDbXrecord
280
1
270
1
271
1
0
XRECORD
5
1000
102
{ACAD_REACTORS
330
F8C
102
}
330
F8C
100
AcDbXrecord
280
1
102
MATERIAL
148
0.0
149
0.0
149
0.0
93
0
94
127
282
0
72
0
77
0
171
0
175
0
179
0
273
0
0
XRECORD
5
F8E
102
{ACAD_REACTORS
330
F8C
102
}
330
F8C
100
AcDbXrecord
280
1
270
1
271
1
0
XRECORD
5
F8D
102
{ACAD_REACTORS
330
F8C
102
}
330
F8C
100
AcDbXrecord
280
1
270
1
271
1
0
XRECORD
5
F91
102
{ACAD_REACTORS
330
F8C
102
}
330
F8C
100
AcDbXrecord
280
1
270
1
271
1
0
XRECORD
5
F90
102
{ACAD_REACTORS
330
F8C
102
}
330
F8C
100
AcDbXrecord
280
1
270
1
271
1
0
XRECORD
5
F92
102
{ACAD_REACTORS
330
F8C
102
}
330
F8C
100
AcDbXrecord
280
1
270
1
271
1
0
XRECORD
5
F8F
102
{ACAD_REACTORS
330
F8C
102
}
330
F8C
100
AcDbXrecord
280
1
270
1
271
1
0
CELLSTYLEMAP
5
1079
102
{ACAD_REACTORS
330
FF8
102
}
330
FF8
100
AcDbCellStyleMap
90
3
300
CELLSTYLE
1
TABLEFORMAT_BEGIN
90
5
170
1
91
0
92
32768
62
257
93
1
300
CONTENTFORMAT
1
CONTENTFORMAT_BEGIN
90
0
91
0
92
512
93
0
300

40
0.0
140
1.0
94
5
62
0
340
253
144
0.25
309
CONTENTFORMAT_END
171
1
301
MARGIN
1
CELLMARGIN_BEGIN
40
0.06
40
0.06
40
0.06
40
0.06
40
0.18
40
0.18
309
CELLMARGIN_END
94
6
95
1
302
GRIDFORMAT
1
GRIDFORMAT_BEGIN
90
0
91
1
62
0
92
-2
340
0
93
0
40
0.045
309
GRIDFORMAT_END
95
2
302
GRIDFORMAT
1
GRIDFORMAT_BEGIN
90
0
91
1
62
0
92
-2
340
0
93
0
40
0.045
309
GRIDFORMAT_END
95
4
302
GRIDFORMAT
1
GRIDFORMAT_BEGIN
90
0
91
1
62
0
92
-2
340
0
93
0
40
0.045
309
GRIDFORMAT_END
95
8
302
GRIDFORMAT
1
GRIDFORMAT_BEGIN
90
0
91
1
62
0
92
-2
340
0
93
0
40
0.045
309
GRIDFORMAT_END
95
16
302
GRIDFORMAT
1
GRIDFORMAT_BEGIN
90
0
91
1
62
0
92
-2
340
0
93
0
40
0.045
309
GRIDFORMAT_END
95
32
302
GRIDFORMAT
1
GRIDFORMAT_BEGIN
90
0
91
1
62
0
92
-2
340
0
93
0
40
0.045
309
GRIDFORMAT_END
309
TABLEFORMAT_END
1
CELLSTYLE_BEGIN
90
1
91
1
300
_TITLE
309
CELLSTYLE_END
300
CELLSTYLE
1
TABLEFORMAT_BEGIN
90
5
170
1
91
0
92
0
62
257
93
1
300
CONTENTFORMAT
1
CONTENTFORMAT_BEGIN
90
0
91
0
92
512
93
0
300

40
0.0
140
1.0
94
5
62
0
340
253
144
0.18
309
CONTENTFORMAT_END
171
1
301
MARGIN
1
CELLMARGIN_BEGIN
40
0.06
40
0.06
40
0.06
40
0.06
40
0.18
40
0.18
309
CELLMARGIN_END
94
6
95
1
302
GRIDFORMAT
1
GRIDFORMAT_BEGIN
90
0
91
1
62
0
92
-2
340
0
93
0
40
0.045
309
GRIDFORMAT_END
95
2
302
GRIDFORMAT
1
GRIDFORMAT_BEGIN
90
0
91
1
62
0
92
-2
340
0
93
0
40
0.045
309
GRIDFORMAT_END
95
4
302
GRIDFORMAT
1
GRIDFORMAT_BEGIN
90
0
91
1
62
0
92
-2
340
0
93
0
40
0.045
309
GRIDFORMAT_END
95
8
302
GRIDFORMAT
1
GRIDFORMAT_BEGIN
90
0
91
1
62
0
92
-2
340
0
93
0
40
0.045
309
GRIDFORMAT_END
95
16
302
GRIDFORMAT
1
GRIDFORMAT_BEGIN
90
0
91
1
62
0
92
-2
340
0
93
0
40
0.045
309
GRIDFORMAT_END
95
32
302
GRIDFORMAT
1
GRIDFORMAT_BEGIN
90
0
91
1
62
0
92
-2
340
0
93
0
40
0.045
309
GRIDFORMAT_END
309
TABLEFORMAT_END
1
CELLSTYLE_BEGIN
90
2
91
1
300
_HEADER
309
CELLSTYLE_END
300
CELLSTYLE
1
TABLEFORMAT_BEGIN
90
5
170
1
91
0
92
0
62
257
93
1
300
CONTENTFORMAT
1
CONTENTFORMAT_BEGIN
90
0
91
0
92
512
93
0
300

40
0.0
140
1.0
94
2
62
0
340
253
144
0.18
309
CONTENTFORMAT_END
171
1
301
MARGIN
1
CELLMARGIN_BEGIN
40
0.06
40
0.06
40
0.06
40
0.06
40
0.18
40
0.18
309
CELLMARGIN_END
94
6
95
1
302
GRIDFORMAT
1
GRIDFORMAT_BEGIN
90
0
91
1
62
0
92
-2
340
0
93
0
40
0.045
309
GRIDFORMAT_END
95
2
302
GRIDFORMAT
1
GRIDFORMAT_BEGIN
90
0
91
1
62
0
92
-2
340
0
93
0
40
0.045
309
GRIDFORMAT_END
95
4
302
GRIDFORMAT
1
GRIDFORMAT_BEGIN
90
0
91
1
62
0
92
-2
340
0
93
0
40
0.045
309
GRIDFORMAT_END
95
8
302
GRIDFORMAT
1
GRIDFORMAT_BEGIN
90
0
91
1
62
0
92
-2
340
0
93
0
40
0.045
309
GRIDFORMAT_END
95
16
302
GRIDFORMAT
1
GRIDFORMAT_BEGIN
90
0
91
1
62
0
92
-2
340
0
93
0
40
0.045
309
GRIDFORMAT_END
95
32
302
GRIDFORMAT
1
GRIDFORMAT_BEGIN
90
0
91
1
62
0
92
-2
340
0
93
0
40
0.045
309
GRIDFORMAT_END
309
TABLEFORMAT_END
1
CELLSTYLE_BEGIN
90
3
91
2
300
_DATA
309
CELLSTYLE_END
0
XRECORD
5
10A6
102
{ACAD_REACTORS
330
FF8
102
}
330
FF8
100
AcDbXrecord
280
1
102
ACAD_ROUNDTRIP_PRE2007_TABLESTYLE
90
512
91
0
1

92
512
93
0
2

94
512
95
0
3

0
XRECORD
5
108B
102
{ACAD_REACTORS
330
108A
102
}
330
108A
100
AcDbXrecord
280
1
102
RTVSPropertyOp0
70
1
102
RTVSPropertyOp1
70
1
102
RTVSPropertyOp2
70
1
102
RTVSPropertyOp3
70
1
102
RTVSPropertyOp4
70
1
102
RTVSPropertyOp5
70
1
102
RTVSPropertyOp6
70
1
102
RTVSPropertyOp7
70
1
102
RTVSPropertyOp8
70
1
102
RTVSPropertyOp9
70
1
102
RTVSPropertyOp10
70
1
102
RTVSPropertyOp11
70
1
102
RTVSPropertyOp12
70
1
102
RTVSPropertyOp13
70
1
102
RTVSPropertyOp14
70
1
102
RTVSPropertyOp15
70
1
102
RTVSPropertyOp16
70
1
102
RTVSPropertyOp17
70
1
102
RTVSPropertyOp18
70
1
102
RTVSPropertyOp19
70
1
102
RTVSPropertyOp20
70
1
102
RTVSPropertyOp21
70
1
102
RTVSPropertyOp22
70
1
102
RTVSPropertyOp23
70
1
102
RTVSPropertyOp24
70
1
102
RTVSPropertyOp25
70
1
102
RTVSPropertyOp26
70
1
102
RTVSPropertyOp27
70
1
0
XRECORD
5
108F
102
{ACAD_REACTORS
330
108E
102
}
330
108E
100
AcDbXrecord
280
1
102
RTVSPropertyOp0
70
1
102
RTVSPropertyOp1
70
1
102
RTVSPropertyOp2
70
1
102
RTVSPropertyOp3
70
1
102
RTVSPropertyOp4
70
1
102
RTVSPropertyOp5
70
1
102
RTVSPropertyOp6
70
1
102
RTVSPropertyOp7
70
1
102
RTVSPropertyOp8
70
1
102
RTVSPropertyOp9
70
1
102
RTVSPropertyOp10
70
1
102
RTVSPropertyOp11
70
1
102
RTVSPropertyOp12
70
1
102
RTVSPropertyOp13
70
1
102
RTVSPropertyOp14
70
1
102
RTVSPropertyOp15
70
1
102
RTVSPropertyOp16
70
1
102
RTVSPropertyOp17
70
1
102
RTVSPropertyOp18
70
1
102
RTVSPropertyOp19
70
1
102
RTVSPropertyOp20
70
1
102
RTVSPropertyOp21
70
1
102
RTVSPropertyOp22
70
1
102
RTVSPropertyOp23
70
1
102
RTVSPropertyOp24
70
1
102
RTVSPropertyOp25
70
1
102
RTVSPropertyOp26
70
1
102
RTVSPropertyOp27
70
1
0
XRECORD
5
108D
102
{ACAD_REACTORS
330
108C
102
}
330
108C
100
AcDbXrecord
280
1
102
RTVSPropertyOp0
70
1
102
RTVSPropertyOp1
70
1
102
RTVSPropertyOp2
70
1
102
RTVSPropertyOp3
70
1
102
RTVSPropertyOp4
70
1
102
RTVSPropertyOp5
70
1
102
RTVSPropertyOp6
70
1
102
RTVSPropertyOp7
70
1
102
RTVSPropertyOp8
70
1
102
RTVSPropertyOp9
70
1
102
RTVSPropertyOp10
70
1
102
RTVSPropertyOp11
70
1
102
RTVSPropertyOp12
70
1
102
RTVSPropertyOp13
70
1
102
RTVSPropertyOp14
70
1
102
RTVSPropertyOp15
70
1
102
RTVSPropertyOp16
70
1
102
RTVSPropertyOp17
70
1
102
RTVSPropertyOp18
70
1
102
RTVSPropertyOp19
70
1
102
RTVSPropertyOp20
70
1
102
RTVSPropertyOp21
70
1
102
RTVSPropertyOp22
70
1
102
RTVSPropertyOp23
70
1
102
RTVSPropertyOp24
70
1
102
RTVSPropertyOp25
70
1
102
RTVSPropertyOp26
70
1
102
RTVSPropertyOp27
70
1
0
XRECORD
5
1089
102
{ACAD_REACTORS
330
1088
102
}
330
1088
100
AcDbXrecord
280
1
102
RTVSPropertyOp0
70
1
102
RTVSPropertyOp1
70
1
102
RTVSPropertyOp2
70
1
102
RTVSPropertyOp3
70
1
102
RTVSPropertyOp4
70
1
102
RTVSPropertyOp5
70
1
102
RTVSPropertyOp6
70
1
102
RTVSPropertyOp7
70
1
102
RTVSPropertyOp8
70
1
102
RTVSPropertyOp9
70
1
102
RTVSPropertyOp10
70
1
102
RTVSPropertyOp11
70
1
102
RTVSPropertyOp12
70
1
102
RTVSPropertyOp13
70
1
102
RTVSPropertyOp14
70
1
102
RTVSPropertyOp15
70
1
102
RTVSPropertyOp16
70
1
102
RTVSPropertyOp17
70
1
102
RTVSPropertyOp18
70
1
102
RTVSPropertyOp19
70
1
102
RTVSPropertyOp20
70
1
102
RTVSPropertyOp21
70
1
102
RTVSPropertyOp22
70
1
102
RTVSPropertyOp23
70
1
102
RTVSPropertyOp24
70
1
102
RTVSPropertyOp25
70
1
102
RTVSPropertyOp26
70
1
102
RTVSPropertyOp27
70
1
0
XRECORD
5
1097
102
{ACAD_REACTORS
330
1096
102
}
330
1096
100
AcDbXrecord
280
1
102
RTVSPropertyOp0
70
1
102
RTVSPropertyOp1
70
1
102
RTVSPropertyOp2
70
1
102
RTVSPropertyOp3
70
1
102
RTVSPropertyOp4
70
1
102
RTVSPropertyOp5
70
1
102
RTVSPropertyOp6
70
1
102
RTVSPropertyOp7
70
1
102
RTVSPropertyOp8
70
1
102
RTVSPropertyOp9
70
1
102
RTVSPropertyOp10
70
1
102
RTVSPropertyOp11
70
1
102
RTVSPropertyOp12
70
1
102
RTVSPropertyOp13
70
1
102
RTVSPropertyOp14
70
1
102
RTVSPropertyOp15
70
1
102
RTVSPropertyOp16
70
1
102
RTVSPropertyOp17
70
1
102
RTVSPropertyOp18
70
1
102
RTVSPropertyOp19
70
1
102
RTVSPropertyOp20
70
1
102
RTVSPropertyOp21
70
1
102
RTVSPropertyOp22
70
1
102
RTVSPropertyOp23
70
1
102
RTVSPropertyOp24
70
1
102
RTVSPropertyOp25
70
1
102
RTVSPropertyOp26
70
1
102
RTVSPropertyOp27
70
1
0
XRECORD
5
109F
102
{ACAD_REACTORS
330
109E
102
}
330
109E
100
AcDbXrecord
280
1
102
RTVSPropertyOp0
70
1
102
RTVSPropertyOp1
70
1
102
RTVSPropertyOp2
70
1
102
RTVSPropertyOp3
70
1
102
RTVSPropertyOp4
70
1
102
RTVSPropertyOp5
70
1
102
RTVSPropertyOp6
70
1
102
RTVSPropertyOp7
70
1
102
RTVSPropertyOp8
70
1
102
RTVSPropertyOp9
70
1
102
RTVSPropertyOp10
70
1
102
RTVSPropertyOp11
70
1
102
RTVSPropertyOp12
70
1
102
RTVSPropertyOp13
70
1
102
RTVSPropertyOp14
70
1
102
RTVSPropertyOp15
70
1
102
RTVSPropertyOp16
70
1
102
RTVSPropertyOp17
70
1
102
RTVSPropertyOp18
70
1
102
RTVSPropertyOp19
70
1
102
RTVSPropertyOp20
70
1
102
RTVSPropertyOp21
70
1
102
RTVSPropertyOp22
70
1
102
RTVSPropertyOp23
70
1
102
RTVSPropertyOp24
70
1
102
RTVSPropertyOp25
70
1
102
RTVSPropertyOp26
70
1
102
RTVSPropertyOp27
70
1
0
XRECORD
5
1091
102
{ACAD_REACTORS
330
1090
102
}
330
1090
100
AcDbXrecord
280
1
102
RTVSPropertyOp0
70
1
102
RTVSPropertyOp1
70
1
102
RTVSPropertyOp2
70
1
102
RTVSPropertyOp3
70
1
102
RTVSPropertyOp4
70
1
102
RTVSPropertyOp5
70
1
102
RTVSPropertyOp6
70
1
102
RTVSPropertyOp7
70
1
102
RTVSPropertyOp8
70
1
102
RTVSPropertyOp9
70
1
102
RTVSPropertyOp10
70
1
102
RTVSPropertyOp11
70
1
102
RTVSPropertyOp12
70
1
102
RTVSPropertyOp13
70
1
102
RTVSPropertyOp14
70
1
102
RTVSPropertyOp15
70
1
102
RTVSPropertyOp16
70
1
102
RTVSPropertyOp17
70
1
102
RTVSPropertyOp18
70
1
102
RTVSPropertyOp19
70
1
102
RTVSPropertyOp20
70
1
102
RTVSPropertyOp21
70
1
102
RTVSPropertyOp22
70
1
102
RTVSPropertyOp23
70
1
102
RTVSPropertyOp24
70
1
102
RTVSPropertyOp25
70
1
102
RTVSPropertyOp26
70
1
102
RTVSPropertyOp27
70
1
0
XRECORD
5
1095
102
{ACAD_REACTORS
330
1094
102
}
330
1094
100
AcDbXrecord
280
1
102
RTVSPropertyOp0
70
1
102
RTVSPropertyOp1
70
1
102
RTVSPropertyOp2
70
1
102
RTVSPropertyOp3
70
1
102
RTVSPropertyOp4
70
1
102
RTVSPropertyOp5
70
1
102
RTVSPropertyOp6
70
1
102
RTVSPropertyOp7
70
1
102
RTVSPropertyOp8
70
1
102
RTVSPropertyOp9
70
1
102
RTVSPropertyOp10
70
1
102
RTVSPropertyOp11
70
1
102
RTVSPropertyOp12
70
1
102
RTVSPropertyOp13
70
1
102
RTVSPropertyOp14
70
1
102
RTVSPropertyOp15
70
1
102
RTVSPropertyOp16
70
1
102
RTVSPropertyOp17
70
1
102
RTVSPropertyOp18
70
1
102
RTVSPropertyOp19
70
1
102
RTVSPropertyOp20
70
1
102
RTVSPropertyOp21
70
1
102
RTVSPropertyOp22
70
1
102
RTVSPropertyOp23
70
1
102
RTVSPropertyOp24
70
1
102
RTVSPropertyOp25
70
1
102
RTVSPropertyOp26
70
1
102
RTVSPropertyOp27
70
1
0
XRECORD
5
10A5
102
{ACAD_REACTORS
330
10A4
102
}
330
10A4
100
AcDbXrecord
280
1
102
RTVSPropertyOp0
70
0
102
RTVSPropertyOp1
70
0
102
RTVSPropertyOp2
70
0
102
RTVSPropertyOp3
70
0
102
RTVSPropertyOp4
70
0
102
RTVSPropertyOp5
70
0
102
RTVSPropertyOp6
70
0
102
RTVSPropertyOp7
70
0
102
RTVSPropertyOp8
70
0
102
RTVSPropertyOp9
70
0
102
RTVSPropertyOp10
70
0
102
RTVSPropertyOp11
70
0
102
RTVSPropertyOp12
70
0
102
RTVSPropertyOp13
70
0
102
RTVSPropertyOp14
70
2
102
RTVSPropertyOp15
70
0
102
RTVSPropertyOp16
70
0
102
RTVSPropertyOp17
70
0
102
RTVSPropertyOp18
70
0
102
RTVSPropertyOp19
70
0
102
RTVSPropertyOp20
70
0
102
RTVSPropertyOp21
70
0
102
RTVSPropertyOp22
70
0
102
RTVSPropertyOp23
70
0
102
RTVSPropertyOp24
70
0
102
RTVSPropertyOp25
70
0
102
RTVSPropertyOp26
70
0
102
RTVSPropertyOp27
70
0
0
XRECORD
5
109D
102
{ACAD_REACTORS
330
109C
102
}
330
109C
100
AcDbXrecord
280
1
102
RTVSPropertyOp0
70
1
102
RTVSPropertyOp1
70
1
102
RTVSPropertyOp2
70
1
102
RTVSPropertyOp3
70
1
102
RTVSPropertyOp4
70
1
102
RTVSPropertyOp5
70
1
102
RTVSPropertyOp6
70
1
102
RTVSPropertyOp7
70
1
102
RTVSPropertyOp8
70
1
102
RTVSPropertyOp9
70
1
102
RTVSPropertyOp10
70
1
102
RTVSPropertyOp11
70
1
102
RTVSPropertyOp12
70
1
102
RTVSPropertyOp13
70
1
102
RTVSPropertyOp14
70
1
102
RTVSPropertyOp15
70
1
102
RTVSPropertyOp16
70
1
102
RTVSPropertyOp17
70
1
102
RTVSPropertyOp18
70
1
102
RTVSPropertyOp19
70
1
102
RTVSPropertyOp20
70
1
102
RTVSPropertyOp21
70
1
102
RTVSPropertyOp22
70
1
102
RTVSPropertyOp23
70
1
102
RTVSPropertyOp24
70
1
102
RTVSPropertyOp25
70
1
102
RTVSPropertyOp26
70
1
102
RTVSPropertyOp27
70
1
0
XRECORD
5
1081
102
{ACAD_REACTORS
330
1080
102
}
330
1080
100
AcDbXrecord
280
1
102
RTVSPropertyOp0
70
1
102
RTVSPropertyOp1
70
1
102
RTVSPropertyOp2
70
1
102
RTVSPropertyOp3
70
1
102
RTVSPropertyOp4
70
1
102
RTVSPropertyOp5
70
1
102
RTVSPropertyOp6
70
1
102
RTVSPropertyOp7
70
1
102
RTVSPropertyOp8
70
1
102
RTVSPropertyOp9
70
1
102
RTVSPropertyOp10
70
1
102
RTVSPropertyOp11
70
1
102
RTVSPropertyOp12
70
1
102
RTVSPropertyOp13
70
1
102
RTVSPropertyOp14
70
1
102
RTVSPropertyOp15
70
1
102
RTVSPropertyOp16
70
1
102
RTVSPropertyOp17
70
1
102
RTVSPropertyOp18
70
1
102
RTVSPropertyOp19
70
1
102
RTVSPropertyOp20
70
1
102
RTVSPropertyOp21
70
1
102
RTVSPropertyOp22
70
1
102
RTVSPropertyOp23
70
1
102
RTVSPropertyOp24
70
1
102
RTVSPropertyOp25
70
1
102
RTVSPropertyOp26
70
1
102
RTVSPropertyOp27
70
1
0
XRECORD
5
1083
102
{ACAD_REACTORS
330
1082
102
}
330
1082
100
AcDbXrecord
280
1
102
RTVSPropertyOp0
70
1
102
RTVSPropertyOp1
70
1
102
RTVSPropertyOp2
70
1
102
RTVSPropertyOp3
70
1
102
RTVSPropertyOp4
70
1
102
RTVSPropertyOp5
70
1
102
RTVSPropertyOp6
70
1
102
RTVSPropertyOp7
70
1
102
RTVSPropertyOp8
70
1
102
RTVSPropertyOp9
70
1
102
RTVSPropertyOp10
70
1
102
RTVSPropertyOp11
70
1
102
RTVSPropertyOp12
70
1
102
RTVSPropertyOp13
70
1
102
RTVSPropertyOp14
70
1
102
RTVSPropertyOp15
70
1
102
RTVSPropertyOp16
70
1
102
RTVSPropertyOp17
70
1
102
RTVSPropertyOp18
70
1
102
RTVSPropertyOp19
70
1
102
RTVSPropertyOp20
70
1
102
RTVSPropertyOp21
70
1
102
RTVSPropertyOp22
70
1
102
RTVSPropertyOp23
70
1
102
RTVSPropertyOp24
70
1
102
RTVSPropertyOp25
70
1
102
RTVSPropertyOp26
70
1
102
RTVSPropertyOp27
70
1
0
XRECORD
5
1085
102
{ACAD_REACTORS
330
1084
102
}
330
1084
100
AcDbXrecord
280
1
102
RTVSPropertyOp0
70
1
102
RTVSPropertyOp1
70
1
102
RTVSPropertyOp2
70
1
102
RTVSPropertyOp3
70
1
102
RTVSPropertyOp4
70
1
102
RTVSPropertyOp5
70
1
102
RTVSPropertyOp6
70
1
102
RTVSPropertyOp7
70
1
102
RTVSPropertyOp8
70
1
102
RTVSPropertyOp9
70
1
102
RTVSPropertyOp10
70
1
102
RTVSPropertyOp11
70
1
102
RTVSPropertyOp12
70
1
102
RTVSPropertyOp13
70
1
102
RTVSPropertyOp14
70
1
102
RTVSPropertyOp15
70
1
102
RTVSPropertyOp16
70
1
102
RTVSPropertyOp17
70
1
102
RTVSPropertyOp18
70
1
102
RTVSPropertyOp19
70
1
102
RTVSPropertyOp20
70
1
102
RTVSPropertyOp21
70
1
102
RTVSPropertyOp22
70
1
102
RTVSPropertyOp23
70
1
102
RTVSPropertyOp24
70
1
102
RTVSPropertyOp25
70
1
102
RTVSPropertyOp26
70
1
102
RTVSPropertyOp27
70
1
0
XRECORD
5
1087
102
{ACAD_REACTORS
330
1086
102
}
330
1086
100
AcDbXrecord
280
1
102
RTVSPropertyOp0
70
1
102
RTVSPropertyOp1
70
1
102
RTVSPropertyOp2
70
1
102
RTVSPropertyOp3
70
1
102
RTVSPropertyOp4
70
1
102
RTVSPropertyOp5
70
1
102
RTVSPropertyOp6
70
1
102
RTVSPropertyOp7
70
1
102
RTVSPropertyOp8
70
1
102
RTVSPropertyOp9
70
1
102
RTVSPropertyOp10
70
1
102
RTVSPropertyOp11
70
1
102
RTVSPropertyOp12
70
1
102
RTVSPropertyOp13
70
1
102
RTVSPropertyOp14
70
1
102
RTVSPropertyOp15
70
1
102
RTVSPropertyOp16
70
1
102
RTVSPropertyOp17
70
1
102
RTVSPropertyOp18
70
1
102
RTVSPropertyOp19
70
1
102
RTVSPropertyOp20
70
1
102
RTVSPropertyOp21
70
1
102
RTVSPropertyOp22
70
1
102
RTVSPropertyOp23
70
1
102
RTVSPropertyOp24
70
1
102
RTVSPropertyOp25
70
1
102
RTVSPropertyOp26
70
1
102
RTVSPropertyOp27
70
1
0
XRECORD
5
10A1
102
{ACAD_REACTORS
330
10A0
102
}
330
10A0
100
AcDbXrecord
280
1
102
RTVSPropertyOp0
70
0
102
RTVSPropertyOp1
70
0
102
RTVSPropertyOp2
70
0
102
RTVSPropertyOp3
70
0
102
RTVSPropertyOp4
70
0
102
RTVSPropertyOp5
70
0
102
RTVSPropertyOp6
70
0
102
RTVSPropertyOp7
70
0
102
RTVSPropertyOp8
70
0
102
RTVSPropertyOp9
70
0
102
RTVSPropertyOp10
70
0
102
RTVSPropertyOp11
70
0
102
RTVSPropertyOp12
70
0
102
RTVSPropertyOp13
70
0
102
RTVSPropertyOp14
70
2
102
RTVSPropertyOp15
70
0
102
RTVSPropertyOp16
70
0
102
RTVSPropertyOp17
70
0
102
RTVSPropertyOp18
70
0
102
RTVSPropertyOp19
70
0
102
RTVSPropertyOp20
70
0
102
RTVSPropertyOp21
70
0
102
RTVSPropertyOp22
70
0
102
RTVSPropertyOp23
70
0
102
RTVSPropertyOp24
70
0
102
RTVSPropertyOp25
70
0
102
RTVSPropertyOp26
70
0
102
RTVSPropertyOp27
70
0
0
XRECORD
5
109B
102
{ACAD_REACTORS
330
109A
102
}
330
109A
100
AcDbXrecord
280
1
102
RTVSPropertyOp0
70
1
102
RTVSPropertyOp1
70
1
102
RTVSPropertyOp2
70
1
102
RTVSPropertyOp3
70
1
102
RTVSPropertyOp4
70
1
102
RTVSPropertyOp5
70
1
102
RTVSPropertyOp6
70
1
102
RTVSPropertyOp7
70
1
102
RTVSPropertyOp8
70
1
102
RTVSPropertyOp9
70
1
102
RTVSPropertyOp10
70
1
102
RTVSPropertyOp11
70
1
102
RTVSPropertyOp12
70
1
102
RTVSPropertyOp13
70
1
102
RTVSPropertyOp14
70
1
102
RTVSPropertyOp15
70
1
102
RTVSPropertyOp16
70
1
102
RTVSPropertyOp17
70
1
102
RTVSPropertyOp18
70
1
102
RTVSPropertyOp19
70
1
102
RTVSPropertyOp20
70
1
102
RTVSPropertyOp21
70
1
102
RTVSPropertyOp22
70
1
102
RTVSPropertyOp23
70
1
102
RTVSPropertyOp24
70
1
102
RTVSPropertyOp25
70
1
102
RTVSPropertyOp26
70
1
102
RTVSPropertyOp27
70
1
0
XRECORD
5
10A3
102
{ACAD_REACTORS
330
10A2
102
}
330
10A2
100
AcDbXrecord
280
1
102
RTVSPropertyOp0
70
0
102
RTVSPropertyOp1
70
0
102
RTVSPropertyOp2
70
0
102
RTVSPropertyOp3
70
0
102
RTVSPropertyOp4
70
0
102
RTVSPropertyOp5
70
0
102
RTVSPropertyOp6
70
0
102
RTVSPropertyOp7
70
0
102
RTVSPropertyOp8
70
0
102
RTVSPropertyOp9
70
0
102
RTVSPropertyOp10
70
0
102
RTVSPropertyOp11
70
0
102
RTVSPropertyOp12
70
0
102
RTVSPropertyOp13
70
0
102
RTVSPropertyOp14
70
2
102
RTVSPropertyOp15
70
0
102
RTVSPropertyOp16
70
0
102
RTVSPropertyOp17
70
0
102
RTVSPropertyOp18
70
0
102
RTVSPropertyOp19
70
0
102
RTVSPropertyOp20
70
0
102
RTVSPropertyOp21
70
0
102
RTVSPropertyOp22
70
0
102
RTVSPropertyOp23
70
0
102
RTVSPropertyOp24
70
0
102
RTVSPropertyOp25
70
0
102
RTVSPropertyOp26
70
0
102
RTVSPropertyOp27
70
0
0
XRECORD
5
1093
102
{ACAD_REACTORS
330
1092
102
}
330
1092
100
AcDbXrecord
280
1
102
RTVSPropertyOp0
70
1
102
RTVSPropertyOp1
70
1
102
RTVSPropertyOp2
70
1
102
RTVSPropertyOp3
70
1
102
RTVSPropertyOp4
70
1
102
RTVSPropertyOp5
70
1
102
RTVSPropertyOp6
70
1
102
RTVSPropertyOp7
70
1
102
RTVSPropertyOp8
70
1
102
RTVSPropertyOp9
70
1
102
RTVSPropertyOp10
70
1
102
RTVSPropertyOp11
70
1
102
RTVSPropertyOp12
70
1
102
RTVSPropertyOp13
70
1
102
RTVSPropertyOp14
70
1
102
RTVSPropertyOp15
70
1
102
RTVSPropertyOp16
70
1
102
RTVSPropertyOp17
70
1
102
RTVSPropertyOp18
70
1
102
RTVSPropertyOp19
70
1
102
RTVSPropertyOp20
70
1
102
RTVSPropertyOp21
70
1
102
RTVSPropertyOp22
70
1
102
RTVSPropertyOp23
70
1
102
RTVSPropertyOp24
70
1
102
RTVSPropertyOp25
70
1
102
RTVSPropertyOp26
70
1
102
RTVSPropertyOp27
70
1
0
XRECORD
5
1099
102
{ACAD_REACTORS
330
1098
102
}
330
1098
100
AcDbXrecord
280
1
102
RTVSPropertyOp0
70
1
102
RTVSPropertyOp1
70
1
102
RTVSPropertyOp2
70
1
102
RTVSPropertyOp3
70
1
102
RTVSPropertyOp4
70
1
102
RTVSPropertyOp5
70
1
102
RTVSPropertyOp6
70
1
102
RTVSPropertyOp7
70
1
102
RTVSPropertyOp8
70
1
102
RTVSPropertyOp9
70
1
102
RTVSPropertyOp10
70
1
102
RTVSPropertyOp11
70
1
102
RTVSPropertyOp12
70
1
102
RTVSPropertyOp13
70
1
102
RTVSPropertyOp14
70
1
102
RTVSPropertyOp15
70
1
102
RTVSPropertyOp16
70
1
102
RTVSPropertyOp17
70
1
102
RTVSPropertyOp18
70
1
102
RTVSPropertyOp19
70
1
102
RTVSPropertyOp20
70
1
102
RTVSPropertyOp21
70
1
102
RTVSPropertyOp22
70
1
102
RTVSPropertyOp23
70
1
102
RTVSPropertyOp24
70
1
102
RTVSPropertyOp25
70
1
102
RTVSPropertyOp26
70
1
102
RTVSPropertyOp27
70
1
0
ENDSEC
0
EOF
