0
SECTION
2
HEADER
9
$ACADVER
1
AC1015
9
$ACADMAINTVER
70
20
9
$DWGCODEPAGE
3
ANSI_1252
9
$INSBASE
10
0.0
20
0.0
30
0.0
9
$EXTMIN
10
-150.000000000000
20
-105.000000000000
30
0.0
9
$EXTMAX
10
150.000000000000
20
105.000000000000
30
0.0
9
$LIMMIN
10
0.0
20
0.0
9
$LIMMAX
10
12.0
20
9.0
9
$ORTHOMODE
70
0
9
$REGENMODE
70
1
9
$FILLMODE
70
1
9
$QTEXTMODE
70
0
9
$MIRRTEXT
70
1
9
$LTSCALE
40
1.0
9
$ATTMODE
70
1
9
$TEXTSIZE
40
0.2
9
$TRACEWID
40
0.05
9
$TEXTSTYLE
7
Standard
9
$CLAYER
8
0
9
$CELTYPE
6
ByLayer
9
$CECOLOR
62
256
9
$CELTSCALE
40
1.0
9
$DISPSILH
70
0
9
$DIMSCALE
40
1.0
9
$DIMASZ
40
2.5
9
$DIMEXO
40
0.625
9
$DIMDLI
40
0.38
9
$DIMRND
40
0.0
9
$DIMDLE
40
0.0
9
$DIMEXE
40
1.25
9
$DIMTP
40
0.0
9
$DIMTM
40
0.000000001
9
$DIMTXT
40
2.5
9
$DIMCEN
40
0.09
9
$DIMTSZ
40
0.0
9
$DIMTOL
70
1
9
$DIMLIM
70
0
9
$DIMTIH
70
0
9
$DIMTOH
70
0
9
$DIMSE1
70
0
9
$DIMSE2
70
0
9
$DIMTAD
70
1
9
$DIMZIN
70
0
9
$DIMBLK
1
VDDIM_DEFAULT
9
$DIMASO
70
1
9
$DIMSHO
70
1
9
$DIMPOST
1

9
$DIMAPOST
1

9
$DIMALT
70
0
9
$DIMALTD
70
2
9
$DIMALTF
40
25.4
9
$DIMLFAC
40
1.00000000000000
9
$DIMTOFL
70
0
9
$DIMTVP
40
0.0
9
$DIMTIX
70
0
9
$DIMSOXD
70
0
9
$DIMSAH
70
0
9
$DIMBLK1
1

9
$DIMBLK2
1

9
$DIMSTYLE
2
BEM-ISBE
9
$DIMCLRD
70
0
9
$DIMCLRE
70
0
9
$DIMCLRT
70
0
9
$DIMTFAC
40
0.5
9
$DIMGAP
40
0.625
9
$DIMJUST
70
0
9
$DIMSD1
70
0
9
$DIMSD2
70
0
9
$DIMTOLJ
70
1
9
$DIMTZIN
70
0
9
$DIMALTZ
70
0
9
$DIMALTTZ
70
0
9
$DIMUPT
70
0
9
$DIMDEC
70
3
9
$DIMTDEC
70
3
9
$DIMALTU
70
2
9
$DIMALTTD
70
2
9
$DIMTXSTY
7
Standard
9
$DIMAUNIT
70
0
9
$DIMADEC
70
3
9
$DIMALTRND
40
0.0
9
$DIMAZIN
70
0
9
$DIMDSEP
70
46
9
$DIMATFIT
70
3
9
$DIMFRAC
70
0
9
$DIMLDRBLK
1

9
$DIMLUNIT
70
2
9
$DIMLWD
70
-2
9
$DIMLWE
70
-2
9
$DIMTMOVE
70
0
9
$LUNITS
70
2
9
$LUPREC
70
4
9
$SKETCHINC
40
0.1
9
$FILLETRAD
40
0.5
9
$AUNITS
70
0
9
$AUPREC
70
0
9
$MENU
1
.
9
$ELEVATION
40
0.0
9
$PELEVATION
40
0.0
9
$THICKNESS
40
0.0
9
$LIMCHECK
70
0
9
$CHAMFERA
40
0.5
9
$CHAMFERB
40
0.5
9
$CHAMFERC
40
1.0
9
$CHAMFERD
40
0.0
9
$SKPOLY
70
0
9
$TDCREATE
40
0.0
9
$TDUCREATE
40
0.0
9
$TDUPDATE
40
0.0
9
$TDUUPDATE
40
0.0
9
$TDINDWG
40
0.0
9
$TDUSRTIMER
40
0.0
9
$USRTIMER
70
1
9
$ANGBASE
50
0.0
9
$ANGDIR
70
0
9
$PDMODE
70
0
9
$PDSIZE
40
0.0
9
$PLINEWID
40
0.0
9
$SPLFRAME
70
0
9
$SPLINETYPE
70
6
9
$SPLINESEGS
70
8
9
$HANDSEED
5
10AB
9
$SURFTAB1
70
6
9
$SURFTAB2
70
6
9
$SURFTYPE
70
6
9
$SURFU
70
6
9
$SURFV
70
6
9
$UCSBASE
2

9
$UCSNAME
2

9
$UCSORG
10
0.0
20
0.0
30
0.0
9
$UCSXDIR
10
1.0
20
0.0
30
0.0
9
$UCSYDIR
10
0.0
20
1.0
30
0.0
9
$UCSORTHOREF
2

9
$UCSORTHOVIEW
70
0
9
$UCSORGTOP
10
0.0
20
0.0
30
0.0
9
$UCSORGBOTTOM
10
0.0
20
0.0
30
0.0
9
$UCSORGLEFT
10
0.0
20
0.0
30
0.0
9
$UCSORGRIGHT
10
0.0
20
0.0
30
0.0
9
$UCSORGFRONT
10
0.0
20
0.0
30
0.0
9
$UCSORGBACK
10
0.0
20
0.0
30
0.0
9
$PUCSBASE
2

9
$PUCSNAME
2

9
$PUCSORG
10
0.0
20
0.0
30
0.0
9
$PUCSXDIR
10
1.0
20
0.0
30
0.0
9
$PUCSYDIR
10
0.0
20
1.0
30
0.0
9
$PUCSORTHOREF
2

9
$PUCSORTHOVIEW
70
0
9
$PUCSORGTOP
10
0.0
20
0.0
30
0.0
9
$PUCSORGBOTTOM
10
0.0
20
0.0
30
0.0
9
$PUCSORGLEFT
10
0.0
20
0.0
30
0.0
9
$PUCSORGRIGHT
10
0.0
20
0.0
30
0.0
9
$PUCSORGFRONT
10
0.0
20
0.0
30
0.0
9
$PUCSORGBACK
10
0.0
20
0.0
30
0.0
9
$USERI1
70
0
9
$USERI2
70
0
9
$USERI3
70
0
9
$USERI4
70
0
9
$USERI5
70
0
9
$USERR1
40
0.0
9
$USERR2
40
0.0
9
$USERR3
40
0.0
9
$USERR4
40
0.0
9
$USERR5
40
0.0
9
$WORLDVIEW
70
1
9
$SHADEDGE
70
3
9
$SHADEDIF
70
70
9
$TILEMODE
70
1
9
$MAXACTVP
70
64
9
$PINSBASE
10
0.0
20
0.0
30
0.0
9
$PLIMCHECK
70
0
9
$PEXTMIN
10
1.000000000000000E+20
20
1.000000000000000E+20
30
1.000000000000000E+20
9
$PEXTMAX
10
-1.000000000000000E+20
20
-1.000000000000000E+20
30
-1.000000000000000E+20
9
$PLIMMIN
10
0.0
20
0.0
9
$PLIMMAX
10
12.0
20
9.0
9
$UNITMODE
70
0
9
$VISRETAIN
70
1
9
$PLINEGEN
70
0
9
$PSLTSCALE
70
1
9
$TREEDEPTH
70
3020
9
$CMLSTYLE
2
Standard
9
$CMLJUST
70
0
9
$CMLSCALE
40
1.0
9
$PROXYGRAPHICS
70
1
9
$MEASUREMENT
70
0
9
$CELWEIGHT
370
-1
9
$ENDCAPS
280
0
9
$JOINSTYLE
280
0
9
$LWDISPLAY
290
0
9
$INSUNITS
70
4
9
$HYPERLINKBASE
1

9
$STYLESHEET
1

9
$XEDIT
290
1
9
$CEPSNTYPE
380
0
9
$PSTYLEMODE
290
0
9
$FINGERPRINTGUID
2
{FAEB1C30-E019-11D5-929B-00C0DF256EC4}
9
$VERSIONGUID
2
{04C5C4E4-4947-4D90-8812-D401569E61F7}
9
$EXTNAMES
290
1
9
$PSVPSCALE
40
0.0
9
$OLESTARTUP
290
0
0
ENDSEC
0
SECTION
2
CLASSES
0
CLASS
1
ACDBDICTIONARYWDFLT
2
AcDbDictionaryWithDefault
3
ObjectDBX Classes
90
0
280
0
281
0
0
CLASS
1
ACDBPLACEHOLDER
2
AcDbPlaceHolder
3
ObjectDBX Classes
90
0
280
0
281
0
0
CLASS
1
LAYOUT
2
AcDbLayout
3
ObjectDBX Classes
90
0
280
0
281
0
0
CLASS
1
MATERIAL
2
AcDbMaterial
3
ObjectDBX Classes
90
1153
280
0
281
0
0
CLASS
1
VISUALSTYLE
2
AcDbVisualStyle
3
ObjectDBX Classes
90
4095
280
0
281
0
0
CLASS
1
TABLESTYLE
2
AcDbTableStyle
3
ObjectDBX Classes
90
4095
280
0
281
0
0
CLASS
1
SCALE
2
AcDbScale
3
ObjectDBX Classes
90
1153
280
0
281
0
0
CLASS
1
MLEADERSTYLE
2
AcDbMLeaderStyle
3
ACDB_MLEADERSTYLE_CLASS
90
4095
280
0
281
0
0
CLASS
1
DICTIONARYVAR
2
AcDbDictionaryVar
3
ObjectDBX Classes
90
0
280
0
281
0
0
CLASS
1
CELLSTYLEMAP
2
AcDbCellStyleMap
3
ObjectDBX Classes
90
1152
280
0
281
0
0
ENDSEC
0
SECTION
2
TABLES
0
TABLE
2
VPORT
5
24A
330
0
100
AcDbSymbolTable
70
1
0
VPORT
5
26B
330
24A
100
AcDbSymbolTableRecord
100
AcDbViewportTableRecord
2
*Active
70
0
10
0.0
20
0.0
11
1.0
21
1.0
12
0.00000000000000
22
0.00000000000000
13
0.0
23
0.0
14
10.0
24
10.0
15
10.0
25
10.0
16
0.0
26
0.0
36
1.0
17
0.0
27
0.0
37
0.0
40
210.000000000000
41
1.42857142857143
42
1.0
43
0.0
44
0.0
50
0.0
51
0.0000000000007958
71
0
72
100
73
1
74
3
75
0
76
0
77
0
78
1
281
0
65
1
110
0.0
120
0.0
130
0.0
111
1.0
121
0.0
131
0.0
112
0.0
122
1.0
132
0.0
79
0
146
0.0
0
ENDTAB
0
TABLE
2
LTYPE
5
247
330
0
100
AcDbSymbolTable
70
25
0
LTYPE
5
256
330
247
100
AcDbSymbolTableRecord
100
AcDbLinetypeTableRecord
2
ByBlock
70
0
3

72
65
73
0
40
0.0
0
LTYPE
5
257
330
247
100
AcDbSymbolTableRecord
100
AcDbLinetypeTableRecord
2
ByLayer
70
0
3

72
65
73
0
40
0.0
0
LTYPE
5
258
330
247
100
AcDbSymbolTableRecord
100
AcDbLinetypeTableRecord
2
Continuous
70
0
3
Solid line
72
65
73
0
40
0.0
0
LTYPE
5
273
330
247
100
AcDbSymbolTableRecord
100
AcDbLinetypeTableRecord
2
CENTER
70
0
3
Center ____ _ ____ _ ____ _ ____ _ ____ _ ____
72
65
73
4
40
2.0
49
1.25
74
0
49
-0.25
74
0
49
0.25
74
0
49
-0.25
74
0
0
LTYPE
5
274
330
247
100
AcDbSymbolTableRecord
100
AcDbLinetypeTableRecord
2
DASHDOT
70
0
3
Dashdot __ . __ . __ . __ . __ . __ . __ . __
72
65
73
4
40
1.0
49
0.5
74
0
49
-0.25
74
0
49
0.0
74
0
49
-0.25
74
0
0
LTYPE
5
275
330
247
100
AcDbSymbolTableRecord
100
AcDbLinetypeTableRecord
2
DASHED
70
0
3
Dashed __ __ __ __ __ __ __ __ __ __ __ __ __ _
72
65
73
2
40
0.75
49
0.5
74
0
49
-0.25
74
0
0
LTYPE
5
276
330
247
100
AcDbSymbolTableRecord
100
AcDbLinetypeTableRecord
2
HIDDEN
70
0
3
Hidden __ __ __ __ __ __ __ __ __ __ __ __ __ __
72
65
73
2
40
0.375
49
0.25
74
0
49
-0.125
74
0
0
LTYPE
5
277
330
247
100
AcDbSymbolTableRecord
100
AcDbLinetypeTableRecord
2
HIDDEN2
70
0
3
Hidden2 _ _ _ _ _ _ _ _ _ _ _ _ _ _ _ _ _
72
65
73
2
40
0.1875
49
0.125
74
0
49
-0.0625
74
0
0
LTYPE
5
278
330
247
100
AcDbSymbolTableRecord
100
AcDbLinetypeTableRecord
2
BORDER
70
0
3
Border __ __ . __ __ . __ __ . __ __ . __ __ .
72
65
73
6
40
1.75
49
0.5
74
0
49
-0.25
74
0
49
0.5
74
0
49
-0.25
74
0
49
0.0
74
0
49
-0.25
74
0
0
LTYPE
5
279
330
247
100
AcDbSymbolTableRecord
100
AcDbLinetypeTableRecord
2
BORDER2
70
0
3
Border2 __.__.__.__.__.__.__.__.__.__.__.
72
65
73
6
40
0.875
49
0.25
74
0
49
-0.125
74
0
49
0.25
74
0
49
-0.125
74
0
49
0.0
74
0
49
-0.125
74
0
0
LTYPE
5
27A
330
247
100
AcDbSymbolTableRecord
100
AcDbLinetypeTableRecord
2
BORDERX2
70
0
3
Borderx2  ____  ____  .  ____  ____  .  ___
72
65
73
6
40
3.5
49
1.0
74
0
49
-0.5
74
0
49
1.0
74
0
49
-0.5
74
0
49
0.0
74
0
49
-0.5
74
0
0
LTYPE
5
27B
330
247
100
AcDbSymbolTableRecord
100
AcDbLinetypeTableRecord
2
CENTER2
70
0
3
Center2  ___ _ ___ _ ___ _ ___ _ ___ _ ___
72
65
73
4
40
1.125
49
0.75
74
0
49
-0.125
74
0
49
0.125
74
0
49
-0.125
74
0
0
LTYPE
5
27C
330
247
100
AcDbSymbolTableRecord
100
AcDbLinetypeTableRecord
2
CENTERX2
70
0
3
Centerx2  ________  __  ________  __  _____
72
65
73
4
40
4.0
49
2.5
74
0
49
-0.5
74
0
49
0.5
74
0
49
-0.5
74
0
0
LTYPE
5
27D
330
247
100
AcDbSymbolTableRecord
100
AcDbLinetypeTableRecord
2
DASHDOT2
70
0
3
Dashdot2  _._._._._._._._._._._._._._._.
72
65
73
4
40
0.5
49
0.25
74
0
49
-0.125
74
0
49
0.0
74
0
49
-0.125
74
0
0
LTYPE
5
27E
330
247
100
AcDbSymbolTableRecord
100
AcDbLinetypeTableRecord
2
DASHDOTX2
70
0
3
Dashdotx2 ____  .  ____  .  ____  .  ___
72
65
73
4
40
2.0
49
1.0
74
0
49
-0.5
74
0
49
0.0
74
0
49
-0.5
74
0
0
LTYPE
5
27F
330
247
100
AcDbSymbolTableRecord
100
AcDbLinetypeTableRecord
2
DASHED2
70
0
3
Dashed2 _ _ _ _ _ _ _ _ _ _ _ _ _ _ _ _ _
72
65
73
2
40
0.375
49
0.25
74
0
49
-0.125
74
0
0
LTYPE
5
280
330
247
100
AcDbSymbolTableRecord
100
AcDbLinetypeTableRecord
2
DASHEDX2
70
0
3
Dashedx2 ____  ____  ____  ____  ____  ___
72
65
73
2
40
1.5
49
1.0
74
0
49
-0.5
74
0
0
LTYPE
5
281
330
247
100
AcDbSymbolTableRecord
100
AcDbLinetypeTableRecord
2
DIVIDE
70
0
3
Divide ____ . . ____ . . ____ . . ____ . . ____
72
65
73
6
40
1.25
49
0.5
74
0
49
-0.25
74
0
49
0.0
74
0
49
-0.25
74
0
49
0.0
74
0
49
-0.25
74
0
0
LTYPE
5
282
330
247
100
AcDbSymbolTableRecord
100
AcDbLinetypeTableRecord
2
DIVIDE2
70
0
3
Divide2 __..__..__..__..__..__..__..__.._
72
65
73
6
40
0.625
49
0.25
74
0
49
-0.125
74
0
49
0.0
74
0
49
-0.125
74
0
49
0.0
74
0
49
-0.125
74
0
0
LTYPE
5
283
330
247
100
AcDbSymbolTableRecord
100
AcDbLinetypeTableRecord
2
DIVIDEX2
70
0
3
Dividex2 ________  .  .  ________  .  .  _
72
65
73
6
40
2.5
49
1.0
74
0
49
-0.5
74
0
49
0.0
74
0
49
-0.5
74
0
49
0.0
74
0
49
-0.5
74
0
0
LTYPE
5
284
330
247
100
AcDbSymbolTableRecord
100
AcDbLinetypeTableRecord
2
DOT
70
0
3
Dot . . . . . . . . . . . . . . . . . . . . . . . .
72
65
73
2
40
0.25
49
0.0
74
0
49
-0.25
74
0
0
LTYPE
5
285
330
247
100
AcDbSymbolTableRecord
100
AcDbLinetypeTableRecord
2
DOT2
70
0
3
Dot2 ........................................
72
65
73
2
40
0.125
49
0.0
74
0
49
-0.125
74
0
0
LTYPE
5
286
330
247
100
AcDbSymbolTableRecord
100
AcDbLinetypeTableRecord
2
DOTX2
70
0
3
Dotx2 .  .  .  .  .  .  .  .  .  .  .  .  .  .
72
65
73
2
40
0.5
49
0.0
74
0
49
-0.5
74
0
0
LTYPE
5
287
330
247
100
AcDbSymbolTableRecord
100
AcDbLinetypeTableRecord
2
HIDDENX2
70
0
3
Hiddenx2 ____ ____ ____ ____ ____ ____ ____
72
65
73
2
40
0.75
49
0.5
74
0
49
-0.25
74
0
0
LTYPE
5
288
330
247
100
AcDbSymbolTableRecord
100
AcDbLinetypeTableRecord
2
PHANTOM
70
0
3
Phantom ______  __  __  ______  __  __  ______
72
65
73
6
40
2.5
49
1.25
74
0
49
-0.25
74
0
49
0.25
74
0
49
-0.25
74
0
49
0.25
74
0
49
-0.25
74
0
0
LTYPE
5
289
330
247
100
AcDbSymbolTableRecord
100
AcDbLinetypeTableRecord
2
PHANTOM2
70
0
3
Phantom2 ___ _ _ ___ _ _ ___ _ _ ___ _ _
72
65
73
6
40
1.25
49
0.625
74
0
49
-0.125
74
0
49
0.125
74
0
49
-0.125
74
0
49
0.125
74
0
49
-0.125
74
0
0
LTYPE
5
28A
330
247
100
AcDbSymbolTableRecord
100
AcDbLinetypeTableRecord
2
PHANTOMX2
70
0
3
Phantomx2 ____________    ____    ____   _
72
65
73
6
40
5.0
49
2.5
74
0
49
-0.5
74
0
49
0.5
74
0
49
-0.5
74
0
49
0.5
74
0
49
-0.5
74
0
0
ENDTAB
0
TABLE
2
LAYER
5
244
330
0
100
AcDbSymbolTable
70
6
0
LAYER
5
252
330
244
100
AcDbSymbolTableRecord
100
AcDbLayerTableRecord
2
0
70
0
62
7
6
Continuous
370
0
390
251
0
LAYER
5
23F
330
244
100
AcDbSymbolTableRecord
100
AcDbLayerTableRecord
2
Bemassung
70
0
 62
   7
6
Continuous
370
0
390
251
0
LAYER
5
240
330
244
100
AcDbSymbolTableRecord
100
AcDbLayerTableRecord
2
Rahmen
70
0
 62
   7
6
Continuous
370
0
390
251
0
LAYER
5
241
330
244
100
AcDbSymbolTableRecord
100
AcDbLayerTableRecord
2
Geo
70
0
 62
   7
6
Continuous
370
0
390
251
0
LAYER
5
33A
330
244
100
AcDbSymbolTableRecord
100
AcDbLayerTableRecord
2
Defpoints
70
0
62
7
6
Continuous
290
0
370
-3
390
251
0
LAYER
5
57E
330
244
100
AcDbSymbolTableRecord
100
AcDbLayerTableRecord
2
Text
70
0
 62
   7
6
Continuous
370
0
390
251
1001
AcAecLayerStandard
1000

1000

0
ENDTAB
0
TABLE
2
STYLE
5
245
330
0
100
AcDbSymbolTable
70
2
0
STYLE
5
253
330
245
100
AcDbSymbolTableRecord
100
AcDbTextStyleTableRecord
2
Standard
70
0
40
0.0
41
1.0
50
0.0
71
0
42
0.2
3
Arial
4

1001
ACAD
1000
Arial
1071
0
0
STYLE
5
132
330
245
100
AcDbSymbolTableRecord
100
AcDbTextStyleTableRecord
2
Beschriftung
70
0
40
0.0
41
1.0
50
0.0
71
0
42
0.2
3
Arial
4

1001
ACAD
1000
Arial
1071
0
1001
AcadAnnotative
1000
AnnotativeData
1070
1
1070
1
0
ENDTAB
0
TABLE
2
VIEW
5
248
330
0
100
AcDbSymbolTable
70
0
0
ENDTAB
0
TABLE
2
UCS
5
249
330
0
100
AcDbSymbolTable
70
0
0
ENDTAB
0
TABLE
2
APPID
5
24B
330
0
100
AcDbSymbolTable
70
13
0
APPID
5
254
330
24B
100
AcDbSymbolTableRecord
100
AcDbRegAppTableRecord
2
ACAD
70
0
0
APPID
5
26C
330
24B
100
AcDbSymbolTableRecord
100
AcDbRegAppTableRecord
2
VD_INVISIBLE_NOT_FOR_READ
70
0
0
APPID
5
26D
330
24B
100
AcDbSymbolTableRecord
100
AcDbRegAppTableRecord
2
VD_TEMPHATCH
70
0
0
APPID
5
26E
330
24B
100
AcDbSymbolTableRecord
100
AcDbRegAppTableRecord
2
VDEXTRAPARAM
70
0
0
APPID
5
26F
330
24B
100
AcDbSymbolTableRecord
100
AcDbRegAppTableRecord
2
PE_URL
70
0
0
APPID
5
270
330
24B
100
AcDbSymbolTableRecord
100
AcDbRegAppTableRecord
2
VD_UNKNOWN
70
0
0
APPID
5
28F
330
24B
100
AcDbSymbolTableRecord
100
AcDbRegAppTableRecord
2
AcadAnnotative
70
0
0
APPID
5
290
330
24B
100
AcDbSymbolTableRecord
100
AcDbRegAppTableRecord
2
ACAD_DSTYLE_DIMJAG
70
0
0
APPID
5
291
330
24B
100
AcDbSymbolTableRecord
100
AcDbRegAppTableRecord
2
ACAD_DSTYLE_DIMTALN
70
0
0
APPID
5
293
330
24B
100
AcDbSymbolTableRecord
100
AcDbRegAppTableRecord
2
ACAD_PSEXT
70
0
0
APPID
5
42A
330
24B
100
AcDbSymbolTableRecord
100
AcDbRegAppTableRecord
2
ACAD_MLEADERVER
70
0
0
APPID
5
532
330
24B
100
AcDbSymbolTableRecord
100
AcDbRegAppTableRecord
2
ACAD_EXEMPT_FROM_CAD_STANDARDS
70
0
0
APPID
5
57F
330
24B
100
AcDbSymbolTableRecord
100
AcDbRegAppTableRecord
2
AcAecLayerStandard
70
0
0
ENDTAB
0
TABLE
2
DIMSTYLE
5
24C
330
0
100
AcDbSymbolTable
70
3
100
AcDbDimStyleTable
71
2
340
27
340
269
0
DIMSTYLE
105
269
330
24C
100
AcDbSymbolTableRecord
100
AcDbDimStyleTableRecord
2
Standard
70
0
172
1
174
1
288
1
340
253
342
23C
0
DIMSTYLE
105
137
330
24C
100
AcDbSymbolTableRecord
100
AcDbDimStyleTableRecord
2
Beschriftung
70
0
41
2.5
42
0.625
44
1.25
73
0
74
0
77
1
140
2.5
147
0.625
172
1
174
1
271
2
288
1
340
253
342
23C
1001
AcadAnnotative
1000
AnnotativeData
1070
1
1070
1
1001
ACAD_DSTYLE_DIMJAG
1070
388
1040
1.5
1001
ACAD_DSTYLE_DIMTALN
1070
392
1070
0
0
DIMSTYLE
105
27
102
{ACAD_REACTORS
102
}
330
24C
100
AcDbSymbolTableRecord
100
AcDbDimStyleTableRecord
2
BEM-ISBE
70
0
41
2.5
42
0.625
44
1.25
48
0.000000001
71
1
73
0
74
0
77
1
140
2.5
144
1.00000000000000
146
0.5
147
0.625
171
 3
172
 1
179
 3
271
 3
272
 3
274
 3
340
253
342
23C
1001
ACAD_DSTYLE_DIMJAG
1070
388
1040
1.5
1001
ACAD_DSTYLE_DIMTALN
1070
392
1070
1
0
ENDTAB
0
TABLE
2
BLOCK_RECORD
5
243
330
0
100
AcDbSymbolTable
70
5
0
BLOCK_RECORD
5
261
330
243
100
AcDbSymbolTableRecord
100
AcDbBlockTableRecord
2
*Model_Space
340
FD0
0
BLOCK_RECORD
5
25D
330
243
100
AcDbSymbolTableRecord
100
AcDbBlockTableRecord
2
*Paper_Space
340
FD1
0
BLOCK_RECORD
5
265
330
243
100
AcDbSymbolTableRecord
100
AcDbBlockTableRecord
2
*Paper_Space0
340
0
0
BLOCK_RECORD
5
23C
330
243
100
AcDbSymbolTableRecord
100
AcDbBlockTableRecord
2
VDDIM_DEFAULT
340
0
102
{BLKREFS
102
}
0
BLOCK_RECORD
5
23E
330
243
100
AcDbSymbolTableRecord
100
AcDbBlockTableRecord
2
VDDIM_NONE
340
0
0
ENDTAB
0
ENDSEC
0
SECTION
2
BLOCKS
0
BLOCK
5
262
330
261
100
AcDbEntity
8
0
100
AcDbBlockBegin
2
*Model_Space
70
0
10
0.0
20
0.0
30
0.0
3
*Model_Space
1

0
ENDBLK
5
263
330
261
100
AcDbEntity
8
0
100
AcDbBlockEnd
0
BLOCK
5
25E
330
25D
100
AcDbEntity
67
1
8
0
100
AcDbBlockBegin
2
*Paper_Space
70
0
10
0.0
20
0.0
30
0.0
3
*Paper_Space
1

0
ENDBLK
5
25F
330
25D
100
AcDbEntity
67
1
8
0
100
AcDbBlockEnd
0
BLOCK
5
266
330
265
100
AcDbEntity
8
0
100
AcDbBlockBegin
2
*Paper_Space0
70
0
10
0.0
20
0.0
30
0.0
3
*Paper_Space0
1

0
VIEWPORT
5
296
102
{ACAD_XDICTIONARY
360
58E
102
}
330
265
100
AcDbEntity
8
0
60
1
100
AcDbViewport
10
0.0
20
0.0
30
0.0
40
10.0
41
10.0
69
0
12
0.0
22
0.0
13
0.0
23
0.0
14
1.0
24
1.0
15
0.0
25
0.0
16
0.0
26
0.0
36
1.0
17
0.0
27
0.0
37
0.0
42
0.0
43
0.0
44
0.0
45
10.0
50
0.0
51
0.0000000000007958
72
100
90
163872
1

281
0
71
0
74
0
110
0.0
120
0.0
130
0.0
111
1.0
121
0.0
131
0.0
112
0.0
122
1.0
132
0.0
79
0
146
0.0
1001
VD_INVISIBLE_NOT_FOR_READ
1000
VD_INVISIBLE_NOT_FOR_READ
0
VIEWPORT
5
297
102
{ACAD_XDICTIONARY
360
590
102
}
330
265
100
AcDbEntity
8
0
60
1
100
AcDbViewport
10
0.0
20
0.0
30
0.0
40
10.0
41
10.0
69
0
12
0.0
22
0.0
13
0.0
23
0.0
14
1.0
24
1.0
15
0.0
25
0.0
16
0.0
26
0.0
36
1.0
17
0.0
27
0.0
37
0.0
42
0.0
43
0.0
44
0.0
45
10.0
50
0.0
51
0.0000000000007958
72
100
90
163872
1

281
0
71
0
74
0
110
0.0
120
0.0
130
0.0
111
1.0
121
0.0
131
0.0
112
0.0
122
1.0
132
0.0
79
0
146
0.0
1001
VD_INVISIBLE_NOT_FOR_READ
1000
VD_INVISIBLE_NOT_FOR_READ
0
ENDBLK
5
267
330
265
100
AcDbEntity
8
0
100
AcDbBlockEnd
0
BLOCK
5
28B
330
23C
100
AcDbEntity
8
0
100
AcDbBlockBegin
2
VDDIM_DEFAULT
70
0
10
0.0
20
0.0
30
0.0
3
VDDIM_DEFAULT
1

0
LWPOLYLINE
5
23D
330
23C
100
AcDbEntity
8
0
6
Continuous
62
0
100
AcDbPolyline
90
4
70
0
43
0.0
10
0.0
20
0.0
10
-1.0
20
-0.1665
10
-1.0
20
0.1665
10
0.0
20
0.0
1001
VDEXTRAPARAM
1071
1
1071
0
1071
0
1040
1.0
1000

1000

1040
0.0
1040
0.0
0
HATCH
5
292
330
23C
100
AcDbEntity
8
0
6
Continuous
62
0
100
AcDbHatch
10
0.0
20
0.0
30
0.0
210
0.0
220
0.0
230
1.0
2
SOLID
70
1
71
0
91
1
92
2
72
0
73
1
93
3
10
0.0
20
0.0
10
-1.0
20
-0.1665
10
-1.0
20
0.1665
97
0
75
0
76
1
98
1
10
0.0
20
0.0
1001
VDEXTRAPARAM
1071
1
1071
0
1071
0
1040
1.0
1000

1000

1040
0.0
1040
0.0
1001
VD_TEMPHATCH
1000
VD_TEMPHATCH
0
ENDBLK
5
28C
330
23C
100
AcDbEntity
8
0
100
AcDbBlockEnd
0
BLOCK
5
28D
330
23E
100
AcDbEntity
8
0
100
AcDbBlockBegin
2
VDDIM_NONE
70
0
10
0.0
20
0.0
30
0.0
3
VDDIM_NONE
1

0
ENDBLK
5
28E
330
23E
100
AcDbEntity
8
0
100
AcDbBlockEnd
0
ENDSEC
0
SECTION
2
ENTITIES
  0
ARC
  5
F10002
330
F10003
100
AcDbEntity
8
Geo
100
AcDbCircle
10
-85.6545574636723
20
21.6996917657419
30
0.00000000000000
 40
2.00000000000000
100
AcDbArc
 50
90.0000000000000
 51
180.000000000000
  0
LINE
  5
F10004
330
F10005
100
AcDbEntity
8
Geo
100
AcDbLine
10
-85.6545574636723
20
23.6996917657419
30
0.00000000000000
11
-79.6545574636723
21
23.6996917657419
31
0.00000000000000
  0
LINE
  5
F10006
330
F10007
100
AcDbEntity
8
Geo
100
AcDbLine
10
-79.6545574636723
20
23.6996917657419
30
0.00000000000000
11
-79.6536082712412
21
23.6996917657419
31
0.00000000000000
  0
LINE
  5
F10008
330
F10009
100
AcDbEntity
8
Geo
100
AcDbLine
10
-79.6536082712412
20
23.6996917657419
30
0.00000000000000
11
-75.9215574636723
21
24.6996917657419
31
0.00000000000000
  0
LINE
  5
F1000A
330
F1000B
100
AcDbEntity
8
Geo
100
AcDbLine
10
-75.9215574636723
20
24.6996917657419
30
0.00000000000000
11
-18.2545574636723
21
24.6996917657419
31
0.00000000000000
  0
LINE
  5
F1000C
330
F1000D
100
AcDbEntity
8
Geo
100
AcDbLine
10
-18.2545574636723
20
24.6996917657419
30
0.00000000000000
11
-17.6545574636723
21
24.0996917657419
31
0.00000000000000
  0
LINE
  5
F1000E
330
F1000F
100
AcDbEntity
8
Geo
100
AcDbLine
10
-87.3605620951934
20
22.7435060199216
30
0.00000000000000
11
-87.3545574636724
21
22.7529336403248
31
0.00000000000000
  0
LINE
  5
F10010
330
F10011
100
AcDbEntity
8
Geo
100
AcDbLine
10
-87.3545574636724
20
22.7529336403248
30
0.00000000000000
11
-87.3245574636723
21
22.7964372830008
31
0.00000000000000
  0
LINE
  5
F10012
330
F10013
100
AcDbEntity
8
Geo
100
AcDbLine
10
-87.3245574636723
20
22.7964372830008
30
0.00000000000000
11
-87.2945574636723
21
22.8360308157623
31
0.00000000000000
  0
LINE
  5
F10014
330
F10015
100
AcDbEntity
8
Geo
100
AcDbLine
10
-87.2945574636723
20
22.8360308157623
30
0.00000000000000
11
-87.2645574636723
21
22.8730721318295
31
0.00000000000000
  0
LINE
  5
F10016
330
F10017
100
AcDbEntity
8
Geo
100
AcDbLine
10
-87.2645574636723
20
22.8730721318295
30
0.00000000000000
11
-87.2345574636723
21
22.9081442330637
31
0.00000000000000
  0
LINE
  5
F10018
330
F10019
100
AcDbEntity
8
Geo
100
AcDbLine
10
-87.2345574636723
20
22.9081442330637
30
0.00000000000000
11
-87.2045574636723
21
22.9415932545614
31
0.00000000000000
  0
LINE
  5
F1001A
330
F1001B
100
AcDbEntity
8
Geo
100
AcDbLine
10
-87.2045574636723
20
22.9415932545614
30
0.00000000000000
11
-87.1745574636723
21
22.9736315631404
31
0.00000000000000
  0
LINE
  5
F1001C
330
F1001D
100
AcDbEntity
8
Geo
100
AcDbLine
10
-87.1745574636723
20
22.9736315631404
30
0.00000000000000
11
-87.1445574636723
21
23.0044420853285
31
0.00000000000000
  0
LINE
  5
F1001E
330
F1001F
100
AcDbEntity
8
Geo
100
AcDbLine
10
-87.1445574636723
20
23.0044420853285
30
0.00000000000000
11
-87.1145574636723
21
23.0341120133525
31
0.00000000000000
  0
LINE
  5
F10020
330
F10021
100
AcDbEntity
8
Geo
100
AcDbLine
10
-87.1145574636723
20
23.0341120133525
30
0.00000000000000
11
-87.0845574636724
21
23.0627729665879
31
0.00000000000000
  0
LINE
  5
F10022
330
F10023
100
AcDbEntity
8
Geo
100
AcDbLine
10
-87.0845574636724
20
23.0627729665879
30
0.00000000000000
11
-87.0545574636724
21
23.0904582226768
31
0.00000000000000
  0
LINE
  5
F10024
330
F10025
100
AcDbEntity
8
Geo
100
AcDbLine
10
-87.0545574636724
20
23.0904582226768
30
0.00000000000000
11
-87.0245574636724
21
23.1169154187969
31
0.00000000000000
  0
LINE
  5
F10026
330
F10027
100
AcDbEntity
8
Geo
100
AcDbLine
10
-87.0245574636724
20
23.1169154187969
30
0.00000000000000
11
-86.9945574636724
21
23.1420390604147
31
0.00000000000000
  0
LINE
  5
F10028
330
F10029
100
AcDbEntity
8
Geo
100
AcDbLine
10
-86.9945574636724
20
23.1420390604147
30
0.00000000000000
11
-86.9645574636723
21
23.1658930155489
31
0.00000000000000
  0
LINE
  5
F1002A
330
F1002B
100
AcDbEntity
8
Geo
100
AcDbLine
10
-86.9645574636723
20
23.1658930155489
30
0.00000000000000
11
-86.9345574636723
21
23.1885339864967
31
0.00000000000000
  0
LINE
  5
F1002C
330
F1002D
100
AcDbEntity
8
Geo
100
AcDbLine
10
-86.9345574636723
20
23.1885339864967
30
0.00000000000000
11
-86.9045574636723
21
23.2100125879683
31
0.00000000000000
  0
LINE
  5
F1002E
330
F1002F
100
AcDbEntity
8
Geo
100
AcDbLine
10
-86.9045574636723
20
23.2100125879683
30
0.00000000000000
11
-86.8745574636723
21
23.2303742278521
31
0.00000000000000
  0
LINE
  5
F10030
330
F10031
100
AcDbEntity
8
Geo
100
AcDbLine
10
-86.8745574636723
20
23.2303742278521
30
0.00000000000000
11
-86.8445574636723
21
23.2496598330177
31
0.00000000000000
  0
LINE
  5
F10032
330
F10033
100
AcDbEntity
8
Geo
100
AcDbLine
10
-86.8445574636723
20
23.2496598330177
30
0.00000000000000
11
-86.8145574636723
21
23.2679064522014
31
0.00000000000000
  0
LINE
  5
F10034
330
F10035
100
AcDbEntity
8
Geo
100
AcDbLine
10
-86.8145574636723
20
23.2679064522014
30
0.00000000000000
11
-86.7845574636723
21
23.2851477604644
31
0.00000000000000
  0
LINE
  5
F10036
330
F10037
100
AcDbEntity
8
Geo
100
AcDbLine
10
-86.7845574636723
20
23.2851477604644
30
0.00000000000000
11
-86.7545574636723
21
23.3014144841517
31
0.00000000000000
  0
LINE
  5
F10038
330
F10039
100
AcDbEntity
8
Geo
100
AcDbLine
10
-86.7545574636723
20
23.3014144841517
30
0.00000000000000
11
-86.7245574636723
21
23.3167347611183
31
0.00000000000000
  0
LINE
  5
F1003A
330
F1003B
100
AcDbEntity
8
Geo
100
AcDbLine
10
-86.7245574636723
20
23.3167347611183
30
0.00000000000000
11
-86.6945574636724
21
23.3311344478570
31
0.00000000000000
  0
LINE
  5
F1003C
330
F1003D
100
AcDbEntity
8
Geo
100
AcDbLine
10
-86.6945574636724
20
23.3311344478570
30
0.00000000000000
11
-86.6645574636724
21
23.3446373827635
31
0.00000000000000
  0
LINE
  5
F1003E
330
F1003F
100
AcDbEntity
8
Geo
100
AcDbLine
10
-86.6645574636724
20
23.3446373827635
30
0.00000000000000
11
-86.6345574636724
21
23.3572656129383
31
0.00000000000000
  0
LINE
  5
F10040
330
F10041
100
AcDbEntity
8
Geo
100
AcDbLine
10
-86.6345574636724
20
23.3572656129383
30
0.00000000000000
11
-86.6045574636724
21
23.3690395904891
31
0.00000000000000
  0
LINE
  5
F10042
330
F10043
100
AcDbEntity
8
Geo
100
AcDbLine
10
-86.6045574636724
20
23.3690395904891
30
0.00000000000000
11
-86.5745574636723
21
23.3799783431794
31
0.00000000000000
  0
LINE
  5
F10044
330
F10045
100
AcDbEntity
8
Geo
100
AcDbLine
10
-86.5745574636723
20
23.3799783431794
30
0.00000000000000
11
-86.5445574636723
21
23.3900996233837
31
0.00000000000000
  0
LINE
  5
F10046
330
F10047
100
AcDbEntity
8
Geo
100
AcDbLine
10
-86.5445574636723
20
23.3900996233837
30
0.00000000000000
11
-86.5145574636723
21
23.3994200386048
31
0.00000000000000
  0
LINE
  5
F10048
330
F10049
100
AcDbEntity
8
Geo
100
AcDbLine
10
-86.5145574636723
20
23.3994200386048
30
0.00000000000000
11
-86.4845574636723
21
23.4079551662488
31
0.00000000000000
  0
LINE
  5
F1004A
330
F1004B
100
AcDbEntity
8
Geo
100
AcDbLine
10
-86.4845574636723
20
23.4079551662488
30
0.00000000000000
11
-86.4545574636723
21
23.4157196548950
31
0.00000000000000
  0
LINE
  5
F1004C
330
F1004D
100
AcDbEntity
8
Geo
100
AcDbLine
10
-86.4545574636723
20
23.4157196548950
30
0.00000000000000
11
-86.4245574636723
21
23.4227273139349
31
0.00000000000000
  0
LINE
  5
F1004E
330
F1004F
100
AcDbEntity
8
Geo
100
AcDbLine
10
-86.4245574636723
20
23.4227273139349
30
0.00000000000000
11
-86.3945574636723
21
23.4289911931503
31
0.00000000000000
  0
LINE
  5
F10050
330
F10051
100
AcDbEntity
8
Geo
100
AcDbLine
10
-86.3945574636723
20
23.4289911931503
30
0.00000000000000
11
-86.3645574636723
21
23.4345236535580
31
0.00000000000000
  0
LINE
  5
F10052
330
F10053
100
AcDbEntity
8
Geo
100
AcDbLine
10
-86.3645574636723
20
23.4345236535580
30
0.00000000000000
11
-86.3345574636723
21
23.4393364306429
31
0.00000000000000
  0
LINE
  5
F10054
330
F10055
100
AcDbEntity
8
Geo
100
AcDbLine
10
-86.3345574636723
20
23.4393364306429
30
0.00000000000000
11
-86.3045574636724
21
23.4434406909359
31
0.00000000000000
  0
LINE
  5
F10056
330
F10057
100
AcDbEntity
8
Geo
100
AcDbLine
10
-86.3045574636724
20
23.4434406909359
30
0.00000000000000
11
-86.2745574636724
21
23.4468470827524
31
0.00000000000000
  0
LINE
  5
F10058
330
F10059
100
AcDbEntity
8
Geo
100
AcDbLine
10
-86.2745574636724
20
23.4468470827524
30
0.00000000000000
11
-86.2445574636724
21
23.4495657817896
31
0.00000000000000
  0
LINE
  5
F1005A
330
F1005B
100
AcDbEntity
8
Geo
100
AcDbLine
10
-86.2445574636724
20
23.4495657817896
30
0.00000000000000
11
-86.2145574636723
21
23.4516065321844
31
0.00000000000000
  0
LINE
  5
F1005C
330
F1005D
100
AcDbEntity
8
Geo
100
AcDbLine
10
-86.2145574636723
20
23.4516065321844
30
0.00000000000000
11
-86.1845574636723
21
23.4529786835501
31
0.00000000000000
  0
LINE
  5
F1005E
330
F1005F
100
AcDbEntity
8
Geo
100
AcDbLine
10
-86.1845574636723
20
23.4529786835501
30
0.00000000000000
11
-86.1545574636723
21
23.4536912244403
31
0.00000000000000
  0
LINE
  5
F10060
330
F10061
100
AcDbEntity
8
Geo
100
AcDbLine
10
-86.1545574636723
20
23.4536912244403
30
0.00000000000000
11
-86.1245574636723
21
23.4537528126294
31
0.00000000000000
  0
LINE
  5
F10062
330
F10063
100
AcDbEntity
8
Geo
100
AcDbLine
10
-86.1245574636723
20
23.4537528126294
30
0.00000000000000
11
-86.0945574636723
21
23.4531718025476
31
0.00000000000000
  0
LINE
  5
F10064
330
F10065
100
AcDbEntity
8
Geo
100
AcDbLine
10
-86.0945574636723
20
23.4531718025476
30
0.00000000000000
11
-86.0645574636723
21
23.4519562701671
31
0.00000000000000
  0
LINE
  5
F10066
330
F10067
100
AcDbEntity
8
Geo
100
AcDbLine
10
-86.0645574636723
20
23.4519562701671
30
0.00000000000000
11
-86.0345574636723
21
23.4501140355949
31
0.00000000000000
  0
LINE
  5
F10068
330
F10069
100
AcDbEntity
8
Geo
100
AcDbLine
10
-86.0345574636723
20
23.4501140355949
30
0.00000000000000
11
-86.0045574636723
21
23.4476526836012
31
0.00000000000000
  0
LINE
  5
F1006A
330
F1006B
100
AcDbEntity
8
Geo
100
AcDbLine
10
-86.0045574636723
20
23.4476526836012
30
0.00000000000000
11
-85.9745574636723
21
23.4445795822781
31
0.00000000000000
  0
LINE
  5
F1006C
330
F1006D
100
AcDbEntity
8
Geo
100
AcDbLine
10
-85.9745574636723
20
23.4445795822781
30
0.00000000000000
11
-85.9445574636723
21
23.4409019000060
31
0.00000000000000
  0
LINE
  5
F1006E
330
F1006F
100
AcDbEntity
8
Geo
100
AcDbLine
10
-85.9445574636723
20
23.4409019000060
30
0.00000000000000
11
-85.9145574636724
21
23.4366266208775
31
0.00000000000000
  0
LINE
  5
F10070
330
F10071
100
AcDbEntity
8
Geo
100
AcDbLine
10
-85.9145574636724
20
23.4366266208775
30
0.00000000000000
11
-85.8845574636724
21
23.4317605587162
31
0.00000000000000
  0
LINE
  5
F10072
330
F10073
100
AcDbEntity
8
Geo
100
AcDbLine
10
-85.8845574636724
20
23.4317605587162
30
0.00000000000000
11
-85.8545574636724
21
23.4263103698066
31
0.00000000000000
  0
LINE
  5
F10074
330
F10075
100
AcDbEntity
8
Geo
100
AcDbLine
10
-85.8545574636724
20
23.4263103698066
30
0.00000000000000
11
-85.8245574636723
21
23.4202825644407
31
0.00000000000000
  0
LINE
  5
F10076
330
F10077
100
AcDbEntity
8
Geo
100
AcDbLine
10
-85.8245574636723
20
23.4202825644407
30
0.00000000000000
11
-85.7945574636723
21
23.4136835173727
31
0.00000000000000
  0
LINE
  5
F10078
330
F10079
100
AcDbEntity
8
Geo
100
AcDbLine
10
-85.7945574636723
20
23.4136835173727
30
0.00000000000000
11
-85.7645574636723
21
23.4065194772613
31
0.00000000000000
  0
LINE
  5
F1007A
330
F1007B
100
AcDbEntity
8
Geo
100
AcDbLine
10
-85.7645574636723
20
23.4065194772613
30
0.00000000000000
11
-85.7345574636723
21
23.3987965751718
31
0.00000000000000
  0
LINE
  5
F1007C
330
F1007D
100
AcDbEntity
8
Geo
100
AcDbLine
10
-85.7345574636723
20
23.3987965751718
30
0.00000000000000
11
-85.7045574636723
21
23.3905208321963
31
0.00000000000000
  0
LINE
  5
F1007E
330
F1007F
100
AcDbEntity
8
Geo
100
AcDbLine
10
-85.7045574636723
20
23.3905208321963
30
0.00000000000000
11
-85.6745574636723
21
23.3816981662484
31
0.00000000000000
  0
LINE
  5
F10080
330
F10081
100
AcDbEntity
8
Geo
100
AcDbLine
10
-85.6745574636723
20
23.3816981662484
30
0.00000000000000
11
-85.6445574636723
21
23.3723572327293
31
0.00000000000000
  0
LINE
  5
F10082
330
F10083
100
AcDbEntity
8
Geo
100
AcDbLine
10
-85.6445574636723
20
23.3723572327293
30
0.00000000000000
11
-85.6145574636723
21
23.3627991401597
31
0.00000000000000
  0
LINE
  5
F10084
330
F10085
100
AcDbEntity
8
Geo
100
AcDbLine
10
-85.6145574636723
20
23.3627991401597
30
0.00000000000000
11
-85.5845574636723
21
23.3531163153165
31
0.00000000000000
  0
LINE
  5
F10086
330
F10087
100
AcDbEntity
8
Geo
100
AcDbLine
10
-85.5845574636723
20
23.3531163153165
30
0.00000000000000
11
-85.5545574636724
21
23.3433094844072
31
0.00000000000000
  0
LINE
  5
F10088
330
F10089
100
AcDbEntity
8
Geo
100
AcDbLine
10
-85.5545574636724
20
23.3433094844072
30
0.00000000000000
11
-85.5245574636724
21
23.3333793829394
31
0.00000000000000
  0
LINE
  5
F1008A
330
F1008B
100
AcDbEntity
8
Geo
100
AcDbLine
10
-85.5245574636724
20
23.3333793829394
30
0.00000000000000
11
-85.4945574636724
21
23.3233267556661
31
0.00000000000000
  0
LINE
  5
F1008C
330
F1008D
100
AcDbEntity
8
Geo
100
AcDbLine
10
-85.4945574636724
20
23.3233267556661
30
0.00000000000000
11
-85.4645574636723
21
23.3131523565297
31
0.00000000000000
  0
LINE
  5
F1008E
330
F1008F
100
AcDbEntity
8
Geo
100
AcDbLine
10
-85.4645574636723
20
23.3131523565297
30
0.00000000000000
11
-85.4345574636723
21
23.3028569486052
31
0.00000000000000
  0
LINE
  5
F10090
330
F10091
100
AcDbEntity
8
Geo
100
AcDbLine
10
-85.4345574636723
20
23.3028569486052
30
0.00000000000000
11
-85.4045574636723
21
23.2924413040436
31
0.00000000000000
  0
LINE
  5
F10092
330
F10093
100
AcDbEntity
8
Geo
100
AcDbLine
10
-85.4045574636723
20
23.2924413040436
30
0.00000000000000
11
-85.3745574636723
21
23.2819062040131
31
0.00000000000000
  0
LINE
  5
F10094
330
F10095
100
AcDbEntity
8
Geo
100
AcDbLine
10
-85.3745574636723
20
23.2819062040131
30
0.00000000000000
11
-85.3445574636723
21
23.2712524386414
31
0.00000000000000
  0
LINE
  5
F10096
330
F10097
100
AcDbEntity
8
Geo
100
AcDbLine
10
-85.3445574636723
20
23.2712524386414
30
0.00000000000000
11
-85.3145574636723
21
23.2604808069560
31
0.00000000000000
  0
LINE
  5
F10098
330
F10099
100
AcDbEntity
8
Geo
100
AcDbLine
10
-85.3145574636723
20
23.2604808069560
30
0.00000000000000
11
-85.2845574636723
21
23.2495921168240
31
0.00000000000000
  0
LINE
  5
F1009A
330
F1009B
100
AcDbEntity
8
Geo
100
AcDbLine
10
-85.2845574636723
20
23.2495921168240
30
0.00000000000000
11
-85.2545574636723
21
23.2385871848923
31
0.00000000000000
  0
LINE
  5
F1009C
330
F1009D
100
AcDbEntity
8
Geo
100
AcDbLine
10
-85.2545574636723
20
23.2385871848923
30
0.00000000000000
11
-85.2245574636724
21
23.2274668365255
31
0.00000000000000
  0
LINE
  5
F1009E
330
F1009F
100
AcDbEntity
8
Geo
100
AcDbLine
10
-85.2245574636724
20
23.2274668365255
30
0.00000000000000
11
-85.1945574636724
21
23.2162319057445
31
0.00000000000000
  0
LINE
  5
F100A0
330
F100A1
100
AcDbEntity
8
Geo
100
AcDbLine
10
-85.1945574636724
20
23.2162319057445
30
0.00000000000000
11
-85.1645574636724
21
23.2048832351638
31
0.00000000000000
  0
LINE
  5
F100A2
330
F100A3
100
AcDbEntity
8
Geo
100
AcDbLine
10
-85.1645574636724
20
23.2048832351638
30
0.00000000000000
11
-85.1345574636724
21
23.1934216759286
31
0.00000000000000
  0
LINE
  5
F100A4
330
F100A5
100
AcDbEntity
8
Geo
100
AcDbLine
10
-85.1345574636724
20
23.1934216759286
30
0.00000000000000
11
-85.1045574636724
21
23.1818480876502
31
0.00000000000000
  0
LINE
  5
F100A6
330
F100A7
100
AcDbEntity
8
Geo
100
AcDbLine
10
-85.1045574636724
20
23.1818480876502
30
0.00000000000000
11
-85.0745574636723
21
23.1701633383425
31
0.00000000000000
  0
LINE
  5
F100A8
330
F100A9
100
AcDbEntity
8
Geo
100
AcDbLine
10
-85.0745574636723
20
23.1701633383425
30
0.00000000000000
11
-85.0445574636723
21
23.1583683043561
31
0.00000000000000
  0
LINE
  5
F100AA
330
F100AB
100
AcDbEntity
8
Geo
100
AcDbLine
10
-85.0445574636723
20
23.1583683043561
30
0.00000000000000
11
-85.0145574636723
21
23.1464638703130
31
0.00000000000000
  0
LINE
  5
F100AC
330
F100AD
100
AcDbEntity
8
Geo
100
AcDbLine
10
-85.0145574636723
20
23.1464638703130
30
0.00000000000000
11
-84.9845574636723
21
23.1344509290403
31
0.00000000000000
  0
LINE
  5
F100AE
330
F100AF
100
AcDbEntity
8
Geo
100
AcDbLine
10
-84.9845574636723
20
23.1344509290403
30
0.00000000000000
11
-84.9545574636723
21
23.1223303815029
31
0.00000000000000
  0
LINE
  5
F100B0
330
F100B1
100
AcDbEntity
8
Geo
100
AcDbLine
10
-84.9545574636723
20
23.1223303815029
30
0.00000000000000
11
-84.9245574636724
21
23.1101031367361
31
0.00000000000000
  0
LINE
  5
F100B2
330
F100B3
100
AcDbEntity
8
Geo
100
AcDbLine
10
-84.9245574636724
20
23.1101031367361
30
0.00000000000000
11
-84.8945574636724
21
23.0977701117777
31
0.00000000000000
  0
LINE
  5
F100B4
330
F100B5
100
AcDbEntity
8
Geo
100
AcDbLine
10
-84.8945574636724
20
23.0977701117777
30
0.00000000000000
11
-84.8645574636724
21
23.0853322315987
31
0.00000000000000
  0
LINE
  5
F100B6
330
F100B7
100
AcDbEntity
8
Geo
100
AcDbLine
10
-84.8645574636724
20
23.0853322315987
30
0.00000000000000
11
-84.8345574636724
21
23.0727904290342
31
0.00000000000000
  0
LINE
  5
F100B8
330
F100B9
100
AcDbEntity
8
Geo
100
AcDbLine
10
-84.8345574636724
20
23.0727904290342
30
0.00000000000000
11
-84.8045574636724
21
23.0601456447136
31
0.00000000000000
  0
LINE
  5
F100BA
330
F100BB
100
AcDbEntity
8
Geo
100
AcDbLine
10
-84.8045574636724
20
23.0601456447136
30
0.00000000000000
11
-84.7745574636724
21
23.0473988269898
31
0.00000000000000
  0
LINE
  5
F100BC
330
F100BD
100
AcDbEntity
8
Geo
100
AcDbLine
10
-84.7745574636724
20
23.0473988269898
30
0.00000000000000
11
-84.7445574636724
21
23.0345509318682
31
0.00000000000000
  0
LINE
  5
F100BE
330
F100BF
100
AcDbEntity
8
Geo
100
AcDbLine
10
-84.7445574636724
20
23.0345509318682
30
0.00000000000000
11
-84.7145574636723
21
23.0216029229348
31
0.00000000000000
  0
LINE
  5
F100C0
330
F100C1
100
AcDbEntity
8
Geo
100
AcDbLine
10
-84.7145574636723
20
23.0216029229348
30
0.00000000000000
11
-84.6845574636723
21
23.0085557712843
31
0.00000000000000
  0
LINE
  5
F100C2
330
F100C3
100
AcDbEntity
8
Geo
100
AcDbLine
10
-84.6845574636723
20
23.0085557712843
30
0.00000000000000
11
-84.6545574636723
21
22.9954104554468
31
0.00000000000000
  0
LINE
  5
F100C4
330
F100C5
100
AcDbEntity
8
Geo
100
AcDbLine
10
-84.6545574636723
20
22.9954104554468
30
0.00000000000000
11
-84.6245574636723
21
22.9821679613151
31
0.00000000000000
  0
LINE
  5
F100C6
330
F100C7
100
AcDbEntity
8
Geo
100
AcDbLine
10
-84.6245574636723
20
22.9821679613151
30
0.00000000000000
11
-84.5945574636724
21
22.9688292820698
31
0.00000000000000
  0
LINE
  5
F100C8
330
F100C9
100
AcDbEntity
8
Geo
100
AcDbLine
10
-84.5945574636724
20
22.9688292820698
30
0.00000000000000
11
-84.5645574636724
21
22.9553954181057
31
0.00000000000000
  0
LINE
  5
F100CA
330
F100CB
100
AcDbEntity
8
Geo
100
AcDbLine
10
-84.5645574636724
20
22.9553954181057
30
0.00000000000000
11
-84.5345574636724
21
22.9418673769562
31
0.00000000000000
  0
LINE
  5
F100CC
330
F100CD
100
AcDbEntity
8
Geo
100
AcDbLine
10
-84.5345574636724
20
22.9418673769562
30
0.00000000000000
11
-84.5045574636724
21
22.9282461732182
31
0.00000000000000
  0
LINE
  5
F100CE
330
F100CF
100
AcDbEntity
8
Geo
100
AcDbLine
10
-84.5045574636724
20
22.9282461732182
30
0.00000000000000
11
-84.4745574636724
21
22.9145328284756
31
0.00000000000000
  0
LINE
  5
F100D0
330
F100D1
100
AcDbEntity
8
Geo
100
AcDbLine
10
-84.4745574636724
20
22.9145328284756
30
0.00000000000000
11
-84.4445574636724
21
22.9007283712226
31
0.00000000000000
  0
LINE
  5
F100D2
330
F100D3
100
AcDbEntity
8
Geo
100
AcDbLine
10
-84.4445574636724
20
22.9007283712226
30
0.00000000000000
11
-84.4145574636724
21
22.8868338367873
31
0.00000000000000
  0
LINE
  5
F100D4
330
F100D5
100
AcDbEntity
8
Geo
100
AcDbLine
10
-84.4145574636724
20
22.8868338367873
30
0.00000000000000
11
-84.3845574636724
21
22.8728502672531
31
0.00000000000000
  0
LINE
  5
F100D6
330
F100D7
100
AcDbEntity
8
Geo
100
AcDbLine
10
-84.3845574636724
20
22.8728502672531
30
0.00000000000000
11
-84.3545574636724
21
22.8587787113812
31
0.00000000000000
  0
LINE
  5
F100D8
330
F100D9
100
AcDbEntity
8
Geo
100
AcDbLine
10
-84.3545574636724
20
22.8587787113812
30
0.00000000000000
11
-84.3245574636723
21
22.8446202245317
31
0.00000000000000
  0
LINE
  5
F100DA
330
F100DB
100
AcDbEntity
8
Geo
100
AcDbLine
10
-84.3245574636723
20
22.8446202245317
30
0.00000000000000
11
-84.2945574636723
21
22.8303758685844
31
0.00000000000000
  0
LINE
  5
F100DC
330
F100DD
100
AcDbEntity
8
Geo
100
AcDbLine
10
-84.2945574636723
20
22.8303758685844
30
0.00000000000000
11
-84.2645574636724
21
22.8160467118595
31
0.00000000000000
  0
LINE
  5
F100DE
330
F100DF
100
AcDbEntity
8
Geo
100
AcDbLine
10
-84.2645574636724
20
22.8160467118595
30
0.00000000000000
11
-84.2345574636724
21
22.8016338290369
31
0.00000000000000
  0
LINE
  5
F100E0
330
F100E1
100
AcDbEntity
8
Geo
100
AcDbLine
10
-84.2345574636724
20
22.8016338290369
30
0.00000000000000
11
-84.2045574636724
21
22.7871383010761
31
0.00000000000000
  0
LINE
  5
F100E2
330
F100E3
100
AcDbEntity
8
Geo
100
AcDbLine
10
-84.2045574636724
20
22.7871383010761
30
0.00000000000000
11
-84.1745574636724
21
22.7725612151348
31
0.00000000000000
  0
LINE
  5
F100E4
330
F100E5
100
AcDbEntity
8
Geo
100
AcDbLine
10
-84.1745574636724
20
22.7725612151348
30
0.00000000000000
11
-84.1445574636724
21
22.7579036644878
31
0.00000000000000
  0
LINE
  5
F100E6
330
F100E7
100
AcDbEntity
8
Geo
100
AcDbLine
10
-84.1445574636724
20
22.7579036644878
30
0.00000000000000
11
-84.1145574636724
21
22.7431667484444
31
0.00000000000000
  0
LINE
  5
F100E8
330
F100E9
100
AcDbEntity
8
Geo
100
AcDbLine
10
-84.1145574636724
20
22.7431667484444
30
0.00000000000000
11
-84.0845574636724
21
22.7283515722664
31
0.00000000000000
  0
LINE
  5
F100EA
330
F100EB
100
AcDbEntity
8
Geo
100
AcDbLine
10
-84.0845574636724
20
22.7283515722664
30
0.00000000000000
11
-84.0545574636724
21
22.7134592470851
31
0.00000000000000
  0
LINE
  5
F100EC
330
F100ED
100
AcDbEntity
8
Geo
100
AcDbLine
10
-84.0545574636724
20
22.7134592470851
30
0.00000000000000
11
-84.0245574636724
21
22.6984908898179
31
0.00000000000000
  0
LINE
  5
F100EE
330
F100EF
100
AcDbEntity
8
Geo
100
AcDbLine
10
-84.0245574636724
20
22.6984908898179
30
0.00000000000000
11
-83.9945574636724
21
22.6834476230846
31
0.00000000000000
  0
LINE
  5
F100F0
330
F100F1
100
AcDbEntity
8
Geo
100
AcDbLine
10
-83.9945574636724
20
22.6834476230846
30
0.00000000000000
11
-83.9645574636723
21
22.6683305751232
31
0.00000000000000
  0
LINE
  5
F100F2
330
F100F3
100
AcDbEntity
8
Geo
100
AcDbLine
10
-83.9645574636723
20
22.6683305751232
30
0.00000000000000
11
-83.9345574636724
21
22.6531408797051
31
0.00000000000000
  0
LINE
  5
F100F4
330
F100F5
100
AcDbEntity
8
Geo
100
AcDbLine
10
-83.9345574636724
20
22.6531408797051
30
0.00000000000000
11
-83.9045574636724
21
22.6378796760503
31
0.00000000000000
  0
LINE
  5
F100F6
330
F100F7
100
AcDbEntity
8
Geo
100
AcDbLine
10
-83.9045574636724
20
22.6378796760503
30
0.00000000000000
11
-83.8745574636724
21
22.6225481087421
31
0.00000000000000
  0
LINE
  5
F100F8
330
F100F9
100
AcDbEntity
8
Geo
100
AcDbLine
10
-83.8745574636724
20
22.6225481087421
30
0.00000000000000
11
-83.8445574636724
21
22.6071473276407
31
0.00000000000000
  0
LINE
  5
F100FA
330
F100FB
100
AcDbEntity
8
Geo
100
AcDbLine
10
-83.8445574636724
20
22.6071473276407
30
0.00000000000000
11
-83.8145574636724
21
22.5916784877975
31
0.00000000000000
  0
LINE
  5
F100FC
330
F100FD
100
AcDbEntity
8
Geo
100
AcDbLine
10
-83.8145574636724
20
22.5916784877975
30
0.00000000000000
11
-83.7845574636724
21
22.5761427493684
31
0.00000000000000
  0
LINE
  5
F100FE
330
F100FF
100
AcDbEntity
8
Geo
100
AcDbLine
10
-83.7845574636724
20
22.5761427493684
30
0.00000000000000
11
-83.7545574636724
21
22.5605412775262
31
0.00000000000000
  0
LINE
  5
F10100
330
F10101
100
AcDbEntity
8
Geo
100
AcDbLine
10
-83.7545574636724
20
22.5605412775262
30
0.00000000000000
11
-83.7245574636724
21
22.5448752423742
31
0.00000000000000
  0
LINE
  5
F10102
330
F10103
100
AcDbEntity
8
Geo
100
AcDbLine
10
-83.7245574636724
20
22.5448752423742
30
0.00000000000000
11
-83.6945574636724
21
22.5291458188577
31
0.00000000000000
  0
LINE
  5
F10104
330
F10105
100
AcDbEntity
8
Geo
100
AcDbLine
10
-83.6945574636724
20
22.5291458188577
30
0.00000000000000
11
-83.6645574636724
21
22.5133541866760
31
0.00000000000000
  0
LINE
  5
F10106
330
F10107
100
AcDbEntity
8
Geo
100
AcDbLine
10
-83.6645574636724
20
22.5133541866760
30
0.00000000000000
11
-83.6345574636724
21
22.4975015301941
31
0.00000000000000
  0
LINE
  5
F10108
330
F10109
100
AcDbEntity
8
Geo
100
AcDbLine
10
-83.6345574636724
20
22.4975015301941
30
0.00000000000000
11
-83.6045574636724
21
22.4815890383538
31
0.00000000000000
  0
LINE
  5
F1010A
330
F1010B
100
AcDbEntity
8
Geo
100
AcDbLine
10
-83.6045574636724
20
22.4815890383538
30
0.00000000000000
11
-83.5745574636724
21
22.4656179045846
31
0.00000000000000
  0
LINE
  5
F1010C
330
F1010D
100
AcDbEntity
8
Geo
100
AcDbLine
10
-83.5745574636724
20
22.4656179045846
30
0.00000000000000
11
-83.5445574636724
21
22.4495893267140
31
0.00000000000000
  0
LINE
  5
F1010E
330
F1010F
100
AcDbEntity
8
Geo
100
AcDbLine
10
-83.5445574636724
20
22.4495893267140
30
0.00000000000000
11
-83.5145574636724
21
22.4335045068779
31
0.00000000000000
  0
LINE
  5
F10110
330
F10111
100
AcDbEntity
8
Geo
100
AcDbLine
10
-83.5145574636724
20
22.4335045068779
30
0.00000000000000
11
-83.4845574636724
21
22.4173646514301
31
0.00000000000000
  0
LINE
  5
F10112
330
F10113
100
AcDbEntity
8
Geo
100
AcDbLine
10
-83.4845574636724
20
22.4173646514301
30
0.00000000000000
11
-83.4545574636724
21
22.4011709708524
31
0.00000000000000
  0
LINE
  5
F10114
330
F10115
100
AcDbEntity
8
Geo
100
AcDbLine
10
-83.4545574636724
20
22.4011709708524
30
0.00000000000000
11
-83.4245574636724
21
22.3849246796630
31
0.00000000000000
  0
LINE
  5
F10116
330
F10117
100
AcDbEntity
8
Geo
100
AcDbLine
10
-83.4245574636724
20
22.3849246796630
30
0.00000000000000
11
-83.3945574636724
21
22.3686269963263
31
0.00000000000000
  0
LINE
  5
F10118
330
F10119
100
AcDbEntity
8
Geo
100
AcDbLine
10
-83.3945574636724
20
22.3686269963263
30
0.00000000000000
11
-83.3645574636724
21
22.3522791431609
31
0.00000000000000
  0
LINE
  5
F1011A
330
F1011B
100
AcDbEntity
8
Geo
100
AcDbLine
10
-83.3645574636724
20
22.3522791431609
30
0.00000000000000
11
-83.3345574636724
21
22.3358823462481
31
0.00000000000000
  0
LINE
  5
F1011C
330
F1011D
100
AcDbEntity
8
Geo
100
AcDbLine
10
-83.3345574636724
20
22.3358823462481
30
0.00000000000000
11
-83.3045574636724
21
22.3194378353400
31
0.00000000000000
  0
LINE
  5
F1011E
330
F1011F
100
AcDbEntity
8
Geo
100
AcDbLine
10
-83.3045574636724
20
22.3194378353400
30
0.00000000000000
11
-83.2745574636724
21
22.3029468437671
31
0.00000000000000
  0
LINE
  5
F10120
330
F10121
100
AcDbEntity
8
Geo
100
AcDbLine
10
-83.2745574636724
20
22.3029468437671
30
0.00000000000000
11
-83.2445574636724
21
22.2864106083462
31
0.00000000000000
  0
LINE
  5
F10122
330
F10123
100
AcDbEntity
8
Geo
100
AcDbLine
10
-83.2445574636724
20
22.2864106083462
30
0.00000000000000
11
-83.2145574636723
21
22.2698303692871
31
0.00000000000000
  0
LINE
  5
F10124
330
F10125
100
AcDbEntity
8
Geo
100
AcDbLine
10
-83.2145574636723
20
22.2698303692871
30
0.00000000000000
11
-83.1845574636723
21
22.2532073701000
31
0.00000000000000
  0
LINE
  5
F10126
330
F10127
100
AcDbEntity
8
Geo
100
AcDbLine
10
-83.1845574636723
20
22.2532073701000
30
0.00000000000000
11
-83.1545574636723
21
22.2365428575020
31
0.00000000000000
  0
LINE
  5
F10128
330
F10129
100
AcDbEntity
8
Geo
100
AcDbLine
10
-83.1545574636723
20
22.2365428575020
30
0.00000000000000
11
-83.1245574636724
21
22.2198380813238
31
0.00000000000000
  0
LINE
  5
F1012A
330
F1012B
100
AcDbEntity
8
Geo
100
AcDbLine
10
-83.1245574636724
20
22.2198380813238
30
0.00000000000000
11
-83.0945574636724
21
22.2030942944157
31
0.00000000000000
  0
LINE
  5
F1012C
330
F1012D
100
AcDbEntity
8
Geo
100
AcDbLine
10
-83.0945574636724
20
22.2030942944157
30
0.00000000000000
11
-83.0645574636724
21
22.1863127525540
31
0.00000000000000
  0
LINE
  5
F1012E
330
F1012F
100
AcDbEntity
8
Geo
100
AcDbLine
10
-83.0645574636724
20
22.1863127525540
30
0.00000000000000
11
-83.0345574636724
21
22.1694947143463
31
0.00000000000000
  0
LINE
  5
F10130
330
F10131
100
AcDbEntity
8
Geo
100
AcDbLine
10
-83.0345574636724
20
22.1694947143463
30
0.00000000000000
11
-83.0045574636724
21
22.1526414411377
31
0.00000000000000
  0
LINE
  5
F10132
330
F10133
100
AcDbEntity
8
Geo
100
AcDbLine
10
-83.0045574636724
20
22.1526414411377
30
0.00000000000000
11
-82.9745574636724
21
22.1357541969158
31
0.00000000000000
  0
LINE
  5
F10134
330
F10135
100
AcDbEntity
8
Geo
100
AcDbLine
10
-82.9745574636724
20
22.1357541969158
30
0.00000000000000
11
-82.9445574636724
21
22.1188342482160
31
0.00000000000000
  0
LINE
  5
F10136
330
F10137
100
AcDbEntity
8
Geo
100
AcDbLine
10
-82.9445574636724
20
22.1188342482160
30
0.00000000000000
11
-82.9145574636724
21
22.1018828640264
31
0.00000000000000
  0
LINE
  5
F10138
330
F10139
100
AcDbEntity
8
Geo
100
AcDbLine
10
-82.9145574636724
20
22.1018828640264
30
0.00000000000000
11
-82.8845574636724
21
22.0849013156930
31
0.00000000000000
  0
LINE
  5
F1013A
330
F1013B
100
AcDbEntity
8
Geo
100
AcDbLine
10
-82.8845574636724
20
22.0849013156930
30
0.00000000000000
11
-82.8545574636724
21
22.0678908768239
31
0.00000000000000
  0
LINE
  5
F1013C
330
F1013D
100
AcDbEntity
8
Geo
100
AcDbLine
10
-82.8545574636724
20
22.0678908768239
30
0.00000000000000
11
-82.8245574636723
21
22.0508528231941
31
0.00000000000000
  0
LINE
  5
F1013E
330
F1013F
100
AcDbEntity
8
Geo
100
AcDbLine
10
-82.8245574636723
20
22.0508528231941
30
0.00000000000000
11
-82.7945574636723
21
22.0337884326495
31
0.00000000000000
  0
LINE
  5
F10140
330
F10141
100
AcDbEntity
8
Geo
100
AcDbLine
10
-82.7945574636723
20
22.0337884326495
30
0.00000000000000
11
-82.7645574636723
21
22.0166989850116
31
0.00000000000000
  0
LINE
  5
F10142
330
F10143
100
AcDbEntity
8
Geo
100
AcDbLine
10
-82.7645574636723
20
22.0166989850116
30
0.00000000000000
11
-82.7345574636723
21
21.9995857619808
31
0.00000000000000
  0
LINE
  5
F10144
330
F10145
100
AcDbEntity
8
Geo
100
AcDbLine
10
-82.7345574636723
20
21.9995857619808
30
0.00000000000000
11
-82.7045574636723
21
21.9824500470409
31
0.00000000000000
  0
LINE
  5
F10146
330
F10147
100
AcDbEntity
8
Geo
100
AcDbLine
10
-82.7045574636723
20
21.9824500470409
30
0.00000000000000
11
-82.6745574636724
21
21.9652931253624
31
0.00000000000000
  0
LINE
  5
F10148
330
F10149
100
AcDbEntity
8
Geo
100
AcDbLine
10
-82.6745574636724
20
21.9652931253624
30
0.00000000000000
11
-82.6445574636724
21
21.9481162837064
31
0.00000000000000
  0
LINE
  5
F1014A
330
F1014B
100
AcDbEntity
8
Geo
100
AcDbLine
10
-82.6445574636724
20
21.9481162837064
30
0.00000000000000
11
-82.6145574636724
21
21.9309208103281
31
0.00000000000000
  0
LINE
  5
F1014C
330
F1014D
100
AcDbEntity
8
Geo
100
AcDbLine
10
-82.6145574636724
20
21.9309208103281
30
0.00000000000000
11
-82.5845574636724
21
21.9137079948798
31
0.00000000000000
  0
LINE
  5
F1014E
330
F1014F
100
AcDbEntity
8
Geo
100
AcDbLine
10
-82.5845574636724
20
21.9137079948798
30
0.00000000000000
11
-82.5545574636724
21
21.8964791283146
31
0.00000000000000
  0
LINE
  5
F10150
330
F10151
100
AcDbEntity
8
Geo
100
AcDbLine
10
-82.5545574636724
20
21.8964791283146
30
0.00000000000000
11
-82.5245574636724
21
21.8792355027895
31
0.00000000000000
  0
LINE
  5
F10152
330
F10153
100
AcDbEntity
8
Geo
100
AcDbLine
10
-82.5245574636724
20
21.8792355027895
30
0.00000000000000
11
-82.4945574636724
21
21.8619784115682
31
0.00000000000000
  0
LINE
  5
F10154
330
F10155
100
AcDbEntity
8
Geo
100
AcDbLine
10
-82.4945574636724
20
21.8619784115682
30
0.00000000000000
11
-82.4645574636723
21
21.8447091489246
31
0.00000000000000
  0
LINE
  5
F10156
330
F10157
100
AcDbEntity
8
Geo
100
AcDbLine
10
-82.4645574636723
20
21.8447091489246
30
0.00000000000000
11
-82.4345574636723
21
21.8274290100452
31
0.00000000000000
  0
LINE
  5
F10158
330
F10159
100
AcDbEntity
8
Geo
100
AcDbLine
10
-82.4345574636723
20
21.8274290100452
30
0.00000000000000
11
-82.4045574636723
21
21.8101392909324
31
0.00000000000000
  0
LINE
  5
F1015A
330
F1015B
100
AcDbEntity
8
Geo
100
AcDbLine
10
-82.4045574636723
20
21.8101392909324
30
0.00000000000000
11
-82.3745574636723
21
21.7928412883070
31
0.00000000000000
  0
LINE
  5
F1015C
330
F1015D
100
AcDbEntity
8
Geo
100
AcDbLine
10
-82.3745574636723
20
21.7928412883070
30
0.00000000000000
11
-82.3445574636723
21
21.7755362995110
31
0.00000000000000
  0
LINE
  5
F1015E
330
F1015F
100
AcDbEntity
8
Geo
100
AcDbLine
10
-82.3445574636723
20
21.7755362995110
30
0.00000000000000
11
-82.3145574636723
21
21.7582256224106
31
0.00000000000000
  0
LINE
  5
F10160
330
F10161
100
AcDbEntity
8
Geo
100
AcDbLine
10
-82.3145574636723
20
21.7582256224106
30
0.00000000000000
11
-82.2845574636723
21
21.7409105552983
31
0.00000000000000
  0
LINE
  5
F10162
330
F10163
100
AcDbEntity
8
Geo
100
AcDbLine
10
-82.2845574636723
20
21.7409105552983
30
0.00000000000000
11
-82.2545574636723
21
21.7235923967962
31
0.00000000000000
  0
LINE
  5
F10164
330
F10165
100
AcDbEntity
8
Geo
100
AcDbLine
10
-82.2545574636723
20
21.7235923967962
30
0.00000000000000
11
-82.2245574636723
21
21.7062724457579
31
0.00000000000000
  0
LINE
  5
F10166
330
F10167
100
AcDbEntity
8
Geo
100
AcDbLine
10
-82.2245574636723
20
21.7062724457579
30
0.00000000000000
11
-82.1945574636723
21
21.6889520011717
31
0.00000000000000
  0
LINE
  5
F10168
330
F10169
100
AcDbEntity
8
Geo
100
AcDbLine
10
-82.1945574636723
20
21.6889520011717
30
0.00000000000000
11
-82.1645574636724
21
21.6716323620628
31
0.00000000000000
  0
LINE
  5
F1016A
330
F1016B
100
AcDbEntity
8
Geo
100
AcDbLine
10
-82.1645574636724
20
21.6716323620628
30
0.00000000000000
11
-82.1345574636724
21
21.6543148273960
31
0.00000000000000
  0
LINE
  5
F1016C
330
F1016D
100
AcDbEntity
8
Geo
100
AcDbLine
10
-82.1345574636724
20
21.6543148273960
30
0.00000000000000
11
-82.1045574636724
21
21.6370006959784
31
0.00000000000000
  0
LINE
  5
F1016E
330
F1016F
100
AcDbEntity
8
Geo
100
AcDbLine
10
-82.1045574636724
20
21.6370006959784
30
0.00000000000000
11
-82.0745574636723
21
21.6196912663616
31
0.00000000000000
  0
LINE
  5
F10170
330
F10171
100
AcDbEntity
8
Geo
100
AcDbLine
10
-82.0745574636723
20
21.6196912663616
30
0.00000000000000
11
-82.0445574636723
21
21.6023878367447
31
0.00000000000000
  0
LINE
  5
F10172
330
F10173
100
AcDbEntity
8
Geo
100
AcDbLine
10
-82.0445574636723
20
21.6023878367447
30
0.00000000000000
11
-82.0145574636723
21
21.5850917048769
31
0.00000000000000
  0
LINE
  5
F10174
330
F10175
100
AcDbEntity
8
Geo
100
AcDbLine
10
-82.0145574636723
20
21.5850917048769
30
0.00000000000000
11
-81.9845574636723
21
21.5678041679600
31
0.00000000000000
  0
LINE
  5
F10176
330
F10177
100
AcDbEntity
8
Geo
100
AcDbLine
10
-81.9845574636723
20
21.5678041679600
30
0.00000000000000
11
-81.9545574636723
21
21.5505265225510
31
0.00000000000000
  0
LINE
  5
F10178
330
F10179
100
AcDbEntity
8
Geo
100
AcDbLine
10
-81.9545574636723
20
21.5505265225510
30
0.00000000000000
11
-81.9245574636723
21
21.5332600644654
31
0.00000000000000
  0
LINE
  5
F1017A
330
F1017B
100
AcDbEntity
8
Geo
100
AcDbLine
10
-81.9245574636723
20
21.5332600644654
30
0.00000000000000
11
-81.8945574636723
21
21.5160060886794
31
0.00000000000000
  0
LINE
  5
F1017C
330
F1017D
100
AcDbEntity
8
Geo
100
AcDbLine
10
-81.8945574636723
20
21.5160060886794
30
0.00000000000000
11
-81.8645574636723
21
21.4987658892330
31
0.00000000000000
  0
LINE
  5
F1017E
330
F1017F
100
AcDbEntity
8
Geo
100
AcDbLine
10
-81.8645574636723
20
21.4987658892330
30
0.00000000000000
11
-81.8345574636723
21
21.4815407591332
31
0.00000000000000
  0
LINE
  5
F10180
330
F10181
100
AcDbEntity
8
Geo
100
AcDbLine
10
-81.8345574636723
20
21.4815407591332
30
0.00000000000000
11
-81.8045574636723
21
21.4643319902567
31
0.00000000000000
  0
LINE
  5
F10182
330
F10183
100
AcDbEntity
8
Geo
100
AcDbLine
10
-81.8045574636723
20
21.4643319902567
30
0.00000000000000
11
-81.7745574636723
21
21.4471408732529
31
0.00000000000000
  0
LINE
  5
F10184
330
F10185
100
AcDbEntity
8
Geo
100
AcDbLine
10
-81.7745574636723
20
21.4471408732529
30
0.00000000000000
11
-81.7445574636723
21
21.4299686974477
31
0.00000000000000
  0
LINE
  5
F10186
330
F10187
100
AcDbEntity
8
Geo
100
AcDbLine
10
-81.7445574636723
20
21.4299686974477
30
0.00000000000000
11
-81.7145574636723
21
21.4128167507463
31
0.00000000000000
  0
LINE
  5
F10188
330
F10189
100
AcDbEntity
8
Geo
100
AcDbLine
10
-81.7145574636723
20
21.4128167507463
30
0.00000000000000
11
-81.6845574636723
21
21.3956863195364
31
0.00000000000000
  0
LINE
  5
F1018A
330
F1018B
100
AcDbEntity
8
Geo
100
AcDbLine
10
-81.6845574636723
20
21.3956863195364
30
0.00000000000000
11
-81.6545574636723
21
21.3785786885926
31
0.00000000000000
  0
LINE
  5
F1018C
330
F1018D
100
AcDbEntity
8
Geo
100
AcDbLine
10
-81.6545574636723
20
21.3785786885926
30
0.00000000000000
11
-81.6245574636723
21
21.3614951409789
31
0.00000000000000
  0
LINE
  5
F1018E
330
F1018F
100
AcDbEntity
8
Geo
100
AcDbLine
10
-81.6245574636723
20
21.3614951409789
30
0.00000000000000
11
-81.5945574636723
21
21.3444369579537
31
0.00000000000000
  0
LINE
  5
F10190
330
F10191
100
AcDbEntity
8
Geo
100
AcDbLine
10
-81.5945574636723
20
21.3444369579537
30
0.00000000000000
11
-81.5645574636723
21
21.3274054188724
31
0.00000000000000
  0
LINE
  5
F10192
330
F10193
100
AcDbEntity
8
Geo
100
AcDbLine
10
-81.5645574636723
20
21.3274054188724
30
0.00000000000000
11
-81.5345574636723
21
21.3104018010927
31
0.00000000000000
  0
LINE
  5
F10194
330
F10195
100
AcDbEntity
8
Geo
100
AcDbLine
10
-81.5345574636723
20
21.3104018010927
30
0.00000000000000
11
-81.5045574636723
21
21.2934273798779
31
0.00000000000000
  0
LINE
  5
F10196
330
F10197
100
AcDbEntity
8
Geo
100
AcDbLine
10
-81.5045574636723
20
21.2934273798779
30
0.00000000000000
11
-81.4745574636723
21
21.2764834283015
31
0.00000000000000
  0
LINE
  5
F10198
330
F10199
100
AcDbEntity
8
Geo
100
AcDbLine
10
-81.4745574636723
20
21.2764834283015
30
0.00000000000000
11
-81.4445574636723
21
21.2595712171521
31
0.00000000000000
  0
LINE
  5
F1019A
330
F1019B
100
AcDbEntity
8
Geo
100
AcDbLine
10
-81.4445574636723
20
21.2595712171521
30
0.00000000000000
11
-81.4145574636723
21
21.2426920148376
31
0.00000000000000
  0
LINE
  5
F1019C
330
F1019D
100
AcDbEntity
8
Geo
100
AcDbLine
10
-81.4145574636723
20
21.2426920148376
30
0.00000000000000
11
-81.3845574636723
21
21.2258470872901
31
0.00000000000000
  0
LINE
  5
F1019E
330
F1019F
100
AcDbEntity
8
Geo
100
AcDbLine
10
-81.3845574636723
20
21.2258470872901
30
0.00000000000000
11
-81.3545574636723
21
21.2090376978714
31
0.00000000000000
  0
LINE
  5
F101A0
330
F101A1
100
AcDbEntity
8
Geo
100
AcDbLine
10
-81.3545574636723
20
21.2090376978714
30
0.00000000000000
11
-81.3245574636723
21
21.1922651072778
31
0.00000000000000
  0
LINE
  5
F101A2
330
F101A3
100
AcDbEntity
8
Geo
100
AcDbLine
10
-81.3245574636723
20
21.1922651072778
30
0.00000000000000
11
-81.2945574636723
21
21.1755305734457
31
0.00000000000000
  0
LINE
  5
F101A4
330
F101A5
100
AcDbEntity
8
Geo
100
AcDbLine
10
-81.2945574636723
20
21.1755305734457
30
0.00000000000000
11
-81.2645574636723
21
21.1588353514573
31
0.00000000000000
  0
LINE
  5
F101A6
330
F101A7
100
AcDbEntity
8
Geo
100
AcDbLine
10
-81.2645574636723
20
21.1588353514573
30
0.00000000000000
11
-81.2345574636723
21
21.1421806934465
31
0.00000000000000
  0
LINE
  5
F101A8
330
F101A9
100
AcDbEntity
8
Geo
100
AcDbLine
10
-81.2345574636723
20
21.1421806934465
30
0.00000000000000
11
-81.2045574636723
21
21.1255678485048
31
0.00000000000000
  0
LINE
  5
F101AA
330
F101AB
100
AcDbEntity
8
Geo
100
AcDbLine
10
-81.2045574636723
20
21.1255678485048
30
0.00000000000000
11
-81.1745574636723
21
21.1089980625878
31
0.00000000000000
  0
LINE
  5
F101AC
330
F101AD
100
AcDbEntity
8
Geo
100
AcDbLine
10
-81.1745574636723
20
21.1089980625878
30
0.00000000000000
11
-81.1445574636723
21
21.0924725784216
31
0.00000000000000
  0
LINE
  5
F101AE
330
F101AF
100
AcDbEntity
8
Geo
100
AcDbLine
10
-81.1445574636723
20
21.0924725784216
30
0.00000000000000
11
-81.1145574636723
21
21.0759926354098
31
0.00000000000000
  0
LINE
  5
F101B0
330
F101B1
100
AcDbEntity
8
Geo
100
AcDbLine
10
-81.1145574636723
20
21.0759926354098
30
0.00000000000000
11
-81.0845574636723
21
21.0595594695404
31
0.00000000000000
  0
LINE
  5
F101B2
330
F101B3
100
AcDbEntity
8
Geo
100
AcDbLine
10
-81.0845574636723
20
21.0595594695404
30
0.00000000000000
11
-81.0545574636723
21
21.0431743132932
31
0.00000000000000
  0
LINE
  5
F101B4
330
F101B5
100
AcDbEntity
8
Geo
100
AcDbLine
10
-81.0545574636723
20
21.0431743132932
30
0.00000000000000
11
-81.0245574636723
21
21.0268383955472
31
0.00000000000000
  0
LINE
  5
F101B6
330
F101B7
100
AcDbEntity
8
Geo
100
AcDbLine
10
-81.0245574636723
20
21.0268383955472
30
0.00000000000000
11
-80.9945574636723
21
21.0105529414885
31
0.00000000000000
  0
LINE
  5
F101B8
330
F101B9
100
AcDbEntity
8
Geo
100
AcDbLine
10
-80.9945574636723
20
21.0105529414885
30
0.00000000000000
11
-80.9645574636723
21
20.9943191725187
31
0.00000000000000
  0
LINE
  5
F101BA
330
F101BB
100
AcDbEntity
8
Geo
100
AcDbLine
10
-80.9645574636723
20
20.9943191725187
30
0.00000000000000
11
-80.9345574636723
21
20.9781383061626
31
0.00000000000000
  0
LINE
  5
F101BC
330
F101BD
100
AcDbEntity
8
Geo
100
AcDbLine
10
-80.9345574636723
20
20.9781383061626
30
0.00000000000000
11
-80.9045574636723
21
20.9620115559779
31
0.00000000000000
  0
LINE
  5
F101BE
330
F101BF
100
AcDbEntity
8
Geo
100
AcDbLine
10
-80.9045574636723
20
20.9620115559779
30
0.00000000000000
11
-80.8745574636723
21
20.9459401314630
31
0.00000000000000
  0
LINE
  5
F101C0
330
F101C1
100
AcDbEntity
8
Geo
100
AcDbLine
10
-80.8745574636723
20
20.9459401314630
30
0.00000000000000
11
-80.8445574636723
21
20.9299252379675
31
0.00000000000000
  0
LINE
  5
F101C2
330
F101C3
100
AcDbEntity
8
Geo
100
AcDbLine
10
-80.8445574636723
20
20.9299252379675
30
0.00000000000000
11
-80.8145574636723
21
20.9139680766006
31
0.00000000000000
  0
LINE
  5
F101C4
330
F101C5
100
AcDbEntity
8
Geo
100
AcDbLine
10
-80.8145574636723
20
20.9139680766006
30
0.00000000000000
11
-80.7845574636723
21
20.8980698441422
31
0.00000000000000
  0
LINE
  5
F101C6
330
F101C7
100
AcDbEntity
8
Geo
100
AcDbLine
10
-80.7845574636723
20
20.8980698441422
30
0.00000000000000
11
-80.7545574636723
21
20.8822317329521
31
0.00000000000000
  0
LINE
  5
F101C8
330
F101C9
100
AcDbEntity
8
Geo
100
AcDbLine
10
-80.7545574636723
20
20.8822317329521
30
0.00000000000000
11
-80.7245574636723
21
20.8664549308813
31
0.00000000000000
  0
LINE
  5
F101CA
330
F101CB
100
AcDbEntity
8
Geo
100
AcDbLine
10
-80.7245574636723
20
20.8664549308813
30
0.00000000000000
11
-80.6945574636723
21
20.8507406211825
31
0.00000000000000
  0
LINE
  5
F101CC
330
F101CD
100
AcDbEntity
8
Geo
100
AcDbLine
10
-80.6945574636723
20
20.8507406211825
30
0.00000000000000
11
-80.6645574636723
21
20.8350899824216
31
0.00000000000000
  0
LINE
  5
F101CE
330
F101CF
100
AcDbEntity
8
Geo
100
AcDbLine
10
-80.6645574636723
20
20.8350899824216
30
0.00000000000000
11
-80.6345574636723
21
20.8195041883892
31
0.00000000000000
  0
LINE
  5
F101D0
330
F101D1
100
AcDbEntity
8
Geo
100
AcDbLine
10
-80.6345574636723
20
20.8195041883892
30
0.00000000000000
11
-80.6045574636723
21
20.8039844080125
31
0.00000000000000
  0
LINE
  5
F101D2
330
F101D3
100
AcDbEntity
8
Geo
100
AcDbLine
10
-80.6045574636723
20
20.8039844080125
30
0.00000000000000
11
-80.5745574636723
21
20.7885318052678
31
0.00000000000000
  0
LINE
  5
F101D4
330
F101D5
100
AcDbEntity
8
Geo
100
AcDbLine
10
-80.5745574636723
20
20.7885318052678
30
0.00000000000000
11
-80.5445574636723
21
20.7731475390930
31
0.00000000000000
  0
LINE
  5
F101D6
330
F101D7
100
AcDbEntity
8
Geo
100
AcDbLine
10
-80.5445574636723
20
20.7731475390930
30
0.00000000000000
11
-80.5145574636723
21
20.7578327633009
31
0.00000000000000
  0
LINE
  5
F101D8
330
F101D9
100
AcDbEntity
8
Geo
100
AcDbLine
10
-80.5145574636723
20
20.7578327633009
30
0.00000000000000
11
-80.4845574636723
21
20.7425886264925
31
0.00000000000000
  0
LINE
  5
F101DA
330
F101DB
100
AcDbEntity
8
Geo
100
AcDbLine
10
-80.4845574636723
20
20.7425886264925
30
0.00000000000000
11
-80.4545574636723
21
20.7274162719708
31
0.00000000000000
  0
LINE
  5
F101DC
330
F101DD
100
AcDbEntity
8
Geo
100
AcDbLine
10
-80.4545574636723
20
20.7274162719708
30
0.00000000000000
11
-80.4245574636723
21
20.7123168376555
31
0.00000000000000
  0
LINE
  5
F101DE
330
F101DF
100
AcDbEntity
8
Geo
100
AcDbLine
10
-80.4245574636723
20
20.7123168376555
30
0.00000000000000
11
-80.3945574636723
21
20.6972914559969
31
0.00000000000000
  0
LINE
  5
F101E0
330
F101E1
100
AcDbEntity
8
Geo
100
AcDbLine
10
-80.3945574636723
20
20.6972914559969
30
0.00000000000000
11
-80.3645574636723
21
20.6823412538917
31
0.00000000000000
  0
LINE
  5
F101E2
330
F101E3
100
AcDbEntity
8
Geo
100
AcDbLine
10
-80.3645574636723
20
20.6823412538917
30
0.00000000000000
11
-80.3345574636723
21
20.6674673525980
31
0.00000000000000
  0
LINE
  5
F101E4
330
F101E5
100
AcDbEntity
8
Geo
100
AcDbLine
10
-80.3345574636723
20
20.6674673525980
30
0.00000000000000
11
-80.3045574636723
21
20.6526708676514
31
0.00000000000000
  0
LINE
  5
F101E6
330
F101E7
100
AcDbEntity
8
Geo
100
AcDbLine
10
-80.3045574636723
20
20.6526708676514
30
0.00000000000000
11
-80.2745574636723
21
20.6379529087814
31
0.00000000000000
  0
LINE
  5
F101E8
330
F101E9
100
AcDbEntity
8
Geo
100
AcDbLine
10
-80.2745574636723
20
20.6379529087814
30
0.00000000000000
11
-80.2445574636723
21
20.6233145798280
31
0.00000000000000
  0
LINE
  5
F101EA
330
F101EB
100
AcDbEntity
8
Geo
100
AcDbLine
10
-80.2445574636723
20
20.6233145798280
30
0.00000000000000
11
-80.2145574636723
21
20.6087569786590
31
0.00000000000000
  0
LINE
  5
F101EC
330
F101ED
100
AcDbEntity
8
Geo
100
AcDbLine
10
-80.2145574636723
20
20.6087569786590
30
0.00000000000000
11
-80.1845574636723
21
20.5942811970876
31
0.00000000000000
  0
LINE
  5
F101EE
330
F101EF
100
AcDbEntity
8
Geo
100
AcDbLine
10
-80.1845574636723
20
20.5942811970876
30
0.00000000000000
11
-80.1545574636723
21
20.5798883207907
31
0.00000000000000
  0
LINE
  5
F101F0
330
F101F1
100
AcDbEntity
8
Geo
100
AcDbLine
10
-80.1545574636723
20
20.5798883207907
30
0.00000000000000
11
-80.1245574636723
21
20.5655794292273
31
0.00000000000000
  0
LINE
  5
F101F2
330
F101F3
100
AcDbEntity
8
Geo
100
AcDbLine
10
-80.1245574636723
20
20.5655794292273
30
0.00000000000000
11
-80.0945574636723
21
20.5513555955575
31
0.00000000000000
  0
LINE
  5
F101F4
330
F101F5
100
AcDbEntity
8
Geo
100
AcDbLine
10
-80.0945574636723
20
20.5513555955575
30
0.00000000000000
11
-80.0645574636723
21
20.5372178865622
31
0.00000000000000
  0
LINE
  5
F101F6
330
F101F7
100
AcDbEntity
8
Geo
100
AcDbLine
10
-80.0645574636723
20
20.5372178865622
30
0.00000000000000
11
-80.0345574636723
21
20.5231673625629
31
0.00000000000000
  0
LINE
  5
F101F8
330
F101F9
100
AcDbEntity
8
Geo
100
AcDbLine
10
-80.0345574636723
20
20.5231673625629
30
0.00000000000000
11
-80.0045574636723
21
20.5092050773424
31
0.00000000000000
  0
LINE
  5
F101FA
330
F101FB
100
AcDbEntity
8
Geo
100
AcDbLine
10
-80.0045574636723
20
20.5092050773424
30
0.00000000000000
11
-79.9745574636723
21
20.4953320780654
31
0.00000000000000
  0
LINE
  5
F101FC
330
F101FD
100
AcDbEntity
8
Geo
100
AcDbLine
10
-79.9745574636723
20
20.4953320780654
30
0.00000000000000
11
-79.9445574636723
21
20.4815494052005
31
0.00000000000000
  0
LINE
  5
F101FE
330
F101FF
100
AcDbEntity
8
Geo
100
AcDbLine
10
-79.9445574636723
20
20.4815494052005
30
0.00000000000000
11
-79.9145574636723
21
20.4678580924416
31
0.00000000000000
  0
LINE
  5
F10200
330
F10201
100
AcDbEntity
8
Geo
100
AcDbLine
10
-79.9145574636723
20
20.4678580924416
30
0.00000000000000
11
-79.8845574636723
21
20.4542591666308
31
0.00000000000000
  0
LINE
  5
F10202
330
F10203
100
AcDbEntity
8
Geo
100
AcDbLine
10
-79.8845574636723
20
20.4542591666308
30
0.00000000000000
11
-79.8545574636723
21
20.4407536476812
31
0.00000000000000
  0
LINE
  5
F10204
330
F10205
100
AcDbEntity
8
Geo
100
AcDbLine
10
-79.8545574636723
20
20.4407536476812
30
0.00000000000000
11
-79.8245574636723
21
20.4273425485002
31
0.00000000000000
  0
LINE
  5
F10206
330
F10207
100
AcDbEntity
8
Geo
100
AcDbLine
10
-79.8245574636723
20
20.4273425485002
30
0.00000000000000
11
-79.7945574636723
21
20.4140268749142
31
0.00000000000000
  0
LINE
  5
F10208
330
F10209
100
AcDbEntity
8
Geo
100
AcDbLine
10
-79.7945574636723
20
20.4140268749142
30
0.00000000000000
11
-79.7645574636723
21
20.4008076255923
31
0.00000000000000
  0
LINE
  5
F1020A
330
F1020B
100
AcDbEntity
8
Geo
100
AcDbLine
10
-79.7645574636723
20
20.4008076255923
30
0.00000000000000
11
-79.7345574636723
21
20.3876857919721
31
0.00000000000000
  0
LINE
  5
F1020C
330
F1020D
100
AcDbEntity
8
Geo
100
AcDbLine
10
-79.7345574636723
20
20.3876857919721
30
0.00000000000000
11
-79.7045574636723
21
20.3746623581849
31
0.00000000000000
  0
LINE
  5
F1020E
330
F1020F
100
AcDbEntity
8
Geo
100
AcDbLine
10
-79.7045574636723
20
20.3746623581849
30
0.00000000000000
11
-79.6745574636723
21
20.3617383009821
31
0.00000000000000
  0
LINE
  5
F10210
330
F10211
100
AcDbEntity
8
Geo
100
AcDbLine
10
-87.3845574636724
20
21.8800010140278
30
0.00000000000000
11
-87.3845574636724
21
20.7015854789023
31
0.00000000000000
  0
LINE
  5
F10212
330
F10213
100
AcDbEntity
8
Geo
100
AcDbLine
10
-87.3845574636724
20
20.7015854789023
30
0.00000000000000
11
-87.3605620951934
21
20.6558775115622
31
0.00000000000000
  0
LINE
  5
F10214
330
F10215
100
AcDbEntity
8
Geo
100
AcDbLine
10
-87.3845574636724
20
20.7015854789023
30
0.00000000000000
11
-87.3845574636724
21
21.8800010140278
31
0.00000000000000
  0
LINE
  5
F10216
330
F10217
100
AcDbEntity
8
Geo
100
AcDbLine
10
-87.3845574636724
20
21.8800010140278
30
0.00000000000000
11
-87.3545574636724
21
22.1178900238544
31
0.00000000000000
  0
LINE
  5
F10218
330
F10219
100
AcDbEntity
8
Geo
100
AcDbLine
10
-87.3545574636724
20
22.1178900238544
30
0.00000000000000
11
-87.3245574636723
21
22.2368923048850
31
0.00000000000000
  0
LINE
  5
F1021A
330
F1021B
100
AcDbEntity
8
Geo
100
AcDbLine
10
-87.3245574636723
20
22.2368923048850
30
0.00000000000000
11
-87.2945574636723
21
22.3259902206856
31
0.00000000000000
  0
LINE
  5
F1021C
330
F1021D
100
AcDbEntity
8
Geo
100
AcDbLine
10
-87.2945574636723
20
22.3259902206856
30
0.00000000000000
11
-87.2645574636723
21
22.3990471267476
31
0.00000000000000
  0
LINE
  5
F1021E
330
F1021F
100
AcDbEntity
8
Geo
100
AcDbLine
10
-87.2645574636723
20
22.3990471267476
30
0.00000000000000
11
-87.2345574636723
21
22.4615963413243
31
0.00000000000000
  0
LINE
  5
F10220
330
F10221
100
AcDbEntity
8
Geo
100
AcDbLine
10
-87.2345574636723
20
22.4615963413243
30
0.00000000000000
11
-87.2045574636723
21
22.5165176404962
31
0.00000000000000
  0
LINE
  5
F10222
330
F10223
100
AcDbEntity
8
Geo
100
AcDbLine
10
-87.2045574636723
20
22.5165176404962
30
0.00000000000000
11
-87.1745574636723
21
22.5655373259242
31
0.00000000000000
  0
LINE
  5
F10224
330
F10225
100
AcDbEntity
8
Geo
100
AcDbLine
10
-87.1745574636723
20
22.5655373259242
30
0.00000000000000
11
-87.1445574636723
21
22.6097871719927
31
0.00000000000000
  0
LINE
  5
F10226
330
F10227
100
AcDbEntity
8
Geo
100
AcDbLine
10
-87.1445574636723
20
22.6097871719927
30
0.00000000000000
11
-87.1145574636723
21
22.6500568269375
31
0.00000000000000
  0
LINE
  5
F10228
330
F10229
100
AcDbEntity
8
Geo
100
AcDbLine
10
-87.1145574636723
20
22.6500568269375
30
0.00000000000000
11
-87.0845574636724
21
22.6869231275870
31
0.00000000000000
  0
LINE
  5
F1022A
330
F1022B
100
AcDbEntity
8
Geo
100
AcDbLine
10
-87.0845574636724
20
22.6869231275870
30
0.00000000000000
11
-87.0545574636724
21
22.7208226134687
31
0.00000000000000
  0
LINE
  5
F1022C
330
F1022D
100
AcDbEntity
8
Geo
100
AcDbLine
10
-87.0545574636724
20
22.7208226134687
30
0.00000000000000
11
-87.0245574636724
21
22.7520950579758
31
0.00000000000000
  0
LINE
  5
F1022E
330
F1022F
100
AcDbEntity
8
Geo
100
AcDbLine
10
-87.0245574636724
20
22.7520950579758
30
0.00000000000000
11
-86.9945574636724
21
22.7810110352723
31
0.00000000000000
  0
LINE
  5
F10230
330
F10231
100
AcDbEntity
8
Geo
100
AcDbLine
10
-86.9945574636724
20
22.7810110352723
30
0.00000000000000
11
-86.9645574636723
21
22.8077901465002
31
0.00000000000000
  0
LINE
  5
F10232
330
F10233
100
AcDbEntity
8
Geo
100
AcDbLine
10
-86.9645574636723
20
22.8077901465002
30
0.00000000000000
11
-86.9345574636723
21
22.8326135063060
31
0.00000000000000
  0
LINE
  5
F10234
330
F10235
100
AcDbEntity
8
Geo
100
AcDbLine
10
-86.9345574636723
20
22.8326135063060
30
0.00000000000000
11
-86.9045574636723
21
22.8556325562667
31
0.00000000000000
  0
LINE
  5
F10236
330
F10237
100
AcDbEntity
8
Geo
100
AcDbLine
10
-86.9045574636723
20
22.8556325562667
30
0.00000000000000
11
-86.8745574636723
21
22.8769754458353
31
0.00000000000000
  0
LINE
  5
F10238
330
F10239
100
AcDbEntity
8
Geo
100
AcDbLine
10
-86.8745574636723
20
22.8769754458353
30
0.00000000000000
11
-86.8445574636723
21
22.8967517545181
31
0.00000000000000
  0
LINE
  5
F1023A
330
F1023B
100
AcDbEntity
8
Geo
100
AcDbLine
10
-86.8445574636723
20
22.8967517545181
30
0.00000000000000
11
-86.8145574636723
21
22.9150560538625
31
0.00000000000000
  0
LINE
  5
F1023C
330
F1023D
100
AcDbEntity
8
Geo
100
AcDbLine
10
-86.8145574636723
20
22.9150560538625
30
0.00000000000000
11
-86.7845574636723
21
22.9319706397904
31
0.00000000000000
  0
LINE
  5
F1023E
330
F1023F
100
AcDbEntity
8
Geo
100
AcDbLine
10
-86.7845574636723
20
22.9319706397904
30
0.00000000000000
11
-86.7545574636723
21
22.9475676599342
31
0.00000000000000
  0
LINE
  5
F10240
330
F10241
100
AcDbEntity
8
Geo
100
AcDbLine
10
-86.7545574636723
20
22.9475676599342
30
0.00000000000000
11
-86.7245574636723
21
22.9619107920658
31
0.00000000000000
  0
LINE
  5
F10242
330
F10243
100
AcDbEntity
8
Geo
100
AcDbLine
10
-86.7245574636723
20
22.9619107920658
30
0.00000000000000
11
-86.6945574636724
21
22.9750565842213
31
0.00000000000000
  0
LINE
  5
F10244
330
F10245
100
AcDbEntity
8
Geo
100
AcDbLine
10
-86.6945574636724
20
22.9750565842213
30
0.00000000000000
11
-86.6645574636724
21
22.9870555362787
31
0.00000000000000
  0
LINE
  5
F10246
330
F10247
100
AcDbEntity
8
Geo
100
AcDbLine
10
-86.6645574636724
20
22.9870555362787
30
0.00000000000000
11
-86.6345574636724
21
22.9979529814224
31
0.00000000000000
  0
LINE
  5
F10248
330
F10249
100
AcDbEntity
8
Geo
100
AcDbLine
10
-86.6345574636724
20
22.9979529814224
30
0.00000000000000
11
-86.6045574636724
21
23.0077898109293
31
0.00000000000000
  0
LINE
  5
F1024A
330
F1024B
100
AcDbEntity
8
Geo
100
AcDbLine
10
-86.6045574636724
20
23.0077898109293
30
0.00000000000000
11
-86.5745574636723
21
23.0166030749822
31
0.00000000000000
  0
LINE
  5
F1024C
330
F1024D
100
AcDbEntity
8
Geo
100
AcDbLine
10
-86.5745574636723
20
23.0166030749822
30
0.00000000000000
11
-86.5445574636723
21
23.0244264844387
31
0.00000000000000
  0
LINE
  5
F1024E
330
F1024F
100
AcDbEntity
8
Geo
100
AcDbLine
10
-86.5445574636723
20
23.0244264844387
30
0.00000000000000
11
-86.5145574636723
21
23.0312908327624
31
0.00000000000000
  0
LINE
  5
F10250
330
F10251
100
AcDbEntity
8
Geo
100
AcDbLine
10
-86.5145574636723
20
23.0312908327624
30
0.00000000000000
11
-86.4845574636723
21
23.0372243530682
31
0.00000000000000
  0
LINE
  5
F10252
330
F10253
100
AcDbEntity
8
Geo
100
AcDbLine
10
-86.4845574636723
20
23.0372243530682
30
0.00000000000000
11
-86.4545574636723
21
23.0422530220283
31
0.00000000000000
  0
LINE
  5
F10254
330
F10255
100
AcDbEntity
8
Geo
100
AcDbLine
10
-86.4545574636723
20
23.0422530220283
30
0.00000000000000
11
-86.4245574636723
21
23.0464008199489
31
0.00000000000000
  0
LINE
  5
F10256
330
F10257
100
AcDbEntity
8
Geo
100
AcDbLine
10
-86.4245574636723
20
23.0464008199489
30
0.00000000000000
11
-86.3945574636723
21
23.0496899544576
31
0.00000000000000
  0
LINE
  5
F10258
330
F10259
100
AcDbEntity
8
Geo
100
AcDbLine
10
-86.3945574636723
20
23.0496899544576
30
0.00000000000000
11
-86.3645574636723
21
23.0521410537867
31
0.00000000000000
  0
LINE
  5
F1025A
330
F1025B
100
AcDbEntity
8
Geo
100
AcDbLine
10
-86.3645574636723
20
23.0521410537867
30
0.00000000000000
11
-86.3345574636723
21
23.0537733345088
31
0.00000000000000
  0
LINE
  5
F1025C
330
F1025D
100
AcDbEntity
8
Geo
100
AcDbLine
10
-86.3345574636723
20
23.0537733345088
30
0.00000000000000
11
-86.3045574636724
21
23.0546047476829
31
0.00000000000000
  0
LINE
  5
F1025E
330
F1025F
100
AcDbEntity
8
Geo
100
AcDbLine
10
-86.3045574636724
20
23.0546047476829
30
0.00000000000000
11
-86.2745574636724
21
23.0546521066639
31
0.00000000000000
  0
LINE
  5
F10260
330
F10261
100
AcDbEntity
8
Geo
100
AcDbLine
10
-86.2745574636724
20
23.0546521066639
30
0.00000000000000
11
-86.2445574636724
21
23.0539311992590
31
0.00000000000000
  0
LINE
  5
F10262
330
F10263
100
AcDbEntity
8
Geo
100
AcDbLine
10
-86.2445574636724
20
23.0539311992590
30
0.00000000000000
11
-86.2145574636723
21
23.0524568864589
31
0.00000000000000
  0
LINE
  5
F10264
330
F10265
100
AcDbEntity
8
Geo
100
AcDbLine
10
-86.2145574636723
20
23.0524568864589
30
0.00000000000000
11
-86.1845574636723
21
23.0502431896039
31
0.00000000000000
  0
LINE
  5
F10266
330
F10267
100
AcDbEntity
8
Geo
100
AcDbLine
10
-86.1845574636723
20
23.0502431896039
30
0.00000000000000
11
-86.1545574636723
21
23.0473033675418
31
0.00000000000000
  0
LINE
  5
F10268
330
F10269
100
AcDbEntity
8
Geo
100
AcDbLine
10
-86.1545574636723
20
23.0473033675418
30
0.00000000000000
11
-86.1245574636723
21
23.0436499850894
31
0.00000000000000
  0
LINE
  5
F1026A
330
F1026B
100
AcDbEntity
8
Geo
100
AcDbLine
10
-86.1245574636723
20
23.0436499850894
30
0.00000000000000
11
-86.0945574636723
21
23.0392949739071
31
0.00000000000000
  0
LINE
  5
F1026C
330
F1026D
100
AcDbEntity
8
Geo
100
AcDbLine
10
-86.0945574636723
20
23.0392949739071
30
0.00000000000000
11
-86.0645574636723
21
23.0342496867257
31
0.00000000000000
  0
LINE
  5
F1026E
330
F1026F
100
AcDbEntity
8
Geo
100
AcDbLine
10
-86.0645574636723
20
23.0342496867257
30
0.00000000000000
11
-86.0345574636723
21
23.0285249457275
31
0.00000000000000
  0
LINE
  5
F10270
330
F10271
100
AcDbEntity
8
Geo
100
AcDbLine
10
-86.0345574636723
20
23.0285249457275
30
0.00000000000000
11
-86.0045574636723
21
23.0221310857646
31
0.00000000000000
  0
LINE
  5
F10272
330
F10273
100
AcDbEntity
8
Geo
100
AcDbLine
10
-86.0045574636723
20
23.0221310857646
30
0.00000000000000
11
-85.9745574636723
21
23.0150779930005
31
0.00000000000000
  0
LINE
  5
F10274
330
F10275
100
AcDbEntity
8
Geo
100
AcDbLine
10
-85.9745574636723
20
23.0150779930005
30
0.00000000000000
11
-85.9445574636723
21
23.0073751394766
31
0.00000000000000
  0
LINE
  5
F10276
330
F10277
100
AcDbEntity
8
Geo
100
AcDbLine
10
-85.9445574636723
20
23.0073751394766
30
0.00000000000000
11
-85.9145574636724
21
22.9990316140364
31
0.00000000000000
  0
LINE
  5
F10278
330
F10279
100
AcDbEntity
8
Geo
100
AcDbLine
10
-85.9145574636724
20
22.9990316140364
30
0.00000000000000
11
-85.8845574636724
21
22.9900561499792
31
0.00000000000000
  0
LINE
  5
F1027A
330
F1027B
100
AcDbEntity
8
Geo
100
AcDbLine
10
-85.8845574636724
20
22.9900561499792
30
0.00000000000000
11
-85.8545574636724
21
22.9804571497637
31
0.00000000000000
  0
LINE
  5
F1027C
330
F1027D
100
AcDbEntity
8
Geo
100
AcDbLine
10
-85.8545574636724
20
22.9804571497637
30
0.00000000000000
11
-85.8245574636723
21
22.9702427070372
31
0.00000000000000
  0
LINE
  5
F1027E
330
F1027F
100
AcDbEntity
8
Geo
100
AcDbLine
10
-85.8245574636723
20
22.9702427070372
30
0.00000000000000
11
-85.7945574636723
21
22.9594206262292
31
0.00000000000000
  0
LINE
  5
F10280
330
F10281
100
AcDbEntity
8
Geo
100
AcDbLine
10
-85.7945574636723
20
22.9594206262292
30
0.00000000000000
11
-85.7645574636723
21
22.9479984399112
31
0.00000000000000
  0
LINE
  5
F10282
330
F10283
100
AcDbEntity
8
Geo
100
AcDbLine
10
-85.7645574636723
20
22.9479984399112
30
0.00000000000000
11
-85.7345574636723
21
22.9359834241000
31
0.00000000000000
  0
LINE
  5
F10284
330
F10285
100
AcDbEntity
8
Geo
100
AcDbLine
10
-85.7345574636723
20
22.9359834241000
30
0.00000000000000
11
-85.7045574636723
21
22.9233826116496
31
0.00000000000000
  0
LINE
  5
F10286
330
F10287
100
AcDbEntity
8
Geo
100
AcDbLine
10
-85.7045574636723
20
22.9233826116496
30
0.00000000000000
11
-85.6745574636723
21
22.9102028038593
31
0.00000000000000
  0
LINE
  5
F10288
330
F10289
100
AcDbEntity
8
Geo
100
AcDbLine
10
-85.6745574636723
20
22.9102028038593
30
0.00000000000000
11
-85.6445574636723
21
22.8964771048060
31
0.00000000000000
  0
LINE
  5
F1028A
330
F1028B
100
AcDbEntity
8
Geo
100
AcDbLine
10
-85.6445574636723
20
22.8964771048060
30
0.00000000000000
11
-85.6145574636723
21
22.8825551564386
31
0.00000000000000
  0
LINE
  5
F1028C
330
F1028D
100
AcDbEntity
8
Geo
100
AcDbLine
10
-85.6145574636723
20
22.8825551564386
30
0.00000000000000
11
-85.5845574636723
21
22.8685444938714
31
0.00000000000000
  0
LINE
  5
F1028E
330
F1028F
100
AcDbEntity
8
Geo
100
AcDbLine
10
-85.5845574636723
20
22.8685444938714
30
0.00000000000000
11
-85.5545574636724
21
22.8544461678974
31
0.00000000000000
  0
LINE
  5
F10290
330
F10291
100
AcDbEntity
8
Geo
100
AcDbLine
10
-85.5545574636724
20
22.8544461678974
30
0.00000000000000
11
-85.5245574636724
21
22.8402612358846
31
0.00000000000000
  0
LINE
  5
F10292
330
F10293
100
AcDbEntity
8
Geo
100
AcDbLine
10
-85.5245574636724
20
22.8402612358846
30
0.00000000000000
11
-85.4945574636724
21
22.8259907616962
31
0.00000000000000
  0
LINE
  5
F10294
330
F10295
100
AcDbEntity
8
Geo
100
AcDbLine
10
-85.4945574636724
20
22.8259907616962
30
0.00000000000000
11
-85.4645574636723
21
22.8116358156111
31
0.00000000000000
  0
LINE
  5
F10296
330
F10297
100
AcDbEntity
8
Geo
100
AcDbLine
10
-85.4645574636723
20
22.8116358156111
30
0.00000000000000
11
-85.4345574636723
21
22.7971974742434
31
0.00000000000000
  0
LINE
  5
F10298
330
F10299
100
AcDbEntity
8
Geo
100
AcDbLine
10
-85.4345574636723
20
22.7971974742434
30
0.00000000000000
11
-85.4045574636723
21
22.7826768204620
31
0.00000000000000
  0
LINE
  5
F1029A
330
F1029B
100
AcDbEntity
8
Geo
100
AcDbLine
10
-85.4045574636723
20
22.7826768204620
30
0.00000000000000
11
-85.3745574636723
21
22.7680749433092
31
0.00000000000000
  0
LINE
  5
F1029C
330
F1029D
100
AcDbEntity
8
Geo
100
AcDbLine
10
-85.3745574636723
20
22.7680749433092
30
0.00000000000000
11
-85.3445574636723
21
22.7533929379189
31
0.00000000000000
  0
LINE
  5
F1029E
330
F1029F
100
AcDbEntity
8
Geo
100
AcDbLine
10
-85.3445574636723
20
22.7533929379189
30
0.00000000000000
11
-85.3145574636723
21
22.7386319054345
31
0.00000000000000
  0
LINE
  5
F102A0
330
F102A1
100
AcDbEntity
8
Geo
100
AcDbLine
10
-85.3145574636723
20
22.7386319054345
30
0.00000000000000
11
-85.2845574636723
21
22.7237929529267
31
0.00000000000000
  0
LINE
  5
F102A2
330
F102A3
100
AcDbEntity
8
Geo
100
AcDbLine
10
-85.2845574636723
20
22.7237929529267
30
0.00000000000000
11
-85.2545574636723
21
22.7088771933099
31
0.00000000000000
  0
LINE
  5
F102A4
330
F102A5
100
AcDbEntity
8
Geo
100
AcDbLine
10
-85.2545574636723
20
22.7088771933099
30
0.00000000000000
11
-85.2245574636724
21
22.6938857452591
31
0.00000000000000
  0
LINE
  5
F102A6
330
F102A7
100
AcDbEntity
8
Geo
100
AcDbLine
10
-85.2245574636724
20
22.6938857452591
30
0.00000000000000
11
-85.1945574636724
21
22.6788197331259
31
0.00000000000000
  0
LINE
  5
F102A8
330
F102A9
100
AcDbEntity
8
Geo
100
AcDbLine
10
-85.1945574636724
20
22.6788197331259
30
0.00000000000000
11
-85.1645574636724
21
22.6636802868540
31
0.00000000000000
  0
LINE
  5
F102AA
330
F102AB
100
AcDbEntity
8
Geo
100
AcDbLine
10
-85.1645574636724
20
22.6636802868540
30
0.00000000000000
11
-85.1345574636724
21
22.6484685418950
31
0.00000000000000
  0
LINE
  5
F102AC
330
F102AD
100
AcDbEntity
8
Geo
100
AcDbLine
10
-85.1345574636724
20
22.6484685418950
30
0.00000000000000
11
-85.1045574636724
21
22.6331856391225
31
0.00000000000000
  0
LINE
  5
F102AE
330
F102AF
100
AcDbEntity
8
Geo
100
AcDbLine
10
-85.1045574636724
20
22.6331856391225
30
0.00000000000000
11
-85.0745574636723
21
22.6178327247470
31
0.00000000000000
  0
LINE
  5
F102B0
330
F102B1
100
AcDbEntity
8
Geo
100
AcDbLine
10
-85.0745574636723
20
22.6178327247470
30
0.00000000000000
11
-85.0445574636723
21
22.6024109502300
31
0.00000000000000
  0
LINE
  5
F102B2
330
F102B3
100
AcDbEntity
8
Geo
100
AcDbLine
10
-85.0445574636723
20
22.6024109502300
30
0.00000000000000
11
-85.0145574636723
21
22.5869214721973
31
0.00000000000000
  0
LINE
  5
F102B4
330
F102B5
100
AcDbEntity
8
Geo
100
AcDbLine
10
-85.0145574636723
20
22.5869214721973
30
0.00000000000000
11
-84.9845574636723
21
22.5713654523526
31
0.00000000000000
  0
LINE
  5
F102B6
330
F102B7
100
AcDbEntity
8
Geo
100
AcDbLine
10
-84.9845574636723
20
22.5713654523526
30
0.00000000000000
11
-84.9545574636723
21
22.5557440573899
31
0.00000000000000
  0
LINE
  5
F102B8
330
F102B9
100
AcDbEntity
8
Geo
100
AcDbLine
10
-84.9545574636723
20
22.5557440573899
30
0.00000000000000
11
-84.9245574636724
21
22.5400584589066
31
0.00000000000000
  0
LINE
  5
F102BA
330
F102BB
100
AcDbEntity
8
Geo
100
AcDbLine
10
-84.9245574636724
20
22.5400584589066
30
0.00000000000000
11
-84.8945574636724
21
22.5243098333152
31
0.00000000000000
  0
LINE
  5
F102BC
330
F102BD
100
AcDbEntity
8
Geo
100
AcDbLine
10
-84.8945574636724
20
22.5243098333152
30
0.00000000000000
11
-84.8645574636724
21
22.5084993617554
31
0.00000000000000
  0
LINE
  5
F102BE
330
F102BF
100
AcDbEntity
8
Geo
100
AcDbLine
10
-84.8645574636724
20
22.5084993617554
30
0.00000000000000
11
-84.8345574636724
21
22.4926282300049
31
0.00000000000000
  0
LINE
  5
F102C0
330
F102C1
100
AcDbEntity
8
Geo
100
AcDbLine
10
-84.8345574636724
20
22.4926282300049
30
0.00000000000000
11
-84.8045574636724
21
22.4766976283913
31
0.00000000000000
  0
LINE
  5
F102C2
330
F102C3
100
AcDbEntity
8
Geo
100
AcDbLine
10
-84.8045574636724
20
22.4766976283913
30
0.00000000000000
11
-84.7745574636724
21
22.4607087517023
31
0.00000000000000
  0
LINE
  5
F102C4
330
F102C5
100
AcDbEntity
8
Geo
100
AcDbLine
10
-84.7745574636724
20
22.4607087517023
30
0.00000000000000
11
-84.7445574636724
21
22.4446627990960
31
0.00000000000000
  0
LINE
  5
F102C6
330
F102C7
100
AcDbEntity
8
Geo
100
AcDbLine
10
-84.7445574636724
20
22.4446627990960
30
0.00000000000000
11
-84.7145574636723
21
22.4285609740114
31
0.00000000000000
  0
LINE
  5
F102C8
330
F102C9
100
AcDbEntity
8
Geo
100
AcDbLine
10
-84.7145574636723
20
22.4285609740114
30
0.00000000000000
11
-84.6845574636723
21
22.4124044840779
31
0.00000000000000
  0
LINE
  5
F102CA
330
F102CB
100
AcDbEntity
8
Geo
100
AcDbLine
10
-84.6845574636723
20
22.4124044840779
30
0.00000000000000
11
-84.6545574636723
21
22.3961945410245
31
0.00000000000000
  0
LINE
  5
F102CC
330
F102CD
100
AcDbEntity
8
Geo
100
AcDbLine
10
-84.6545574636723
20
22.3961945410245
30
0.00000000000000
11
-84.6245574636723
21
22.3799323605895
31
0.00000000000000
  0
LINE
  5
F102CE
330
F102CF
100
AcDbEntity
8
Geo
100
AcDbLine
10
-84.6245574636723
20
22.3799323605895
30
0.00000000000000
11
-84.5945574636724
21
22.3636191624288
31
0.00000000000000
  0
LINE
  5
F102D0
330
F102D1
100
AcDbEntity
8
Geo
100
AcDbLine
10
-84.5945574636724
20
22.3636191624288
30
0.00000000000000
11
-84.5645574636724
21
22.3472561700245
31
0.00000000000000
  0
LINE
  5
F102D2
330
F102D3
100
AcDbEntity
8
Geo
100
AcDbLine
10
-84.5645574636724
20
22.3472561700245
30
0.00000000000000
11
-84.5345574636724
21
22.3308446105934
31
0.00000000000000
  0
LINE
  5
F102D4
330
F102D5
100
AcDbEntity
8
Geo
100
AcDbLine
10
-84.5345574636724
20
22.3308446105934
30
0.00000000000000
11
-84.5045574636724
21
22.3143857149949
31
0.00000000000000
  0
LINE
  5
F102D6
330
F102D7
100
AcDbEntity
8
Geo
100
AcDbLine
10
-84.5045574636724
20
22.3143857149949
30
0.00000000000000
11
-84.4745574636724
21
22.2978807176382
31
0.00000000000000
  0
LINE
  5
F102D8
330
F102D9
100
AcDbEntity
8
Geo
100
AcDbLine
10
-84.4745574636724
20
22.2978807176382
30
0.00000000000000
11
-84.4445574636724
21
22.2813308563906
31
0.00000000000000
  0
LINE
  5
F102DA
330
F102DB
100
AcDbEntity
8
Geo
100
AcDbLine
10
-84.4445574636724
20
22.2813308563906
30
0.00000000000000
11
-84.4145574636724
21
22.2647373724838
31
0.00000000000000
  0
LINE
  5
F102DC
330
F102DD
100
AcDbEntity
8
Geo
100
AcDbLine
10
-84.4145574636724
20
22.2647373724838
30
0.00000000000000
11
-84.3845574636724
21
22.2481015104214
31
0.00000000000000
  0
LINE
  5
F102DE
330
F102DF
100
AcDbEntity
8
Geo
100
AcDbLine
10
-84.3845574636724
20
22.2481015104214
30
0.00000000000000
11
-84.3545574636724
21
22.2314245178852
31
0.00000000000000
  0
LINE
  5
F102E0
330
F102E1
100
AcDbEntity
8
Geo
100
AcDbLine
10
-84.3545574636724
20
22.2314245178852
30
0.00000000000000
11
-84.3245574636723
21
22.2147076456418
31
0.00000000000000
  0
LINE
  5
F102E2
330
F102E3
100
AcDbEntity
8
Geo
100
AcDbLine
10
-84.3245574636723
20
22.2147076456418
30
0.00000000000000
11
-84.2945574636723
21
22.1979521474489
31
0.00000000000000
  0
LINE
  5
F102E4
330
F102E5
100
AcDbEntity
8
Geo
100
AcDbLine
10
-84.2945574636723
20
22.1979521474489
30
0.00000000000000
11
-84.2645574636724
21
22.1811592799609
31
0.00000000000000
  0
LINE
  5
F102E6
330
F102E7
100
AcDbEntity
8
Geo
100
AcDbLine
10
-84.2645574636724
20
22.1811592799609
30
0.00000000000000
11
-84.2345574636724
21
22.1643303026350
31
0.00000000000000
  0
LINE
  5
F102E8
330
F102E9
100
AcDbEntity
8
Geo
100
AcDbLine
10
-84.2345574636724
20
22.1643303026350
30
0.00000000000000
11
-84.2045574636724
21
22.1474664776366
31
0.00000000000000
  0
LINE
  5
F102EA
330
F102EB
100
AcDbEntity
8
Geo
100
AcDbLine
10
-84.2045574636724
20
22.1474664776366
30
0.00000000000000
11
-84.1745574636724
21
22.1305690697448
31
0.00000000000000
  0
LINE
  5
F102EC
330
F102ED
100
AcDbEntity
8
Geo
100
AcDbLine
10
-84.1745574636724
20
22.1305690697448
30
0.00000000000000
11
-84.1445574636724
21
22.1136393462571
31
0.00000000000000
  0
LINE
  5
F102EE
330
F102EF
100
AcDbEntity
8
Geo
100
AcDbLine
10
-84.1445574636724
20
22.1136393462571
30
0.00000000000000
11
-84.1145574636724
21
22.0966785768949
31
0.00000000000000
  0
LINE
  5
F102F0
330
F102F1
100
AcDbEntity
8
Geo
100
AcDbLine
10
-84.1145574636724
20
22.0966785768949
30
0.00000000000000
11
-84.0845574636724
21
22.0796880337080
31
0.00000000000000
  0
LINE
  5
F102F2
330
F102F3
100
AcDbEntity
8
Geo
100
AcDbLine
10
-84.0845574636724
20
22.0796880337080
30
0.00000000000000
11
-84.0545574636724
21
22.0626689909790
31
0.00000000000000
  0
LINE
  5
F102F4
330
F102F5
100
AcDbEntity
8
Geo
100
AcDbLine
10
-84.0545574636724
20
22.0626689909790
30
0.00000000000000
11
-84.0245574636724
21
22.0456227251284
31
0.00000000000000
  0
LINE
  5
F102F6
330
F102F7
100
AcDbEntity
8
Geo
100
AcDbLine
10
-84.0245574636724
20
22.0456227251284
30
0.00000000000000
11
-83.9945574636724
21
22.0285505146179
31
0.00000000000000
  0
LINE
  5
F102F8
330
F102F9
100
AcDbEntity
8
Geo
100
AcDbLine
10
-83.9945574636724
20
22.0285505146179
30
0.00000000000000
11
-83.9645574636723
21
22.0114536398554
31
0.00000000000000
  0
LINE
  5
F102FA
330
F102FB
100
AcDbEntity
8
Geo
100
AcDbLine
10
-83.9645574636723
20
22.0114536398554
30
0.00000000000000
11
-83.9345574636724
21
21.9943333830986
31
0.00000000000000
  0
LINE
  5
F102FC
330
F102FD
100
AcDbEntity
8
Geo
100
AcDbLine
10
-83.9345574636724
20
21.9943333830986
30
0.00000000000000
11
-83.9045574636724
21
21.9771910283585
31
0.00000000000000
  0
LINE
  5
F102FE
330
F102FF
100
AcDbEntity
8
Geo
100
AcDbLine
10
-83.9045574636724
20
21.9771910283585
30
0.00000000000000
11
-83.8745574636724
21
21.9600278613038
31
0.00000000000000
  0
LINE
  5
F10300
330
F10301
100
AcDbEntity
8
Geo
100
AcDbLine
10
-83.8745574636724
20
21.9600278613038
30
0.00000000000000
11
-83.8445574636724
21
21.9428451691639
31
0.00000000000000
  0
LINE
  5
F10302
330
F10303
100
AcDbEntity
8
Geo
100
AcDbLine
10
-83.8445574636724
20
21.9428451691639
30
0.00000000000000
11
-83.8145574636724
21
21.9256442406328
31
0.00000000000000
  0
LINE
  5
F10304
330
F10305
100
AcDbEntity
8
Geo
100
AcDbLine
10
-83.8145574636724
20
21.9256442406328
30
0.00000000000000
11
-83.7845574636724
21
21.9084263657720
31
0.00000000000000
  0
LINE
  5
F10306
330
F10307
100
AcDbEntity
8
Geo
100
AcDbLine
10
-83.7845574636724
20
21.9084263657720
30
0.00000000000000
11
-83.7545574636724
21
21.8911928359140
31
0.00000000000000
  0
LINE
  5
F10308
330
F10309
100
AcDbEntity
8
Geo
100
AcDbLine
10
-83.7545574636724
20
21.8911928359140
30
0.00000000000000
11
-83.7245574636724
21
21.8739449435656
31
0.00000000000000
  0
LINE
  5
F1030A
330
F1030B
100
AcDbEntity
8
Geo
100
AcDbLine
10
-83.7245574636724
20
21.8739449435656
30
0.00000000000000
11
-83.6945574636724
21
21.8566839823104
31
0.00000000000000
  0
LINE
  5
F1030C
330
F1030D
100
AcDbEntity
8
Geo
100
AcDbLine
10
-83.6945574636724
20
21.8566839823104
30
0.00000000000000
11
-83.6645574636724
21
21.8394112467127
31
0.00000000000000
  0
LINE
  5
F1030E
330
F1030F
100
AcDbEntity
8
Geo
100
AcDbLine
10
-83.6645574636724
20
21.8394112467127
30
0.00000000000000
11
-83.6345574636724
21
21.8221280322193
31
0.00000000000000
  0
LINE
  5
F10310
330
F10311
100
AcDbEntity
8
Geo
100
AcDbLine
10
-83.6345574636724
20
21.8221280322193
30
0.00000000000000
11
-83.6045574636724
21
21.8048356350634
31
0.00000000000000
  0
LINE
  5
F10312
330
F10313
100
AcDbEntity
8
Geo
100
AcDbLine
10
-83.6045574636724
20
21.8048356350634
30
0.00000000000000
11
-83.5745574636724
21
21.7875353521665
31
0.00000000000000
  0
LINE
  5
F10314
330
F10315
100
AcDbEntity
8
Geo
100
AcDbLine
10
-83.5745574636724
20
21.7875353521665
30
0.00000000000000
11
-83.5445574636724
21
21.7702284810418
31
0.00000000000000
  0
LINE
  5
F10316
330
F10317
100
AcDbEntity
8
Geo
100
AcDbLine
10
-83.5445574636724
20
21.7702284810418
30
0.00000000000000
11
-83.5145574636724
21
21.7529163196966
31
0.00000000000000
  0
LINE
  5
F10318
330
F10319
100
AcDbEntity
8
Geo
100
AcDbLine
10
-83.5145574636724
20
21.7529163196966
30
0.00000000000000
11
-83.4845574636724
21
21.7356001665347
31
0.00000000000000
  0
LINE
  5
F1031A
330
F1031B
100
AcDbEntity
8
Geo
100
AcDbLine
10
-83.4845574636724
20
21.7356001665347
30
0.00000000000000
11
-83.4545574636724
21
21.7182813202596
31
0.00000000000000
  0
LINE
  5
F1031C
330
F1031D
100
AcDbEntity
8
Geo
100
AcDbLine
10
-83.4545574636724
20
21.7182813202596
30
0.00000000000000
11
-83.4245574636724
21
21.7009610797767
31
0.00000000000000
  0
LINE
  5
F1031E
330
F1031F
100
AcDbEntity
8
Geo
100
AcDbLine
10
-83.4245574636724
20
21.7009610797767
30
0.00000000000000
11
-83.3945574636724
21
21.6836407440958
31
0.00000000000000
  0
LINE
  5
F10320
330
F10321
100
AcDbEntity
8
Geo
100
AcDbLine
10
-83.3945574636724
20
21.6836407440958
30
0.00000000000000
11
-83.3645574636724
21
21.6663216122340
31
0.00000000000000
  0
LINE
  5
F10322
330
F10323
100
AcDbEntity
8
Geo
100
AcDbLine
10
-83.3645574636724
20
21.6663216122340
30
0.00000000000000
11
-83.3345574636724
21
21.6490049831180
31
0.00000000000000
  0
LINE
  5
F10324
330
F10325
100
AcDbEntity
8
Geo
100
AcDbLine
10
-83.3345574636724
20
21.6490049831180
30
0.00000000000000
11
-83.3045574636724
21
21.6316921554870
31
0.00000000000000
  0
LINE
  5
F10326
330
F10327
100
AcDbEntity
8
Geo
100
AcDbLine
10
-83.3045574636724
20
21.6316921554870
30
0.00000000000000
11
-83.2745574636724
21
21.6143844277949
31
0.00000000000000
  0
LINE
  5
F10328
330
F10329
100
AcDbEntity
8
Geo
100
AcDbLine
10
-83.2745574636724
20
21.6143844277949
30
0.00000000000000
11
-83.2445574636724
21
21.5970830981131
31
0.00000000000000
  0
LINE
  5
F1032A
330
F1032B
100
AcDbEntity
8
Geo
100
AcDbLine
10
-83.2445574636724
20
21.5970830981131
30
0.00000000000000
11
-83.2145574636723
21
21.5797894640334
31
0.00000000000000
  0
LINE
  5
F1032C
330
F1032D
100
AcDbEntity
8
Geo
100
AcDbLine
10
-83.2145574636723
20
21.5797894640334
30
0.00000000000000
11
-83.1845574636723
21
21.5625048225700
31
0.00000000000000
  0
LINE
  5
F1032E
330
F1032F
100
AcDbEntity
8
Geo
100
AcDbLine
10
-83.1845574636723
20
21.5625048225700
30
0.00000000000000
11
-83.1545574636723
21
21.5452304700631
31
0.00000000000000
  0
LINE
  5
F10330
330
F10331
100
AcDbEntity
8
Geo
100
AcDbLine
10
-83.1545574636723
20
21.5452304700631
30
0.00000000000000
11
-83.1245574636724
21
21.5279677020809
31
0.00000000000000
  0
LINE
  5
F10332
330
F10333
100
AcDbEntity
8
Geo
100
AcDbLine
10
-83.1245574636724
20
21.5279677020809
30
0.00000000000000
11
-83.0945574636724
21
21.5107178133231
31
0.00000000000000
  0
LINE
  5
F10334
330
F10335
100
AcDbEntity
8
Geo
100
AcDbLine
10
-83.0945574636724
20
21.5107178133231
30
0.00000000000000
11
-83.0645574636724
21
21.4934820975230
31
0.00000000000000
  0
LINE
  5
F10336
330
F10337
100
AcDbEntity
8
Geo
100
AcDbLine
10
-83.0645574636724
20
21.4934820975230
30
0.00000000000000
11
-83.0345574636724
21
21.4762618473515
31
0.00000000000000
  0
LINE
  5
F10338
330
F10339
100
AcDbEntity
8
Geo
100
AcDbLine
10
-83.0345574636724
20
21.4762618473515
30
0.00000000000000
11
-83.0045574636724
21
21.4590583543191
31
0.00000000000000
  0
LINE
  5
F1033A
330
F1033B
100
AcDbEntity
8
Geo
100
AcDbLine
10
-83.0045574636724
20
21.4590583543191
30
0.00000000000000
11
-82.9745574636724
21
21.4418729086797
31
0.00000000000000
  0
LINE
  5
F1033C
330
F1033D
100
AcDbEntity
8
Geo
100
AcDbLine
10
-82.9745574636724
20
21.4418729086797
30
0.00000000000000
11
-82.9445574636724
21
21.4247067993338
31
0.00000000000000
  0
LINE
  5
F1033E
330
F1033F
100
AcDbEntity
8
Geo
100
AcDbLine
10
-82.9445574636724
20
21.4247067993338
30
0.00000000000000
11
-82.9145574636724
21
21.4075613137314
31
0.00000000000000
  0
LINE
  5
F10340
330
F10341
100
AcDbEntity
8
Geo
100
AcDbLine
10
-82.9145574636724
20
21.4075613137314
30
0.00000000000000
11
-82.8845574636724
21
21.3904377377761
31
0.00000000000000
  0
LINE
  5
F10342
330
F10343
100
AcDbEntity
8
Geo
100
AcDbLine
10
-82.8845574636724
20
21.3904377377761
30
0.00000000000000
11
-82.8545574636724
21
21.3733373557278
31
0.00000000000000
  0
LINE
  5
F10344
330
F10345
100
AcDbEntity
8
Geo
100
AcDbLine
10
-82.8545574636724
20
21.3733373557278
30
0.00000000000000
11
-82.8245574636723
21
21.3562614501073
31
0.00000000000000
  0
LINE
  5
F10346
330
F10347
100
AcDbEntity
8
Geo
100
AcDbLine
10
-82.8245574636723
20
21.3562614501073
30
0.00000000000000
11
-82.7945574636723
21
21.3392113015995
31
0.00000000000000
  0
LINE
  5
F10348
330
F10349
100
AcDbEntity
8
Geo
100
AcDbLine
10
-82.7945574636723
20
21.3392113015995
30
0.00000000000000
11
-82.7645574636723
21
21.3221881889576
31
0.00000000000000
  0
LINE
  5
F1034A
330
F1034B
100
AcDbEntity
8
Geo
100
AcDbLine
10
-82.7645574636723
20
21.3221881889576
30
0.00000000000000
11
-82.7345574636723
21
21.3051933889070
31
0.00000000000000
  0
LINE
  5
F1034C
330
F1034D
100
AcDbEntity
8
Geo
100
AcDbLine
10
-82.7345574636723
20
21.3051933889070
30
0.00000000000000
11
-82.7045574636723
21
21.2882281760496
31
0.00000000000000
  0
LINE
  5
F1034E
330
F1034F
100
AcDbEntity
8
Geo
100
AcDbLine
10
-82.7045574636723
20
21.2882281760496
30
0.00000000000000
11
-82.6745574636724
21
21.2712938227687
31
0.00000000000000
  0
LINE
  5
F10350
330
F10351
100
AcDbEntity
8
Geo
100
AcDbLine
10
-82.6745574636724
20
21.2712938227687
30
0.00000000000000
11
-82.6445574636724
21
21.2543915991327
31
0.00000000000000
  0
LINE
  5
F10352
330
F10353
100
AcDbEntity
8
Geo
100
AcDbLine
10
-82.6445574636724
20
21.2543915991327
30
0.00000000000000
11
-82.6145574636724
21
21.2375227728004
31
0.00000000000000
  0
LINE
  5
F10354
330
F10355
100
AcDbEntity
8
Geo
100
AcDbLine
10
-82.6145574636724
20
21.2375227728004
30
0.00000000000000
11
-82.5845574636724
21
21.2206886089259
31
0.00000000000000
  0
LINE
  5
F10356
330
F10357
100
AcDbEntity
8
Geo
100
AcDbLine
10
-82.5845574636724
20
21.2206886089259
30
0.00000000000000
11
-82.5545574636724
21
21.2038903700637
31
0.00000000000000
  0
LINE
  5
F10358
330
F10359
100
AcDbEntity
8
Geo
100
AcDbLine
10
-82.5545574636724
20
21.2038903700637
30
0.00000000000000
11
-82.5245574636724
21
21.1871293160738
31
0.00000000000000
  0
LINE
  5
F1035A
330
F1035B
100
AcDbEntity
8
Geo
100
AcDbLine
10
-82.5245574636724
20
21.1871293160738
30
0.00000000000000
11
-82.4945574636724
21
21.1704067040273
31
0.00000000000000
  0
LINE
  5
F1035C
330
F1035D
100
AcDbEntity
8
Geo
100
AcDbLine
10
-82.4945574636724
20
21.1704067040273
30
0.00000000000000
11
-82.4645574636723
21
21.1537237881123
31
0.00000000000000
  0
LINE
  5
F1035E
330
F1035F
100
AcDbEntity
8
Geo
100
AcDbLine
10
-82.4645574636723
20
21.1537237881123
30
0.00000000000000
11
-82.4345574636723
21
21.1370818195398
31
0.00000000000000
  0
LINE
  5
F10360
330
F10361
100
AcDbEntity
8
Geo
100
AcDbLine
10
-82.4345574636723
20
21.1370818195398
30
0.00000000000000
11
-82.4045574636723
21
21.1204820464495
31
0.00000000000000
  0
LINE
  5
F10362
330
F10363
100
AcDbEntity
8
Geo
100
AcDbLine
10
-82.4045574636723
20
21.1204820464495
30
0.00000000000000
11
-82.3745574636723
21
21.1039257138166
31
0.00000000000000
  0
LINE
  5
F10364
330
F10365
100
AcDbEntity
8
Geo
100
AcDbLine
10
-82.3745574636723
20
21.1039257138166
30
0.00000000000000
11
-82.3445574636723
21
21.0874140633583
31
0.00000000000000
  0
LINE
  5
F10366
330
F10367
100
AcDbEntity
8
Geo
100
AcDbLine
10
-82.3445574636723
20
21.0874140633583
30
0.00000000000000
11
-82.3145574636723
21
21.0709483334408
31
0.00000000000000
  0
LINE
  5
F10368
330
F10369
100
AcDbEntity
8
Geo
100
AcDbLine
10
-82.3145574636723
20
21.0709483334408
30
0.00000000000000
11
-82.2845574636723
21
21.0545297589859
31
0.00000000000000
  0
LINE
  5
F1036A
330
F1036B
100
AcDbEntity
8
Geo
100
AcDbLine
10
-82.2845574636723
20
21.0545297589859
30
0.00000000000000
11
-82.2545574636723
21
21.0381595713791
31
0.00000000000000
  0
LINE
  5
F1036C
330
F1036D
100
AcDbEntity
8
Geo
100
AcDbLine
10
-82.2545574636723
20
21.0381595713791
30
0.00000000000000
11
-82.2245574636723
21
21.0218389983768
31
0.00000000000000
  0
LINE
  5
F1036E
330
F1036F
100
AcDbEntity
8
Geo
100
AcDbLine
10
-82.2245574636723
20
21.0218389983768
30
0.00000000000000
11
-82.1945574636723
21
21.0055692640143
31
0.00000000000000
  0
LINE
  5
F10370
330
F10371
100
AcDbEntity
8
Geo
100
AcDbLine
10
-82.1945574636723
20
21.0055692640143
30
0.00000000000000
11
-82.1645574636724
21
20.9893515885141
31
0.00000000000000
  0
LINE
  5
F10372
330
F10373
100
AcDbEntity
8
Geo
100
AcDbLine
10
-82.1645574636724
20
20.9893515885141
30
0.00000000000000
11
-82.1345574636724
21
20.9731871881942
31
0.00000000000000
  0
LINE
  5
F10374
330
F10375
100
AcDbEntity
8
Geo
100
AcDbLine
10
-82.1345574636724
20
20.9731871881942
30
0.00000000000000
11
-82.1045574636724
21
20.9570772753771
31
0.00000000000000
  0
LINE
  5
F10376
330
F10377
100
AcDbEntity
8
Geo
100
AcDbLine
10
-82.1045574636724
20
20.9570772753771
30
0.00000000000000
11
-82.0745574636723
21
20.9410230582986
31
0.00000000000000
  0
LINE
  5
F10378
330
F10379
100
AcDbEntity
8
Geo
100
AcDbLine
10
-82.0745574636723
20
20.9410230582986
30
0.00000000000000
11
-82.0445574636723
21
20.9250257410176
31
0.00000000000000
  0
LINE
  5
F1037A
330
F1037B
100
AcDbEntity
8
Geo
100
AcDbLine
10
-82.0445574636723
20
20.9250257410176
30
0.00000000000000
11
-82.0145574636723
21
20.9090865233253
31
0.00000000000000
  0
LINE
  5
F1037C
330
F1037D
100
AcDbEntity
8
Geo
100
AcDbLine
10
-82.0145574636723
20
20.9090865233253
30
0.00000000000000
11
-81.9845574636723
21
20.8932066006556
31
0.00000000000000
  0
LINE
  5
F1037E
330
F1037F
100
AcDbEntity
8
Geo
100
AcDbLine
10
-81.9845574636723
20
20.8932066006556
30
0.00000000000000
11
-81.9545574636723
21
20.8773871639952
31
0.00000000000000
  0
LINE
  5
F10380
330
F10381
100
AcDbEntity
8
Geo
100
AcDbLine
10
-81.9545574636723
20
20.8773871639952
30
0.00000000000000
11
-81.9245574636723
21
20.8616293997945
31
0.00000000000000
  0
LINE
  5
F10382
330
F10383
100
AcDbEntity
8
Geo
100
AcDbLine
10
-81.9245574636723
20
20.8616293997945
30
0.00000000000000
11
-81.8945574636723
21
20.8459344898784
31
0.00000000000000
  0
LINE
  5
F10384
330
F10385
100
AcDbEntity
8
Geo
100
AcDbLine
10
-81.8945574636723
20
20.8459344898784
30
0.00000000000000
11
-81.8645574636723
21
20.8303036113578
31
0.00000000000000
  0
LINE
  5
F10386
330
F10387
100
AcDbEntity
8
Geo
100
AcDbLine
10
-81.8645574636723
20
20.8303036113578
30
0.00000000000000
11
-81.8345574636723
21
20.8147379365413
31
0.00000000000000
  0
LINE
  5
F10388
330
F10389
100
AcDbEntity
8
Geo
100
AcDbLine
10
-81.8345574636723
20
20.8147379365413
30
0.00000000000000
11
-81.8045574636723
21
20.7992386328471
31
0.00000000000000
  0
LINE
  5
F1038A
330
F1038B
100
AcDbEntity
8
Geo
100
AcDbLine
10
-81.8045574636723
20
20.7992386328471
30
0.00000000000000
11
-81.7745574636723
21
20.7838068627158
31
0.00000000000000
  0
LINE
  5
F1038C
330
F1038D
100
AcDbEntity
8
Geo
100
AcDbLine
10
-81.7745574636723
20
20.7838068627158
30
0.00000000000000
11
-81.7445574636723
21
20.7684437835230
31
0.00000000000000
  0
LINE
  5
F1038E
330
F1038F
100
AcDbEntity
8
Geo
100
AcDbLine
10
-81.7445574636723
20
20.7684437835230
30
0.00000000000000
11
-81.7145574636723
21
20.7531505474922
31
0.00000000000000
  0
LINE
  5
F10390
330
F10391
100
AcDbEntity
8
Geo
100
AcDbLine
10
-81.7145574636723
20
20.7531505474922
30
0.00000000000000
11
-81.6845574636723
21
20.7379283016092
31
0.00000000000000
  0
LINE
  5
F10392
330
F10393
100
AcDbEntity
8
Geo
100
AcDbLine
10
-81.6845574636723
20
20.7379283016092
30
0.00000000000000
11
-81.6545574636723
21
20.7227781875351
31
0.00000000000000
  0
LINE
  5
F10394
330
F10395
100
AcDbEntity
8
Geo
100
AcDbLine
10
-81.6545574636723
20
20.7227781875351
30
0.00000000000000
11
-81.6245574636723
21
20.7077013415215
31
0.00000000000000
  0
LINE
  5
F10396
330
F10397
100
AcDbEntity
8
Geo
100
AcDbLine
10
-81.6245574636723
20
20.7077013415215
30
0.00000000000000
11
-81.5945574636723
21
20.6926988943246
31
0.00000000000000
  0
LINE
  5
F10398
330
F10399
100
AcDbEntity
8
Geo
100
AcDbLine
10
-81.5945574636723
20
20.6926988943246
30
0.00000000000000
11
-81.5645574636723
21
20.6777719711212
31
0.00000000000000
  0
LINE
  5
F1039A
330
F1039B
100
AcDbEntity
8
Geo
100
AcDbLine
10
-81.5645574636723
20
20.6777719711212
30
0.00000000000000
11
-81.5345574636723
21
20.6629216914233
31
0.00000000000000
  0
LINE
  5
F1039C
330
F1039D
100
AcDbEntity
8
Geo
100
AcDbLine
10
-81.5345574636723
20
20.6629216914233
30
0.00000000000000
11
-81.5045574636723
21
20.6481491689949
31
0.00000000000000
  0
LINE
  5
F1039E
330
F1039F
100
AcDbEntity
8
Geo
100
AcDbLine
10
-81.5045574636723
20
20.6481491689949
30
0.00000000000000
11
-81.4745574636723
21
20.6334555117685
31
0.00000000000000
  0
LINE
  5
F103A0
330
F103A1
100
AcDbEntity
8
Geo
100
AcDbLine
10
-81.4745574636723
20
20.6334555117685
30
0.00000000000000
11
-81.4445574636723
21
20.6188418217612
31
0.00000000000000
  0
LINE
  5
F103A2
330
F103A3
100
AcDbEntity
8
Geo
100
AcDbLine
10
-81.4445574636723
20
20.6188418217612
30
0.00000000000000
11
-81.4145574636723
21
20.6043091949932
31
0.00000000000000
  0
LINE
  5
F103A4
330
F103A5
100
AcDbEntity
8
Geo
100
AcDbLine
10
-81.4145574636723
20
20.6043091949932
30
0.00000000000000
11
-81.3845574636723
21
20.5898587214044
31
0.00000000000000
  0
LINE
  5
F103A6
330
F103A7
100
AcDbEntity
8
Geo
100
AcDbLine
10
-81.3845574636723
20
20.5898587214044
30
0.00000000000000
11
-81.3545574636723
21
20.5754914847738
31
0.00000000000000
  0
LINE
  5
F103A8
330
F103A9
100
AcDbEntity
8
Geo
100
AcDbLine
10
-81.3545574636723
20
20.5754914847738
30
0.00000000000000
11
-81.3245574636723
21
20.5612085626373
31
0.00000000000000
  0
LINE
  5
F103AA
330
F103AB
100
AcDbEntity
8
Geo
100
AcDbLine
10
-81.3245574636723
20
20.5612085626373
30
0.00000000000000
11
-81.2945574636723
21
20.5470110262073
31
0.00000000000000
  0
LINE
  5
F103AC
330
F103AD
100
AcDbEntity
8
Geo
100
AcDbLine
10
-81.2945574636723
20
20.5470110262073
30
0.00000000000000
11
-81.2645574636723
21
20.5328999402925
31
0.00000000000000
  0
LINE
  5
F103AE
330
F103AF
100
AcDbEntity
8
Geo
100
AcDbLine
10
-81.2645574636723
20
20.5328999402925
30
0.00000000000000
11
-81.2345574636723
21
20.5188763632177
31
0.00000000000000
  0
LINE
  5
F103B0
330
F103B1
100
AcDbEntity
8
Geo
100
AcDbLine
10
-81.2345574636723
20
20.5188763632177
30
0.00000000000000
11
-81.2045574636723
21
20.5049413467445
31
0.00000000000000
  0
LINE
  5
F103B2
330
F103B3
100
AcDbEntity
8
Geo
100
AcDbLine
10
-81.2045574636723
20
20.5049413467445
30
0.00000000000000
11
-81.1745574636723
21
20.4910959359927
31
0.00000000000000
  0
LINE
  5
F103B4
330
F103B5
100
AcDbEntity
8
Geo
100
AcDbLine
10
-81.1745574636723
20
20.4910959359927
30
0.00000000000000
11
-81.1445574636723
21
20.4773411693617
31
0.00000000000000
  0
LINE
  5
F103B6
330
F103B7
100
AcDbEntity
8
Geo
100
AcDbLine
10
-81.1445574636723
20
20.4773411693617
30
0.00000000000000
11
-81.1145574636723
21
20.4636780784524
31
0.00000000000000
  0
LINE
  5
F103B8
330
F103B9
100
AcDbEntity
8
Geo
100
AcDbLine
10
-81.1145574636723
20
20.4636780784524
30
0.00000000000000
11
-81.0845574636723
21
20.4501076879902
31
0.00000000000000
  0
LINE
  5
F103BA
330
F103BB
100
AcDbEntity
8
Geo
100
AcDbLine
10
-81.0845574636723
20
20.4501076879902
30
0.00000000000000
11
-81.0545574636723
21
20.4366310157482
31
0.00000000000000
  0
LINE
  5
F103BC
330
F103BD
100
AcDbEntity
8
Geo
100
AcDbLine
10
-81.0545574636723
20
20.4366310157482
30
0.00000000000000
11
-81.0245574636723
21
20.4232490724703
31
0.00000000000000
  0
LINE
  5
F103BE
330
F103BF
100
AcDbEntity
8
Geo
100
AcDbLine
10
-81.0245574636723
20
20.4232490724703
30
0.00000000000000
11
-80.9945574636723
21
20.4099628617961
31
0.00000000000000
  0
LINE
  5
F103C0
330
F103C1
100
AcDbEntity
8
Geo
100
AcDbLine
10
-80.9945574636723
20
20.4099628617961
30
0.00000000000000
11
-80.9645574636723
21
20.3967733801852
31
0.00000000000000
  0
LINE
  5
F103C2
330
F103C3
100
AcDbEntity
8
Geo
100
AcDbLine
10
-80.9645574636723
20
20.3967733801852
30
0.00000000000000
11
-80.9345574636723
21
20.3836816168424
31
0.00000000000000
  0
LINE
  5
F103C4
330
F103C5
100
AcDbEntity
8
Geo
100
AcDbLine
10
-80.9345574636723
20
20.3836816168424
30
0.00000000000000
11
-80.9045574636723
21
20.3706885536439
31
0.00000000000000
  0
LINE
  5
F103C6
330
F103C7
100
AcDbEntity
8
Geo
100
AcDbLine
10
-80.9045574636723
20
20.3706885536439
30
0.00000000000000
11
-80.8745574636723
21
20.3577951650633
31
0.00000000000000
  0
LINE
  5
F103C8
330
F103C9
100
AcDbEntity
8
Geo
100
AcDbLine
10
-80.8745574636723
20
20.3577951650633
30
0.00000000000000
11
-80.8445574636723
21
20.3450024180988
31
0.00000000000000
  0
LINE
  5
F103CA
330
F103CB
100
AcDbEntity
8
Geo
100
AcDbLine
10
-80.8445574636723
20
20.3450024180988
30
0.00000000000000
11
-80.8145574636723
21
20.3323112722004
31
0.00000000000000
  0
LINE
  5
F103CC
330
F103CD
100
AcDbEntity
8
Geo
100
AcDbLine
10
-80.8145574636723
20
20.3323112722004
30
0.00000000000000
11
-80.7845574636723
21
20.3197226791980
31
0.00000000000000
  0
LINE
  5
F103CE
330
F103CF
100
AcDbEntity
8
Geo
100
AcDbLine
10
-80.7845574636723
20
20.3197226791980
30
0.00000000000000
11
-80.7545574636723
21
20.3072375832302
31
0.00000000000000
  0
LINE
  5
F103D0
330
F103D1
100
AcDbEntity
8
Geo
100
AcDbLine
10
-80.7545574636723
20
20.3072375832302
30
0.00000000000000
11
-80.7245574636723
21
20.2948569206734
31
0.00000000000000
  0
LINE
  5
F103D2
330
F103D3
100
AcDbEntity
8
Geo
100
AcDbLine
10
-80.7245574636723
20
20.2948569206734
30
0.00000000000000
11
-80.6945574636723
21
20.2825816200715
31
0.00000000000000
  0
LINE
  5
F103D4
330
F103D5
100
AcDbEntity
8
Geo
100
AcDbLine
10
-80.6945574636723
20
20.2825816200715
30
0.00000000000000
11
-80.6645574636723
21
20.2704126020662
31
0.00000000000000
  0
LINE
  5
F103D6
330
F103D7
100
AcDbEntity
8
Geo
100
AcDbLine
10
-80.6645574636723
20
20.2704126020662
30
0.00000000000000
11
-80.6345574636723
21
20.2583507793283
31
0.00000000000000
  0
LINE
  5
F103D8
330
F103D9
100
AcDbEntity
8
Geo
100
AcDbLine
10
-80.6345574636723
20
20.2583507793283
30
0.00000000000000
11
-80.6045574636723
21
20.2463970564887
31
0.00000000000000
  0
LINE
  5
F103DA
330
F103DB
100
AcDbEntity
8
Geo
100
AcDbLine
10
-80.6045574636723
20
20.2463970564887
30
0.00000000000000
11
-80.5745574636723
21
20.2345523300710
31
0.00000000000000
  0
LINE
  5
F103DC
330
F103DD
100
AcDbEntity
8
Geo
100
AcDbLine
10
-80.5745574636723
20
20.2345523300710
30
0.00000000000000
11
-80.5445574636723
21
20.2228174884243
31
0.00000000000000
  0
LINE
  5
F103DE
330
F103DF
100
AcDbEntity
8
Geo
100
AcDbLine
10
-80.5445574636723
20
20.2228174884243
30
0.00000000000000
11
-80.5145574636723
21
20.2111934116561
31
0.00000000000000
  0
LINE
  5
F103E0
330
F103E1
100
AcDbEntity
8
Geo
100
AcDbLine
10
-80.5145574636723
20
20.2111934116561
30
0.00000000000000
11
-80.4845574636723
21
20.1996809715666
31
0.00000000000000
  0
LINE
  5
F103E2
330
F103E3
100
AcDbEntity
8
Geo
100
AcDbLine
10
-80.4845574636723
20
20.1996809715666
30
0.00000000000000
11
-80.4545574636723
21
20.1882810315837
31
0.00000000000000
  0
LINE
  5
F103E4
330
F103E5
100
AcDbEntity
8
Geo
100
AcDbLine
10
-80.4545574636723
20
20.1882810315837
30
0.00000000000000
11
-80.4245574636723
21
20.1769944466973
31
0.00000000000000
  0
LINE
  5
F103E6
330
F103E7
100
AcDbEntity
8
Geo
100
AcDbLine
10
-80.4245574636723
20
20.1769944466973
30
0.00000000000000
11
-80.3945574636723
21
20.1658220633961
31
0.00000000000000
  0
LINE
  5
F103E8
330
F103E9
100
AcDbEntity
8
Geo
100
AcDbLine
10
-80.3945574636723
20
20.1658220633961
30
0.00000000000000
11
-80.3645574636723
21
20.1547647196035
31
0.00000000000000
  0
LINE
  5
F103EA
330
F103EB
100
AcDbEntity
8
Geo
100
AcDbLine
10
-80.3645574636723
20
20.1547647196035
30
0.00000000000000
11
-80.3345574636723
21
20.1438232446153
31
0.00000000000000
  0
LINE
  5
F103EC
330
F103ED
100
AcDbEntity
8
Geo
100
AcDbLine
10
-80.3345574636723
20
20.1438232446153
30
0.00000000000000
11
-80.3045574636723
21
20.1329984590368
31
0.00000000000000
  0
LINE
  5
F103EE
330
F103EF
100
AcDbEntity
8
Geo
100
AcDbLine
10
-80.3045574636723
20
20.1329984590368
30
0.00000000000000
11
-80.2745574636723
21
20.1222911747219
31
0.00000000000000
  0
LINE
  5
F103F0
330
F103F1
100
AcDbEntity
8
Geo
100
AcDbLine
10
-80.2745574636723
20
20.1222911747219
30
0.00000000000000
11
-80.2445574636723
21
20.1117021947119
31
0.00000000000000
  0
LINE
  5
F103F2
330
F103F3
100
AcDbEntity
8
Geo
100
AcDbLine
10
-80.2445574636723
20
20.1117021947119
30
0.00000000000000
11
-80.2145574636723
21
20.1012323131754
31
0.00000000000000
  0
LINE
  5
F103F4
330
F103F5
100
AcDbEntity
8
Geo
100
AcDbLine
10
-80.2145574636723
20
20.1012323131754
30
0.00000000000000
11
-80.1845574636723
21
20.0908823153486
31
0.00000000000000
  0
LINE
  5
F103F6
330
F103F7
100
AcDbEntity
8
Geo
100
AcDbLine
10
-80.1845574636723
20
20.0908823153486
30
0.00000000000000
11
-80.1545574636723
21
20.0806529774764
31
0.00000000000000
  0
LINE
  5
F103F8
330
F103F9
100
AcDbEntity
8
Geo
100
AcDbLine
10
-80.1545574636723
20
20.0806529774764
30
0.00000000000000
11
-80.1245574636723
21
20.0705450667545
31
0.00000000000000
  0
LINE
  5
F103FA
330
F103FB
100
AcDbEntity
8
Geo
100
AcDbLine
10
-80.1245574636723
20
20.0705450667545
30
0.00000000000000
11
-80.0945574636723
21
20.0605593412712
31
0.00000000000000
  0
LINE
  5
F103FC
330
F103FD
100
AcDbEntity
8
Geo
100
AcDbLine
10
-80.0945574636723
20
20.0605593412712
30
0.00000000000000
11
-80.0645574636723
21
20.0506965499515
31
0.00000000000000
  0
LINE
  5
F103FE
330
F103FF
100
AcDbEntity
8
Geo
100
AcDbLine
10
-80.0645574636723
20
20.0506965499515
30
0.00000000000000
11
-80.0345574636723
21
20.0409574325000
31
0.00000000000000
  0
LINE
  5
F10400
330
F10401
100
AcDbEntity
8
Geo
100
AcDbLine
10
-80.0345574636723
20
20.0409574325000
30
0.00000000000000
11
-80.0045574636723
21
20.0313427193460
31
0.00000000000000
  0
LINE
  5
F10402
330
F10403
100
AcDbEntity
8
Geo
100
AcDbLine
10
-80.0045574636723
20
20.0313427193460
30
0.00000000000000
11
-79.9745574636723
21
20.0218531315884
31
0.00000000000000
  0
LINE
  5
F10404
330
F10405
100
AcDbEntity
8
Geo
100
AcDbLine
10
-79.9745574636723
20
20.0218531315884
30
0.00000000000000
11
-79.9445574636723
21
20.0124893809419
31
0.00000000000000
  0
LINE
  5
F10406
330
F10407
100
AcDbEntity
8
Geo
100
AcDbLine
10
-79.9445574636723
20
20.0124893809419
30
0.00000000000000
11
-79.9145574636723
21
20.0032521696833
31
0.00000000000000
  0
LINE
  5
F10408
330
F10409
100
AcDbEntity
8
Geo
100
AcDbLine
10
-79.9145574636723
20
20.0032521696833
30
0.00000000000000
11
-79.8845574636723
21
19.9941421905993
31
0.00000000000000
  0
LINE
  5
F1040A
330
F1040B
100
AcDbEntity
8
Geo
100
AcDbLine
10
-79.8845574636723
20
19.9941421905993
30
0.00000000000000
11
-79.8545574636723
21
19.9851601269339
31
0.00000000000000
  0
LINE
  5
F1040C
330
F1040D
100
AcDbEntity
8
Geo
100
AcDbLine
10
-79.8545574636723
20
19.9851601269339
30
0.00000000000000
11
-79.8245574636723
21
19.9763066523378
31
0.00000000000000
  0
LINE
  5
F1040E
330
F1040F
100
AcDbEntity
8
Geo
100
AcDbLine
10
-79.8245574636723
20
19.9763066523378
30
0.00000000000000
11
-79.7945574636723
21
19.9675824308173
31
0.00000000000000
  0
LINE
  5
F10410
330
F10411
100
AcDbEntity
8
Geo
100
AcDbLine
10
-79.7945574636723
20
19.9675824308173
30
0.00000000000000
11
-79.7645574636723
21
19.9589881166850
31
0.00000000000000
  0
LINE
  5
F10412
330
F10413
100
AcDbEntity
8
Geo
100
AcDbLine
10
-79.7645574636723
20
19.9589881166850
30
0.00000000000000
11
-79.7345574636723
21
19.9505243545105
31
0.00000000000000
  0
LINE
  5
F10414
330
F10415
100
AcDbEntity
8
Geo
100
AcDbLine
10
-79.7345574636723
20
19.9505243545105
30
0.00000000000000
11
-79.7045574636723
21
19.9421917790719
31
0.00000000000000
  0
LINE
  5
F10416
330
F10417
100
AcDbEntity
8
Geo
100
AcDbLine
10
-79.7045574636723
20
19.9421917790719
30
0.00000000000000
11
-79.6745574636723
21
19.9339910153084
31
0.00000000000000
  0
LINE
  5
F10418
330
F10419
100
AcDbEntity
8
Geo
100
AcDbLine
10
-79.6745574636723
20
20.3617383009821
30
0.00000000000000
11
-79.6445574636723
21
20.3475280349575
31
0.00000000000000
  0
LINE
  5
F1041A
330
F1041B
100
AcDbEntity
8
Geo
100
AcDbLine
10
-79.6445574636723
20
20.3475280349575
30
0.00000000000000
11
-79.6145574636723
21
20.3301347640047
31
0.00000000000000
  0
LINE
  5
F1041C
330
F1041D
100
AcDbEntity
8
Geo
100
AcDbLine
10
-79.6145574636723
20
20.3301347640047
30
0.00000000000000
11
-79.5845574636723
21
20.3127293868259
31
0.00000000000000
  0
LINE
  5
F1041E
330
F1041F
100
AcDbEntity
8
Geo
100
AcDbLine
10
-79.5845574636723
20
20.3127293868259
30
0.00000000000000
11
-79.5545574636723
21
20.2953139200211
31
0.00000000000000
  0
LINE
  5
F10420
330
F10421
100
AcDbEntity
8
Geo
100
AcDbLine
10
-79.5545574636723
20
20.2953139200211
30
0.00000000000000
11
-79.5245574636723
21
20.2778903892841
31
0.00000000000000
  0
LINE
  5
F10422
330
F10423
100
AcDbEntity
8
Geo
100
AcDbLine
10
-79.5245574636723
20
20.2778903892841
30
0.00000000000000
11
-79.4945574636723
21
20.2604608294759
31
0.00000000000000
  0
LINE
  5
F10424
330
F10425
100
AcDbEntity
8
Geo
100
AcDbLine
10
-79.4945574636723
20
20.2604608294759
30
0.00000000000000
11
-79.4645574636723
21
20.2430272860329
31
0.00000000000000
  0
LINE
  5
F10426
330
F10427
100
AcDbEntity
8
Geo
100
AcDbLine
10
-79.4645574636723
20
20.2430272860329
30
0.00000000000000
11
-79.4345574636723
21
20.2255918215678
31
0.00000000000000
  0
LINE
  5
F10428
330
F10429
100
AcDbEntity
8
Geo
100
AcDbLine
10
-79.4345574636723
20
20.2255918215678
30
0.00000000000000
11
-79.4045574636723
21
20.2081565384664
31
0.00000000000000
  0
LINE
  5
F1042A
330
F1042B
100
AcDbEntity
8
Geo
100
AcDbLine
10
-79.4045574636723
20
20.2081565384664
30
0.00000000000000
11
-79.3745574636723
21
20.1907236430557
31
0.00000000000000
  0
LINE
  5
F1042C
330
F1042D
100
AcDbEntity
8
Geo
100
AcDbLine
10
-79.3745574636723
20
20.1907236430557
30
0.00000000000000
11
-79.3445574636723
21
20.1732956048344
31
0.00000000000000
  0
LINE
  5
F1042E
330
F1042F
100
AcDbEntity
8
Geo
100
AcDbLine
10
-79.3445574636723
20
20.1732956048344
30
0.00000000000000
11
-79.3145574636723
21
20.1558755125391
31
0.00000000000000
  0
LINE
  5
F10430
330
F10431
100
AcDbEntity
8
Geo
100
AcDbLine
10
-79.3145574636723
20
20.1558755125391
30
0.00000000000000
11
-79.2845574636723
21
20.1384678067905
31
0.00000000000000
  0
LINE
  5
F10432
330
F10433
100
AcDbEntity
8
Geo
100
AcDbLine
10
-79.2845574636723
20
20.1384678067905
30
0.00000000000000
11
-79.2545574636723
21
20.1210796883226
31
0.00000000000000
  0
LINE
  5
F10434
330
F10435
100
AcDbEntity
8
Geo
100
AcDbLine
10
-79.2545574636723
20
20.1210796883226
30
0.00000000000000
11
-79.2245574636723
21
20.1037236753953
31
0.00000000000000
  0
LINE
  5
F10436
330
F10437
100
AcDbEntity
8
Geo
100
AcDbLine
10
-79.2245574636723
20
20.1037236753953
30
0.00000000000000
11
-79.1945574636723
21
20.0864220307710
31
0.00000000000000
  0
LINE
  5
F10438
330
F10439
100
AcDbEntity
8
Geo
100
AcDbLine
10
-79.1945574636723
20
20.0864220307710
30
0.00000000000000
11
-79.1645574636723
21
20.0692141181525
31
0.00000000000000
  0
LINE
  5
F1043A
330
F1043B
100
AcDbEntity
8
Geo
100
AcDbLine
10
-79.1645574636723
20
20.0692141181525
30
0.00000000000000
11
-79.1345574636723
21
20.0521682071676
31
0.00000000000000
  0
LINE
  5
F1043C
330
F1043D
100
AcDbEntity
8
Geo
100
AcDbLine
10
-79.1345574636723
20
20.0521682071676
30
0.00000000000000
11
-79.1045574636723
21
20.0353998650961
31
0.00000000000000
  0
LINE
  5
F1043E
330
F1043F
100
AcDbEntity
8
Geo
100
AcDbLine
10
-79.1045574636723
20
20.0353998650961
30
0.00000000000000
11
-79.0745574636723
21
20.0190999235023
31
0.00000000000000
  0
LINE
  5
F10440
330
F10441
100
AcDbEntity
8
Geo
100
AcDbLine
10
-79.0745574636723
20
20.0190999235023
30
0.00000000000000
11
-79.0445574636723
21
20.0035762304419
31
0.00000000000000
  0
LINE
  5
F10442
330
F10443
100
AcDbEntity
8
Geo
100
AcDbLine
10
-79.0445574636723
20
20.0035762304419
30
0.00000000000000
11
-79.0145574636723
21
19.9893152940163
31
0.00000000000000
  0
LINE
  5
F10444
330
F10445
100
AcDbEntity
8
Geo
100
AcDbLine
10
-79.0145574636723
20
19.9893152940163
30
0.00000000000000
11
-78.9845574636723
21
19.9770731299152
31
0.00000000000000
  0
LINE
  5
F10446
330
F10447
100
AcDbEntity
8
Geo
100
AcDbLine
10
-78.9845574636723
20
19.9770731299152
30
0.00000000000000
11
-78.9545574636723
21
19.9680104733895
31
0.00000000000000
  0
LINE
  5
F10448
330
F10449
100
AcDbEntity
8
Geo
100
AcDbLine
10
-78.9545574636723
20
19.9680104733895
30
0.00000000000000
11
-78.9245574636723
21
19.9638986573090
31
0.00000000000000
  0
LINE
  5
F1044A
330
F1044B
100
AcDbEntity
8
Geo
100
AcDbLine
10
-78.9245574636723
20
19.9638986573090
30
0.00000000000000
11
-78.8945574636723
21
19.9674438932031
31
0.00000000000000
  0
LINE
  5
F1044C
330
F1044D
100
AcDbEntity
8
Geo
100
AcDbLine
10
-78.8945574636723
20
19.9674438932031
30
0.00000000000000
11
-78.8645574636723
21
19.9828180965753
31
0.00000000000000
  0
LINE
  5
F1044E
330
F1044F
100
AcDbEntity
8
Geo
100
AcDbLine
10
-78.8645574636723
20
19.9828180965753
30
0.00000000000000
11
-78.8345574636723
21
20.0165567260160
31
0.00000000000000
  0
LINE
  5
F10450
330
F10451
100
AcDbEntity
8
Geo
100
AcDbLine
10
-78.8345574636723
20
20.0165567260160
30
0.00000000000000
11
-78.8045574636723
21
20.0791010450052
31
0.00000000000000
  0
LINE
  5
F10452
330
F10453
100
AcDbEntity
8
Geo
100
AcDbLine
10
-78.8045574636723
20
20.0791010450052
30
0.00000000000000
11
-78.7745574636724
21
20.1874106905310
31
0.00000000000000
  0
LINE
  5
F10454
330
F10455
100
AcDbEntity
8
Geo
100
AcDbLine
10
-78.7745574636724
20
20.1874106905310
30
0.00000000000000
11
-78.7445574636724
21
20.3691157919603
31
0.00000000000000
  0
LINE
  5
F10456
330
F10457
100
AcDbEntity
8
Geo
100
AcDbLine
10
-78.7445574636724
20
20.3691157919603
30
0.00000000000000
11
-78.7145574636723
21
20.6680331136996
31
0.00000000000000
  0
LINE
  5
F10458
330
F10459
100
AcDbEntity
8
Geo
100
AcDbLine
10
-78.7145574636723
20
20.6680331136996
30
0.00000000000000
11
-78.6845574636723
21
21.1475780848828
31
0.00000000000000
  0
LINE
  5
F1045A
330
F1045B
100
AcDbEntity
8
Geo
100
AcDbLine
10
-78.6845574636723
20
21.1475780848828
30
0.00000000000000
11
-78.6545574636723
21
21.8772460360661
31
0.00000000000000
  0
LINE
  5
F1045C
330
F1045D
100
AcDbEntity
8
Geo
100
AcDbLine
10
-78.6545574636723
20
21.8772460360661
30
0.00000000000000
11
-78.6545574636723
21
22.1158646712090
31
0.00000000000000
  0
LINE
  5
F1045E
330
F1045F
100
AcDbEntity
8
Geo
100
AcDbLine
10
-78.6545574636723
20
22.1158646712090
30
0.00000000000000
11
-78.6845574636723
21
22.7163528434072
31
0.00000000000000
  0
LINE
  5
F10460
330
F10461
100
AcDbEntity
8
Geo
100
AcDbLine
10
-78.6845574636723
20
22.7163528434072
30
0.00000000000000
11
-78.7145574636723
21
23.1662545703515
31
0.00000000000000
  0
LINE
  5
F10462
330
F10463
100
AcDbEntity
8
Geo
100
AcDbLine
10
-78.7145574636723
20
23.1662545703515
30
0.00000000000000
11
-78.7445574636724
21
23.4809235005614
31
0.00000000000000
  0
LINE
  5
F10464
330
F10465
100
AcDbEntity
8
Geo
100
AcDbLine
10
-78.7445574636724
20
23.4809235005614
30
0.00000000000000
11
-78.7745574636724
21
23.6864901745000
31
0.00000000000000
  0
LINE
  5
F10466
330
F10467
100
AcDbEntity
8
Geo
100
AcDbLine
10
-78.7745574636724
20
23.6864901745000
30
0.00000000000000
11
-78.8045574636723
21
23.8101528116386
31
0.00000000000000
  0
LINE
  5
F10468
330
F10469
100
AcDbEntity
8
Geo
100
AcDbLine
10
-78.8045574636723
20
23.8101528116386
30
0.00000000000000
11
-78.8345574636723
21
23.8756784733943
31
0.00000000000000
  0
LINE
  5
F1046A
330
F1046B
100
AcDbEntity
8
Geo
100
AcDbLine
10
-78.8345574636723
20
23.8756784733943
30
0.00000000000000
11
-78.8645574636723
21
23.9019542243355
31
0.00000000000000
  0
LINE
  5
F1046C
330
F1046D
100
AcDbEntity
8
Geo
100
AcDbLine
10
-78.8645574636723
20
23.9019542243355
30
0.00000000000000
11
-78.8945574636723
21
23.9030771314763
31
0.00000000000000
  0
LINE
  5
F1046E
330
F1046F
100
AcDbEntity
8
Geo
100
AcDbLine
10
-78.8945574636723
20
23.9030771314763
30
0.00000000000000
11
-78.8950547415452
21
23.9029455714398
31
0.00000000000000
  0
LINE
  5
F10470
330
F10471
100
AcDbEntity
8
Geo
100
AcDbLine
10
-78.8950547415452
20
19.4964379600441
30
0.00000000000000
11
-78.9245574636723
21
19.5103045633340
31
0.00000000000000
  0
LINE
  5
F10472
330
F10473
100
AcDbEntity
8
Geo
100
AcDbLine
10
-78.9245574636723
20
19.5103045633340
30
0.00000000000000
11
-78.9545574636723
21
19.5325757254113
31
0.00000000000000
  0
LINE
  5
F10474
330
F10475
100
AcDbEntity
8
Geo
100
AcDbLine
10
-78.9545574636723
20
19.5325757254113
30
0.00000000000000
11
-78.9845574636723
21
19.5586366831708
31
0.00000000000000
  0
LINE
  5
F10476
330
F10477
100
AcDbEntity
8
Geo
100
AcDbLine
10
-78.9845574636723
20
19.5586366831708
30
0.00000000000000
11
-79.0145574636723
21
19.5856924960867
31
0.00000000000000
  0
LINE
  5
F10478
330
F10479
100
AcDbEntity
8
Geo
100
AcDbLine
10
-79.0145574636723
20
19.5856924960867
30
0.00000000000000
11
-79.0445574636723
21
19.6121132692720
31
0.00000000000000
  0
LINE
  5
F1047A
330
F1047B
100
AcDbEntity
8
Geo
100
AcDbLine
10
-79.0445574636723
20
19.6121132692720
30
0.00000000000000
11
-79.0745574636723
21
19.6370468382486
31
0.00000000000000
  0
LINE
  5
F1047C
330
F1047D
100
AcDbEntity
8
Geo
100
AcDbLine
10
-79.0745574636723
20
19.6370468382486
30
0.00000000000000
11
-79.1045574636723
21
19.6601412113465
31
0.00000000000000
  0
LINE
  5
F1047E
330
F1047F
100
AcDbEntity
8
Geo
100
AcDbLine
10
-79.1045574636723
20
19.6601412113465
30
0.00000000000000
11
-79.1345574636723
21
19.6813510139873
31
0.00000000000000
  0
LINE
  5
F10480
330
F10481
100
AcDbEntity
8
Geo
100
AcDbLine
10
-79.1345574636723
20
19.6813510139873
30
0.00000000000000
11
-79.1645574636723
21
19.7008059778471
31
0.00000000000000
  0
LINE
  5
F10482
330
F10483
100
AcDbEntity
8
Geo
100
AcDbLine
10
-79.1645574636723
20
19.7008059778471
30
0.00000000000000
11
-79.1945574636723
21
19.7187240665211
31
0.00000000000000
  0
LINE
  5
F10484
330
F10485
100
AcDbEntity
8
Geo
100
AcDbLine
10
-79.1945574636723
20
19.7187240665211
30
0.00000000000000
11
-79.2245574636723
21
19.7353560166178
31
0.00000000000000
  0
LINE
  5
F10486
330
F10487
100
AcDbEntity
8
Geo
100
AcDbLine
10
-79.2245574636723
20
19.7353560166178
30
0.00000000000000
11
-79.2545574636723
21
19.7509515381446
31
0.00000000000000
  0
LINE
  5
F10488
330
F10489
100
AcDbEntity
8
Geo
100
AcDbLine
10
-79.2545574636723
20
19.7509515381446
30
0.00000000000000
11
-79.2845574636723
21
19.7657401300553
31
0.00000000000000
  0
LINE
  5
F1048A
330
F1048B
100
AcDbEntity
8
Geo
100
AcDbLine
10
-79.2845574636723
20
19.7657401300553
30
0.00000000000000
11
-79.3145574636723
21
19.7799215197447
31
0.00000000000000
  0
LINE
  5
F1048C
330
F1048D
100
AcDbEntity
8
Geo
100
AcDbLine
10
-79.3145574636723
20
19.7799215197447
30
0.00000000000000
11
-79.3445574636723
21
19.7936622537730
31
0.00000000000000
  0
LINE
  5
F1048E
330
F1048F
100
AcDbEntity
8
Geo
100
AcDbLine
10
-79.3445574636723
20
19.7936622537730
30
0.00000000000000
11
-79.3745574636723
21
19.8070960691244
31
0.00000000000000
  0
LINE
  5
F10490
330
F10491
100
AcDbEntity
8
Geo
100
AcDbLine
10
-79.3745574636723
20
19.8070960691244
30
0.00000000000000
11
-79.4045574636723
21
19.8203264592256
31
0.00000000000000
  0
LINE
  5
F10492
330
F10493
100
AcDbEntity
8
Geo
100
AcDbLine
10
-79.4045574636723
20
19.8203264592256
30
0.00000000000000
11
-79.4345574636723
21
19.8334303963999
31
0.00000000000000
  0
LINE
  5
F10494
330
F10495
100
AcDbEntity
8
Geo
100
AcDbLine
10
-79.4345574636723
20
19.8334303963999
30
0.00000000000000
11
-79.4645574636723
21
19.8464625448399
31
0.00000000000000
  0
LINE
  5
F10496
330
F10497
100
AcDbEntity
8
Geo
100
AcDbLine
10
-79.4645574636723
20
19.8464625448399
30
0.00000000000000
11
-79.4945574636723
21
19.8594595439433
31
0.00000000000000
  0
LINE
  5
F10498
330
F10499
100
AcDbEntity
8
Geo
100
AcDbLine
10
-79.4945574636723
20
19.8594595439433
30
0.00000000000000
11
-79.5245574636723
21
19.8724440981717
31
0.00000000000000
  0
LINE
  5
F1049A
330
F1049B
100
AcDbEntity
8
Geo
100
AcDbLine
10
-79.5245574636723
20
19.8724440981717
30
0.00000000000000
11
-79.5545574636723
21
19.8854287047496
31
0.00000000000000
  0
LINE
  5
F1049C
330
F1049D
100
AcDbEntity
8
Geo
100
AcDbLine
10
-79.5545574636723
20
19.8854287047496
30
0.00000000000000
11
-79.5845574636723
21
19.8984189055919
31
0.00000000000000
  0
LINE
  5
F1049E
330
F1049F
100
AcDbEntity
8
Geo
100
AcDbLine
10
-79.5845574636723
20
19.8984189055919
30
0.00000000000000
11
-79.6145574636723
21
19.9114159801074
31
0.00000000000000
  0
LINE
  5
F104A0
330
F104A1
100
AcDbEntity
8
Geo
100
AcDbLine
10
-79.6145574636723
20
19.9114159801074
30
0.00000000000000
11
-79.6445574636723
21
19.9244190115651
31
0.00000000000000
  0
LINE
  5
F104A2
330
F104A3
100
AcDbEntity
8
Geo
100
AcDbLine
10
-79.6445574636723
20
19.9244190115651
30
0.00000000000000
11
-79.6745574636723
21
19.9339910153084
31
0.00000000000000
  0
LINE
  5
F104A4
330
F104A5
100
AcDbEntity
8
Geo
100
AcDbLine
10
-87.3845574636724
20
22.6837321713503
30
0.00000000000000
11
-87.3545574636724
21
22.7133341049866
31
0.00000000000000
  0
LINE
  5
F104A6
330
F104A7
100
AcDbEntity
8
Geo
100
AcDbLine
10
-87.3545574636724
20
22.7133341049866
30
0.00000000000000
11
-87.3245574636723
21
22.7455706696334
31
0.00000000000000
  0
LINE
  5
F104A8
330
F104A9
100
AcDbEntity
8
Geo
100
AcDbLine
10
-87.3245574636723
20
22.7455706696334
30
0.00000000000000
11
-87.2945574636723
21
22.7777556351712
31
0.00000000000000
  0
LINE
  5
F104AA
330
F104AB
100
AcDbEntity
8
Geo
100
AcDbLine
10
-87.2945574636723
20
22.7777556351712
30
0.00000000000000
11
-87.2645574636723
21
22.8094644918214
31
0.00000000000000
  0
LINE
  5
F104AC
330
F104AD
100
AcDbEntity
8
Geo
100
AcDbLine
10
-87.2645574636723
20
22.8094644918214
30
0.00000000000000
11
-87.2345574636723
21
22.8405157274269
31
0.00000000000000
  0
LINE
  5
F104AE
330
F104AF
100
AcDbEntity
8
Geo
100
AcDbLine
10
-87.2345574636723
20
22.8405157274269
30
0.00000000000000
11
-87.2045574636723
21
22.8708625086894
31
0.00000000000000
  0
LINE
  5
F104B0
330
F104B1
100
AcDbEntity
8
Geo
100
AcDbLine
10
-87.2045574636723
20
22.8708625086894
30
0.00000000000000
11
-87.1745574636723
21
22.9004668968522
31
0.00000000000000
  0
LINE
  5
F104B2
330
F104B3
100
AcDbEntity
8
Geo
100
AcDbLine
10
-87.1745574636723
20
22.9004668968522
30
0.00000000000000
11
-87.1445574636723
21
22.9293708637541
31
0.00000000000000
  0
LINE
  5
F104B4
330
F104B5
100
AcDbEntity
8
Geo
100
AcDbLine
10
-87.1445574636723
20
22.9293708637541
30
0.00000000000000
11
-87.1145574636723
21
22.9575296432898
31
0.00000000000000
  0
LINE
  5
F104B6
330
F104B7
100
AcDbEntity
8
Geo
100
AcDbLine
10
-87.1145574636723
20
22.9575296432898
30
0.00000000000000
11
-87.0845574636724
21
22.9850205021347
31
0.00000000000000
  0
LINE
  5
F104B8
330
F104B9
100
AcDbEntity
8
Geo
100
AcDbLine
10
-87.0845574636724
20
22.9850205021347
30
0.00000000000000
11
-87.0545574636724
21
23.0117927045256
31
0.00000000000000
  0
LINE
  5
F104BA
330
F104BB
100
AcDbEntity
8
Geo
100
AcDbLine
10
-87.0545574636724
20
23.0117927045256
30
0.00000000000000
11
-87.0245574636724
21
23.0373802081764
31
0.00000000000000
  0
LINE
  5
F104BC
330
F104BD
100
AcDbEntity
8
Geo
100
AcDbLine
10
-87.0245574636724
20
23.0373802081764
30
0.00000000000000
11
-86.9945574636724
21
23.0615801692454
31
0.00000000000000
  0
LINE
  5
F104BE
330
F104BF
100
AcDbEntity
8
Geo
100
AcDbLine
10
-86.9945574636724
20
23.0615801692454
30
0.00000000000000
11
-86.9645574636723
21
23.0844629677685
31
0.00000000000000
  0
LINE
  5
F104C0
330
F104C1
100
AcDbEntity
8
Geo
100
AcDbLine
10
-86.9645574636723
20
23.0844629677685
30
0.00000000000000
11
-86.9345574636723
21
23.1060908728542
31
0.00000000000000
  0
LINE
  5
F104C2
330
F104C3
100
AcDbEntity
8
Geo
100
AcDbLine
10
-86.9345574636723
20
23.1060908728542
30
0.00000000000000
11
-86.9045574636723
21
23.1265192928844
31
0.00000000000000
  0
LINE
  5
F104C4
330
F104C5
100
AcDbEntity
8
Geo
100
AcDbLine
10
-86.9045574636723
20
23.1265192928844
30
0.00000000000000
11
-86.8745574636723
21
23.1457977915594
31
0.00000000000000
  0
LINE
  5
F104C6
330
F104C7
100
AcDbEntity
8
Geo
100
AcDbLine
10
-86.8745574636723
20
23.1457977915594
30
0.00000000000000
11
-86.8445574636723
21
23.1639709211373
31
0.00000000000000
  0
LINE
  5
F104C8
330
F104C9
100
AcDbEntity
8
Geo
100
AcDbLine
10
-86.8445574636723
20
23.1639709211373
30
0.00000000000000
11
-86.8145574636723
21
23.1810789114372
31
0.00000000000000
  0
LINE
  5
F104CA
330
F104CB
100
AcDbEntity
8
Geo
100
AcDbLine
10
-86.8145574636723
20
23.1810789114372
30
0.00000000000000
11
-86.7845574636723
21
23.1971582439201
31
0.00000000000000
  0
LINE
  5
F104CC
330
F104CD
100
AcDbEntity
8
Geo
100
AcDbLine
10
-86.7845574636723
20
23.1971582439201
30
0.00000000000000
11
-86.7545574636723
21
23.2122421333802
31
0.00000000000000
  0
LINE
  5
F104CE
330
F104CF
100
AcDbEntity
8
Geo
100
AcDbLine
10
-86.7545574636723
20
23.2122421333802
30
0.00000000000000
11
-86.7245574636723
21
23.2263609347424
31
0.00000000000000
  0
LINE
  5
F104D0
330
F104D1
100
AcDbEntity
8
Geo
100
AcDbLine
10
-86.7245574636723
20
23.2263609347424
30
0.00000000000000
11
-86.6945574636724
21
23.2395424886786
31
0.00000000000000
  0
LINE
  5
F104D2
330
F104D3
100
AcDbEntity
8
Geo
100
AcDbLine
10
-86.6945574636724
20
23.2395424886786
30
0.00000000000000
11
-86.6645574636724
21
23.2518124168867
31
0.00000000000000
  0
LINE
  5
F104D4
330
F104D5
100
AcDbEntity
8
Geo
100
AcDbLine
10
-86.6645574636724
20
23.2518124168867
30
0.00000000000000
11
-86.6345574636724
21
23.2631943756789
31
0.00000000000000
  0
LINE
  5
F104D6
330
F104D7
100
AcDbEntity
8
Geo
100
AcDbLine
10
-86.6345574636724
20
23.2631943756789
30
0.00000000000000
11
-86.6045574636724
21
23.2737102748207
31
0.00000000000000
  0
LINE
  5
F104D8
330
F104D9
100
AcDbEntity
8
Geo
100
AcDbLine
10
-86.6045574636724
20
23.2737102748207
30
0.00000000000000
11
-86.5745574636723
21
23.2833804672412
31
0.00000000000000
  0
LINE
  5
F104DA
330
F104DB
100
AcDbEntity
8
Geo
100
AcDbLine
10
-86.5745574636723
20
23.2833804672412
30
0.00000000000000
11
-86.5445574636723
21
23.2922239141887
31
0.00000000000000
  0
LINE
  5
F104DC
330
F104DD
100
AcDbEntity
8
Geo
100
AcDbLine
10
-86.5445574636723
20
23.2922239141887
30
0.00000000000000
11
-86.5145574636723
21
23.3002583295826
31
0.00000000000000
  0
LINE
  5
F104DE
330
F104DF
100
AcDbEntity
8
Geo
100
AcDbLine
10
-86.5145574636723
20
23.3002583295826
30
0.00000000000000
11
-86.4845574636723
21
23.3075003066504
31
0.00000000000000
  0
LINE
  5
F104E0
330
F104E1
100
AcDbEntity
8
Geo
100
AcDbLine
10
-86.4845574636723
20
23.3075003066504
30
0.00000000000000
11
-86.4545574636723
21
23.3139654294149
31
0.00000000000000
  0
LINE
  5
F104E2
330
F104E3
100
AcDbEntity
8
Geo
100
AcDbLine
10
-86.4545574636723
20
23.3139654294149
30
0.00000000000000
11
-86.4245574636723
21
23.3196683711640
31
0.00000000000000
  0
LINE
  5
F104E4
330
F104E5
100
AcDbEntity
8
Geo
100
AcDbLine
10
-86.4245574636723
20
23.3196683711640
30
0.00000000000000
11
-86.3945574636723
21
23.3246229816918
31
0.00000000000000
  0
LINE
  5
F104E6
330
F104E7
100
AcDbEntity
8
Geo
100
AcDbLine
10
-86.3945574636723
20
23.3246229816918
30
0.00000000000000
11
-86.3645574636723
21
23.3288423648150
31
0.00000000000000
  0
LINE
  5
F104E8
330
F104E9
100
AcDbEntity
8
Geo
100
AcDbLine
10
-86.3645574636723
20
23.3288423648150
30
0.00000000000000
11
-86.3345574636723
21
23.3323389474343
31
0.00000000000000
  0
LINE
  5
F104EA
330
F104EB
100
AcDbEntity
8
Geo
100
AcDbLine
10
-86.3345574636723
20
23.3323389474343
30
0.00000000000000
11
-86.3045574636724
21
23.3351245412201
31
0.00000000000000
  0
LINE
  5
F104EC
330
F104ED
100
AcDbEntity
8
Geo
100
AcDbLine
10
-86.3045574636724
20
23.3351245412201
30
0.00000000000000
11
-86.2745574636724
21
23.3372103978388
31
0.00000000000000
  0
LINE
  5
F104EE
330
F104EF
100
AcDbEntity
8
Geo
100
AcDbLine
10
-86.2745574636724
20
23.3372103978388
30
0.00000000000000
11
-86.2445574636724
21
23.3386072585073
31
0.00000000000000
  0
LINE
  5
F104F0
330
F104F1
100
AcDbEntity
8
Geo
100
AcDbLine
10
-86.2445574636724
20
23.3386072585073
30
0.00000000000000
11
-86.2145574636723
21
23.3393253985471
31
0.00000000000000
  0
LINE
  5
F104F2
330
F104F3
100
AcDbEntity
8
Geo
100
AcDbLine
10
-86.2145574636723
20
23.3393253985471
30
0.00000000000000
11
-86.1845574636723
21
23.3393746675181
31
0.00000000000000
  0
LINE
  5
F104F4
330
F104F5
100
AcDbEntity
8
Geo
100
AcDbLine
10
-86.1845574636723
20
23.3393746675181
30
0.00000000000000
11
-86.1545574636723
21
23.3387645254338
31
0.00000000000000
  0
LINE
  5
F104F6
330
F104F7
100
AcDbEntity
8
Geo
100
AcDbLine
10
-86.1545574636723
20
23.3387645254338
30
0.00000000000000
11
-86.1245574636723
21
23.3375040754903
31
0.00000000000000
  0
LINE
  5
F104F8
330
F104F9
100
AcDbEntity
8
Geo
100
AcDbLine
10
-86.1245574636723
20
23.3375040754903
30
0.00000000000000
11
-86.0945574636723
21
23.3356020936856
31
0.00000000000000
  0
LINE
  5
F104FA
330
F104FB
100
AcDbEntity
8
Geo
100
AcDbLine
10
-86.0945574636723
20
23.3356020936856
30
0.00000000000000
11
-86.0645574636723
21
23.3330670556571
31
0.00000000000000
  0
LINE
  5
F104FC
330
F104FD
100
AcDbEntity
8
Geo
100
AcDbLine
10
-86.0645574636723
20
23.3330670556571
30
0.00000000000000
11
-86.0345574636723
21
23.3299071610236
31
0.00000000000000
  0
LINE
  5
F104FE
330
F104FF
100
AcDbEntity
8
Geo
100
AcDbLine
10
-86.0345574636723
20
23.3299071610236
30
0.00000000000000
11
-86.0045574636723
21
23.3261303554801
31
0.00000000000000
  0
LINE
  5
F10500
330
F10501
100
AcDbEntity
8
Geo
100
AcDbLine
10
-86.0045574636723
20
23.3261303554801
30
0.00000000000000
11
-85.9745574636723
21
23.3217443508667
31
0.00000000000000
  0
LINE
  5
F10502
330
F10503
100
AcDbEntity
8
Geo
100
AcDbLine
10
-85.9745574636723
20
23.3217443508667
30
0.00000000000000
11
-85.9445574636723
21
23.3167566434013
31
0.00000000000000
  0
LINE
  5
F10504
330
F10505
100
AcDbEntity
8
Geo
100
AcDbLine
10
-85.9445574636723
20
23.3167566434013
30
0.00000000000000
11
-85.9145574636724
21
23.3111745302465
31
0.00000000000000
  0
LINE
  5
F10506
330
F10507
100
AcDbEntity
8
Geo
100
AcDbLine
10
-85.9145574636724
20
23.3111745302465
30
0.00000000000000
11
-85.8845574636724
21
23.3050051245575
31
0.00000000000000
  0
LINE
  5
F10508
330
F10509
100
AcDbEntity
8
Geo
100
AcDbLine
10
-85.8845574636724
20
23.3050051245575
30
0.00000000000000
11
-85.8545574636724
21
23.2982553691428
31
0.00000000000000
  0
LINE
  5
F1050A
330
F1050B
100
AcDbEntity
8
Geo
100
AcDbLine
10
-85.8545574636724
20
23.2982553691428
30
0.00000000000000
11
-85.8245574636723
21
23.2909320488510
31
0.00000000000000
  0
LINE
  5
F1050C
330
F1050D
100
AcDbEntity
8
Geo
100
AcDbLine
10
-85.8245574636723
20
23.2909320488510
30
0.00000000000000
11
-85.7945574636723
21
23.2830418017852
31
0.00000000000000
  0
LINE
  5
F1050E
330
F1050F
100
AcDbEntity
8
Geo
100
AcDbLine
10
-85.7945574636723
20
23.2830418017852
30
0.00000000000000
11
-85.7645574636723
21
23.2745911294331
31
0.00000000000000
  0
LINE
  5
F10510
330
F10511
100
AcDbEntity
8
Geo
100
AcDbLine
10
-85.7645574636723
20
23.2745911294331
30
0.00000000000000
11
-85.7345574636723
21
23.2655864057903
31
0.00000000000000
  0
LINE
  5
F10512
330
F10513
100
AcDbEntity
8
Geo
100
AcDbLine
10
-85.7345574636723
20
23.2655864057903
30
0.00000000000000
11
-85.7045574636723
21
23.2560338855436
31
0.00000000000000
  0
LINE
  5
F10514
330
F10515
100
AcDbEntity
8
Geo
100
AcDbLine
10
-85.7045574636723
20
23.2560338855436
30
0.00000000000000
11
-85.6745574636723
21
23.2459397113736
31
0.00000000000000
  0
LINE
  5
F10516
330
F10517
100
AcDbEntity
8
Geo
100
AcDbLine
10
-85.6745574636723
20
23.2459397113736
30
0.00000000000000
11
-85.6445574636723
21
23.2353330110193
31
0.00000000000000
  0
LINE
  5
F10518
330
F10519
100
AcDbEntity
8
Geo
100
AcDbLine
10
-85.6445574636723
20
23.2353330110193
30
0.00000000000000
11
-85.6145574636723
21
23.2245183962517
31
0.00000000000000
  0
LINE
  5
F1051A
330
F1051B
100
AcDbEntity
8
Geo
100
AcDbLine
10
-85.6145574636723
20
23.2245183962517
30
0.00000000000000
11
-85.5845574636723
21
23.2135894202014
31
0.00000000000000
  0
LINE
  5
F1051C
330
F1051D
100
AcDbEntity
8
Geo
100
AcDbLine
10
-85.5845574636723
20
23.2135894202014
30
0.00000000000000
11
-85.5545574636724
21
23.2025469025368
31
0.00000000000000
  0
LINE
  5
F1051E
330
F1051F
100
AcDbEntity
8
Geo
100
AcDbLine
10
-85.5545574636724
20
23.2025469025368
30
0.00000000000000
11
-85.5245574636724
21
23.1913916714413
31
0.00000000000000
  0
LINE
  5
F10520
330
F10521
100
AcDbEntity
8
Geo
100
AcDbLine
10
-85.5245574636724
20
23.1913916714413
30
0.00000000000000
11
-85.4945574636724
21
23.1801245635522
31
0.00000000000000
  0
LINE
  5
F10522
330
F10523
100
AcDbEntity
8
Geo
100
AcDbLine
10
-85.4945574636724
20
23.1801245635522
30
0.00000000000000
11
-85.4645574636723
21
23.1687464238972
31
0.00000000000000
  0
LINE
  5
F10524
330
F10525
100
AcDbEntity
8
Geo
100
AcDbLine
10
-85.4645574636723
20
23.1687464238972
30
0.00000000000000
11
-85.4345574636723
21
23.1572581058314
31
0.00000000000000
  0
LINE
  5
F10526
330
F10527
100
AcDbEntity
8
Geo
100
AcDbLine
10
-85.4345574636723
20
23.1572581058314
30
0.00000000000000
11
-85.4045574636723
21
23.1456604709733
31
0.00000000000000
  0
LINE
  5
F10528
330
F10529
100
AcDbEntity
8
Geo
100
AcDbLine
10
-85.4045574636723
20
23.1456604709733
30
0.00000000000000
11
-85.3745574636723
21
23.1339543891402
31
0.00000000000000
  0
LINE
  5
F1052A
330
F1052B
100
AcDbEntity
8
Geo
100
AcDbLine
10
-85.3745574636723
20
23.1339543891402
30
0.00000000000000
11
-85.3445574636723
21
23.1221407382826
31
0.00000000000000
  0
LINE
  5
F1052C
330
F1052D
100
AcDbEntity
8
Geo
100
AcDbLine
10
-85.3445574636723
20
23.1221407382826
30
0.00000000000000
11
-85.3145574636723
21
23.1102204044188
31
0.00000000000000
  0
LINE
  5
F1052E
330
F1052F
100
AcDbEntity
8
Geo
100
AcDbLine
10
-85.3145574636723
20
23.1102204044188
30
0.00000000000000
11
-85.2845574636723
21
23.0981942815684
31
0.00000000000000
  0
LINE
  5
F10530
330
F10531
100
AcDbEntity
8
Geo
100
AcDbLine
10
-85.2845574636723
20
23.0981942815684
30
0.00000000000000
11
-85.2545574636723
21
23.0860632716848
31
0.00000000000000
  0
LINE
  5
F10532
330
F10533
100
AcDbEntity
8
Geo
100
AcDbLine
10
-85.2545574636723
20
23.0860632716848
30
0.00000000000000
11
-85.2245574636724
21
23.0738282845880
31
0.00000000000000
  0
LINE
  5
F10534
330
F10535
100
AcDbEntity
8
Geo
100
AcDbLine
10
-85.2245574636724
20
23.0738282845880
30
0.00000000000000
11
-85.1945574636724
21
23.0614902378966
31
0.00000000000000
  0
LINE
  5
F10536
330
F10537
100
AcDbEntity
8
Geo
100
AcDbLine
10
-85.1945574636724
20
23.0614902378966
30
0.00000000000000
11
-85.1645574636724
21
23.0490500569580
31
0.00000000000000
  0
LINE
  5
F10538
330
F10539
100
AcDbEntity
8
Geo
100
AcDbLine
10
-85.1645574636724
20
23.0490500569580
30
0.00000000000000
11
-85.1345574636724
21
23.0365086747801
31
0.00000000000000
  0
LINE
  5
F1053A
330
F1053B
100
AcDbEntity
8
Geo
100
AcDbLine
10
-85.1345574636724
20
23.0365086747801
30
0.00000000000000
11
-85.1045574636724
21
23.0238670319607
31
0.00000000000000
  0
LINE
  5
F1053C
330
F1053D
100
AcDbEntity
8
Geo
100
AcDbLine
10
-85.1045574636724
20
23.0238670319607
30
0.00000000000000
11
-85.0745574636723
21
23.0111260766170
31
0.00000000000000
  0
LINE
  5
F1053E
330
F1053F
100
AcDbEntity
8
Geo
100
AcDbLine
10
-85.0745574636723
20
23.0111260766170
30
0.00000000000000
11
-85.0445574636723
21
22.9982867643147
31
0.00000000000000
  0
LINE
  5
F10540
330
F10541
100
AcDbEntity
8
Geo
100
AcDbLine
10
-85.0445574636723
20
22.9982867643147
30
0.00000000000000
11
-85.0145574636723
21
22.9853500579962
31
0.00000000000000
  0
LINE
  5
F10542
330
F10543
100
AcDbEntity
8
Geo
100
AcDbLine
10
-85.0145574636723
20
22.9853500579962
30
0.00000000000000
11
-84.9845574636723
21
22.9723169279085
31
0.00000000000000
  0
LINE
  5
F10544
330
F10545
100
AcDbEntity
8
Geo
100
AcDbLine
10
-84.9845574636723
20
22.9723169279085
30
0.00000000000000
11
-84.9545574636723
21
22.9591883515301
31
0.00000000000000
  0
LINE
  5
F10546
330
F10547
100
AcDbEntity
8
Geo
100
AcDbLine
10
-84.9545574636723
20
22.9591883515301
30
0.00000000000000
11
-84.9245574636724
21
22.9459653134982
31
0.00000000000000
  0
LINE
  5
F10548
330
F10549
100
AcDbEntity
8
Geo
100
AcDbLine
10
-84.9245574636724
20
22.9459653134982
30
0.00000000000000
11
-84.8945574636724
21
22.9326488055345
31
0.00000000000000
  0
LINE
  5
F1054A
330
F1054B
100
AcDbEntity
8
Geo
100
AcDbLine
10
-84.8945574636724
20
22.9326488055345
30
0.00000000000000
11
-84.8645574636724
21
22.9192398263706
31
0.00000000000000
  0
LINE
  5
F1054C
330
F1054D
100
AcDbEntity
8
Geo
100
AcDbLine
10
-84.8645574636724
20
22.9192398263706
30
0.00000000000000
11
-84.8345574636724
21
22.9057393816739
31
0.00000000000000
  0
LINE
  5
F1054E
330
F1054F
100
AcDbEntity
8
Geo
100
AcDbLine
10
-84.8345574636724
20
22.9057393816739
30
0.00000000000000
11
-84.8045574636724
21
22.8921484839713
31
0.00000000000000
  0
LINE
  5
F10550
330
F10551
100
AcDbEntity
8
Geo
100
AcDbLine
10
-84.8045574636724
20
22.8921484839713
30
0.00000000000000
11
-84.7745574636724
21
22.8784681525739
31
0.00000000000000
  0
LINE
  5
F10552
330
F10553
100
AcDbEntity
8
Geo
100
AcDbLine
10
-84.7745574636724
20
22.8784681525739
30
0.00000000000000
11
-84.7445574636724
21
22.8646994134999
31
0.00000000000000
  0
LINE
  5
F10554
330
F10555
100
AcDbEntity
8
Geo
100
AcDbLine
10
-84.7445574636724
20
22.8646994134999
30
0.00000000000000
11
-84.7145574636723
21
22.8508432993985
31
0.00000000000000
  0
LINE
  5
F10556
330
F10557
100
AcDbEntity
8
Geo
100
AcDbLine
10
-84.7145574636723
20
22.8508432993985
30
0.00000000000000
11
-84.6845574636723
21
22.8369008494717
31
0.00000000000000
  0
LINE
  5
F10558
330
F10559
100
AcDbEntity
8
Geo
100
AcDbLine
10
-84.6845574636723
20
22.8369008494717
30
0.00000000000000
11
-84.6545574636723
21
22.8228731093966
31
0.00000000000000
  0
LINE
  5
F1055A
330
F1055B
100
AcDbEntity
8
Geo
100
AcDbLine
10
-84.6545574636723
20
22.8228731093966
30
0.00000000000000
11
-84.6245574636723
21
22.8087611312472
31
0.00000000000000
  0
LINE
  5
F1055C
330
F1055D
100
AcDbEntity
8
Geo
100
AcDbLine
10
-84.6245574636723
20
22.8087611312472
30
0.00000000000000
11
-84.5945574636724
21
22.7945659734154
31
0.00000000000000
  0
LINE
  5
F1055E
330
F1055F
100
AcDbEntity
8
Geo
100
AcDbLine
10
-84.5945574636724
20
22.7945659734154
30
0.00000000000000
11
-84.5645574636724
21
22.7802887005311
31
0.00000000000000
  0
LINE
  5
F10560
330
F10561
100
AcDbEntity
8
Geo
100
AcDbLine
10
-84.5645574636724
20
22.7802887005311
30
0.00000000000000
11
-84.5345574636724
21
22.7659303833833
31
0.00000000000000
  0
LINE
  5
F10562
330
F10563
100
AcDbEntity
8
Geo
100
AcDbLine
10
-84.5345574636724
20
22.7659303833833
30
0.00000000000000
11
-84.5045574636724
21
22.7514920988389
31
0.00000000000000
  0
LINE
  5
F10564
330
F10565
100
AcDbEntity
8
Geo
100
AcDbLine
10
-84.5045574636724
20
22.7514920988389
30
0.00000000000000
11
-84.4745574636724
21
22.7369749297626
31
0.00000000000000
  0
LINE
  5
F10566
330
F10567
100
AcDbEntity
8
Geo
100
AcDbLine
10
-84.4745574636724
20
22.7369749297626
30
0.00000000000000
11
-84.4445574636724
21
22.7223799649353
31
0.00000000000000
  0
LINE
  5
F10568
330
F10569
100
AcDbEntity
8
Geo
100
AcDbLine
10
-84.4445574636724
20
22.7223799649353
30
0.00000000000000
11
-84.4145574636724
21
22.7077082989723
31
0.00000000000000
  0
LINE
  5
F1056A
330
F1056B
100
AcDbEntity
8
Geo
100
AcDbLine
10
-84.4145574636724
20
22.7077082989723
30
0.00000000000000
11
-84.3845574636724
21
22.6929610322419
31
0.00000000000000
  0
LINE
  5
F1056C
330
F1056D
100
AcDbEntity
8
Geo
100
AcDbLine
10
-84.3845574636724
20
22.6929610322419
30
0.00000000000000
11
-84.3545574636724
21
22.6781392707821
31
0.00000000000000
  0
LINE
  5
F1056E
330
F1056F
100
AcDbEntity
8
Geo
100
AcDbLine
10
-84.3545574636724
20
22.6781392707821
30
0.00000000000000
11
-84.3245574636723
21
22.6632441262181
31
0.00000000000000
  0
LINE
  5
F10570
330
F10571
100
AcDbEntity
8
Geo
100
AcDbLine
10
-84.3245574636723
20
22.6632441262181
30
0.00000000000000
11
-84.2945574636723
21
22.6482767156787
31
0.00000000000000
  0
LINE
  5
F10572
330
F10573
100
AcDbEntity
8
Geo
100
AcDbLine
10
-84.2945574636723
20
22.6482767156787
30
0.00000000000000
11
-84.2645574636724
21
22.6332381617127
31
0.00000000000000
  0
LINE
  5
F10574
330
F10575
100
AcDbEntity
8
Geo
100
AcDbLine
10
-84.2645574636724
20
22.6332381617127
30
0.00000000000000
11
-84.2345574636724
21
22.6181295922045
31
0.00000000000000
  0
LINE
  5
F10576
330
F10577
100
AcDbEntity
8
Geo
100
AcDbLine
10
-84.2345574636724
20
22.6181295922045
30
0.00000000000000
11
-84.2045574636724
21
22.6029521402900
31
0.00000000000000
  0
LINE
  5
F10578
330
F10579
100
AcDbEntity
8
Geo
100
AcDbLine
10
-84.2045574636724
20
22.6029521402900
30
0.00000000000000
11
-84.1745574636724
21
22.5877069442707
31
0.00000000000000
  0
LINE
  5
F1057A
330
F1057B
100
AcDbEntity
8
Geo
100
AcDbLine
10
-84.1745574636724
20
22.5877069442707
30
0.00000000000000
11
-84.1445574636724
21
22.5723951475293
31
0.00000000000000
  0
LINE
  5
F1057C
330
F1057D
100
AcDbEntity
8
Geo
100
AcDbLine
10
-84.1445574636724
20
22.5723951475293
30
0.00000000000000
11
-84.1145574636724
21
22.5570178984433
31
0.00000000000000
  0
LINE
  5
F1057E
330
F1057F
100
AcDbEntity
8
Geo
100
AcDbLine
10
-84.1145574636724
20
22.5570178984433
30
0.00000000000000
11
-84.0845574636724
21
22.5415763502993
31
0.00000000000000
  0
LINE
  5
F10580
330
F10581
100
AcDbEntity
8
Geo
100
AcDbLine
10
-84.0845574636724
20
22.5415763502993
30
0.00000000000000
11
-84.0545574636724
21
22.5260716612061
31
0.00000000000000
  0
LINE
  5
F10582
330
F10583
100
AcDbEntity
8
Geo
100
AcDbLine
10
-84.0545574636724
20
22.5260716612061
30
0.00000000000000
11
-84.0245574636724
21
22.5105049940080
31
0.00000000000000
  0
LINE
  5
F10584
330
F10585
100
AcDbEntity
8
Geo
100
AcDbLine
10
-84.0245574636724
20
22.5105049940080
30
0.00000000000000
11
-83.9945574636724
21
22.4948775161979
31
0.00000000000000
  0
LINE
  5
F10586
330
F10587
100
AcDbEntity
8
Geo
100
AcDbLine
10
-83.9945574636724
20
22.4948775161979
30
0.00000000000000
11
-83.9645574636723
21
22.4791903998293
31
0.00000000000000
  0
LINE
  5
F10588
330
F10589
100
AcDbEntity
8
Geo
100
AcDbLine
10
-83.9645574636723
20
22.4791903998293
30
0.00000000000000
11
-83.9345574636724
21
22.4634448214285
31
0.00000000000000
  0
LINE
  5
F1058A
330
F1058B
100
AcDbEntity
8
Geo
100
AcDbLine
10
-83.9345574636724
20
22.4634448214285
30
0.00000000000000
11
-83.9045574636724
21
22.4476419619065
31
0.00000000000000
  0
LINE
  5
F1058C
330
F1058D
100
AcDbEntity
8
Geo
100
AcDbLine
10
-83.9045574636724
20
22.4476419619065
30
0.00000000000000
11
-83.8745574636724
21
22.4317830064704
31
0.00000000000000
  0
LINE
  5
F1058E
330
F1058F
100
AcDbEntity
8
Geo
100
AcDbLine
10
-83.8745574636724
20
22.4317830064704
30
0.00000000000000
11
-83.8445574636724
21
22.4158691445345
31
0.00000000000000
  0
LINE
  5
F10590
330
F10591
100
AcDbEntity
8
Geo
100
AcDbLine
10
-83.8445574636724
20
22.4158691445345
30
0.00000000000000
11
-83.8145574636724
21
22.3999015696308
31
0.00000000000000
  0
LINE
  5
F10592
330
F10593
100
AcDbEntity
8
Geo
100
AcDbLine
10
-83.8145574636724
20
22.3999015696308
30
0.00000000000000
11
-83.7845574636724
21
22.3838814793200
31
0.00000000000000
  0
LINE
  5
F10594
330
F10595
100
AcDbEntity
8
Geo
100
AcDbLine
10
-83.7845574636724
20
22.3838814793200
30
0.00000000000000
11
-83.7545574636724
21
22.3678100751015
31
0.00000000000000
  0
LINE
  5
F10596
330
F10597
100
AcDbEntity
8
Geo
100
AcDbLine
10
-83.7545574636724
20
22.3678100751015
30
0.00000000000000
11
-83.7245574636724
21
22.3516885623229
31
0.00000000000000
  0
LINE
  5
F10598
330
F10599
100
AcDbEntity
8
Geo
100
AcDbLine
10
-83.7245574636724
20
22.3516885623229
30
0.00000000000000
11
-83.6945574636724
21
22.3355181500902
31
0.00000000000000
  0
LINE
  5
F1059A
330
F1059B
100
AcDbEntity
8
Geo
100
AcDbLine
10
-83.6945574636724
20
22.3355181500902
30
0.00000000000000
11
-83.6645574636724
21
22.3193000511768
31
0.00000000000000
  0
LINE
  5
F1059C
330
F1059D
100
AcDbEntity
8
Geo
100
AcDbLine
10
-83.6645574636724
20
22.3193000511768
30
0.00000000000000
11
-83.6345574636724
21
22.3030354819323
31
0.00000000000000
  0
LINE
  5
F1059E
330
F1059F
100
AcDbEntity
8
Geo
100
AcDbLine
10
-83.6345574636724
20
22.3030354819323
30
0.00000000000000
11
-83.6045574636724
21
22.2867256621920
31
0.00000000000000
  0
LINE
  5
F105A0
330
F105A1
100
AcDbEntity
8
Geo
100
AcDbLine
10
-83.6045574636724
20
22.2867256621920
30
0.00000000000000
11
-83.5745574636724
21
22.2703718151846
31
0.00000000000000
  0
LINE
  5
F105A2
330
F105A3
100
AcDbEntity
8
Geo
100
AcDbLine
10
-83.5745574636724
20
22.2703718151846
30
0.00000000000000
11
-83.5445574636724
21
22.2539751674410
31
0.00000000000000
  0
LINE
  5
F105A4
330
F105A5
100
AcDbEntity
8
Geo
100
AcDbLine
10
-83.5445574636724
20
22.2539751674410
30
0.00000000000000
11
-83.5145574636724
21
22.2375369487021
31
0.00000000000000
  0
LINE
  5
F105A6
330
F105A7
100
AcDbEntity
8
Geo
100
AcDbLine
10
-83.5145574636724
20
22.2375369487021
30
0.00000000000000
11
-83.4845574636724
21
22.2210583918266
31
0.00000000000000
  0
LINE
  5
F105A8
330
F105A9
100
AcDbEntity
8
Geo
100
AcDbLine
10
-83.4845574636724
20
22.2210583918266
30
0.00000000000000
11
-83.4545574636724
21
22.2045407326985
31
0.00000000000000
  0
LINE
  5
F105AA
330
F105AB
100
AcDbEntity
8
Geo
100
AcDbLine
10
-83.4545574636724
20
22.2045407326985
30
0.00000000000000
11
-83.4245574636724
21
22.1879852101345
31
0.00000000000000
  0
LINE
  5
F105AC
330
F105AD
100
AcDbEntity
8
Geo
100
AcDbLine
10
-83.4245574636724
20
22.1879852101345
30
0.00000000000000
11
-83.3945574636724
21
22.1713930657911
31
0.00000000000000
  0
LINE
  5
F105AE
330
F105AF
100
AcDbEntity
8
Geo
100
AcDbLine
10
-83.3945574636724
20
22.1713930657911
30
0.00000000000000
11
-83.3645574636724
21
22.1547655440713
31
0.00000000000000
  0
LINE
  5
F105B0
330
F105B1
100
AcDbEntity
8
Geo
100
AcDbLine
10
-83.3645574636724
20
22.1547655440713
30
0.00000000000000
11
-83.3345574636724
21
22.1381038920315
31
0.00000000000000
  0
LINE
  5
F105B2
330
F105B3
100
AcDbEntity
8
Geo
100
AcDbLine
10
-83.3345574636724
20
22.1381038920315
30
0.00000000000000
11
-83.3045574636724
21
22.1214093592876
31
0.00000000000000
  0
LINE
  5
F105B4
330
F105B5
100
AcDbEntity
8
Geo
100
AcDbLine
10
-83.3045574636724
20
22.1214093592876
30
0.00000000000000
11
-83.2745574636724
21
22.1046831979220
31
0.00000000000000
  0
LINE
  5
F105B6
330
F105B7
100
AcDbEntity
8
Geo
100
AcDbLine
10
-83.2745574636724
20
22.1046831979220
30
0.00000000000000
11
-83.2445574636724
21
22.0879266623887
31
0.00000000000000
  0
LINE
  5
F105B8
330
F105B9
100
AcDbEntity
8
Geo
100
AcDbLine
10
-83.2445574636724
20
22.0879266623887
30
0.00000000000000
11
-83.2145574636723
21
22.0711410094203
31
0.00000000000000
  0
LINE
  5
F105BA
330
F105BB
100
AcDbEntity
8
Geo
100
AcDbLine
10
-83.2145574636723
20
22.0711410094203
30
0.00000000000000
11
-83.1845574636723
21
22.0543274979326
31
0.00000000000000
  0
LINE
  5
F105BC
330
F105BD
100
AcDbEntity
8
Geo
100
AcDbLine
10
-83.1845574636723
20
22.0543274979326
30
0.00000000000000
11
-83.1545574636723
21
22.0374873889313
31
0.00000000000000
  0
LINE
  5
F105BE
330
F105BF
100
AcDbEntity
8
Geo
100
AcDbLine
10
-83.1545574636723
20
22.0374873889313
30
0.00000000000000
11
-83.1245574636724
21
22.0206219454165
31
0.00000000000000
  0
LINE
  5
F105C0
330
F105C1
100
AcDbEntity
8
Geo
100
AcDbLine
10
-83.1245574636724
20
22.0206219454165
30
0.00000000000000
11
-83.0945574636724
21
22.0037324322888
31
0.00000000000000
  0
LINE
  5
F105C2
330
F105C3
100
AcDbEntity
8
Geo
100
AcDbLine
10
-83.0945574636724
20
22.0037324322888
30
0.00000000000000
11
-83.0645574636724
21
21.9868201162535
31
0.00000000000000
  0
LINE
  5
F105C4
330
F105C5
100
AcDbEntity
8
Geo
100
AcDbLine
10
-83.0645574636724
20
21.9868201162535
30
0.00000000000000
11
-83.0345574636724
21
21.9698862657266
31
0.00000000000000
  0
LINE
  5
F105C6
330
F105C7
100
AcDbEntity
8
Geo
100
AcDbLine
10
-83.0345574636724
20
21.9698862657266
30
0.00000000000000
11
-83.0045574636724
21
21.9529321507388
31
0.00000000000000
  0
LINE
  5
F105C8
330
F105C9
100
AcDbEntity
8
Geo
100
AcDbLine
10
-83.0045574636724
20
21.9529321507388
30
0.00000000000000
11
-82.9745574636724
21
21.9359590428408
31
0.00000000000000
  0
LINE
  5
F105CA
330
F105CB
100
AcDbEntity
8
Geo
100
AcDbLine
10
-82.9745574636724
20
21.9359590428408
30
0.00000000000000
11
-82.9445574636724
21
21.9189682150078
31
0.00000000000000
  0
LINE
  5
F105CC
330
F105CD
100
AcDbEntity
8
Geo
100
AcDbLine
10
-82.9445574636724
20
21.9189682150078
30
0.00000000000000
11
-82.9145574636724
21
21.9019609415439
31
0.00000000000000
  0
LINE
  5
F105CE
330
F105CF
100
AcDbEntity
8
Geo
100
AcDbLine
10
-82.9145574636724
20
21.9019609415439
30
0.00000000000000
11
-82.8845574636724
21
21.8849384979867
31
0.00000000000000
  0
LINE
  5
F105D0
330
F105D1
100
AcDbEntity
8
Geo
100
AcDbLine
10
-82.8845574636724
20
21.8849384979867
30
0.00000000000000
11
-82.8545574636724
21
21.8679021610113
31
0.00000000000000
  0
LINE
  5
F105D2
330
F105D3
100
AcDbEntity
8
Geo
100
AcDbLine
10
-82.8545574636724
20
21.8679021610113
30
0.00000000000000
11
-82.8245574636723
21
21.8508532083352
31
0.00000000000000
  0
LINE
  5
F105D4
330
F105D5
100
AcDbEntity
8
Geo
100
AcDbLine
10
-82.8245574636723
20
21.8508532083352
30
0.00000000000000
11
-82.7945574636723
21
21.8337929186217
31
0.00000000000000
  0
LINE
  5
F105D6
330
F105D7
100
AcDbEntity
8
Geo
100
AcDbLine
10
-82.7945574636723
20
21.8337929186217
30
0.00000000000000
11
-82.7645574636723
21
21.8167225713846
31
0.00000000000000
  0
LINE
  5
F105D8
330
F105D9
100
AcDbEntity
8
Geo
100
AcDbLine
10
-82.7645574636723
20
21.8167225713846
30
0.00000000000000
11
-82.7345574636723
21
21.7996434468919
31
0.00000000000000
  0
LINE
  5
F105DA
330
F105DB
100
AcDbEntity
8
Geo
100
AcDbLine
10
-82.7345574636723
20
21.7996434468919
30
0.00000000000000
11
-82.7045574636723
21
21.7825568260700
31
0.00000000000000
  0
LINE
  5
F105DC
330
F105DD
100
AcDbEntity
8
Geo
100
AcDbLine
10
-82.7045574636723
20
21.7825568260700
30
0.00000000000000
11
-82.6745574636724
21
21.7654639904075
31
0.00000000000000
  0
LINE
  5
F105DE
330
F105DF
100
AcDbEntity
8
Geo
100
AcDbLine
10
-82.6745574636724
20
21.7654639904075
30
0.00000000000000
11
-82.6445574636724
21
21.7483662218589
31
0.00000000000000
  0
LINE
  5
F105E0
330
F105E1
100
AcDbEntity
8
Geo
100
AcDbLine
10
-82.6445574636724
20
21.7483662218589
30
0.00000000000000
11
-82.6145574636724
21
21.7312648027489
31
0.00000000000000
  0
LINE
  5
F105E2
330
F105E3
100
AcDbEntity
8
Geo
100
AcDbLine
10
-82.6145574636724
20
21.7312648027489
30
0.00000000000000
11
-82.5845574636724
21
21.7141610156759
31
0.00000000000000
  0
LINE
  5
F105E4
330
F105E5
100
AcDbEntity
8
Geo
100
AcDbLine
10
-82.5845574636724
20
21.7141610156759
30
0.00000000000000
11
-82.5545574636724
21
21.6970561434160
31
0.00000000000000
  0
LINE
  5
F105E6
330
F105E7
100
AcDbEntity
8
Geo
100
AcDbLine
10
-82.5545574636724
20
21.6970561434160
30
0.00000000000000
11
-82.5245574636724
21
21.6799514688265
31
0.00000000000000
  0
LINE
  5
F105E8
330
F105E9
100
AcDbEntity
8
Geo
100
AcDbLine
10
-82.5245574636724
20
21.6799514688265
30
0.00000000000000
11
-82.4945574636724
21
21.6628482747500
31
0.00000000000000
  0
LINE
  5
F105EA
330
F105EB
100
AcDbEntity
8
Geo
100
AcDbLine
10
-82.4945574636724
20
21.6628482747500
30
0.00000000000000
11
-82.4645574636723
21
21.6457478439181
31
0.00000000000000
  0
LINE
  5
F105EC
330
F105ED
100
AcDbEntity
8
Geo
100
AcDbLine
10
-82.4645574636723
20
21.6457478439181
30
0.00000000000000
11
-82.4345574636723
21
21.6286514588550
31
0.00000000000000
  0
LINE
  5
F105EE
330
F105EF
100
AcDbEntity
8
Geo
100
AcDbLine
10
-82.4345574636723
20
21.6286514588550
30
0.00000000000000
11
-82.4045574636723
21
21.6115604017817
31
0.00000000000000
  0
LINE
  5
F105F0
330
F105F1
100
AcDbEntity
8
Geo
100
AcDbLine
10
-82.4045574636723
20
21.6115604017817
30
0.00000000000000
11
-82.3745574636723
21
21.5944759545193
31
0.00000000000000
  0
LINE
  5
F105F2
330
F105F3
100
AcDbEntity
8
Geo
100
AcDbLine
10
-82.3745574636723
20
21.5944759545193
30
0.00000000000000
11
-82.3445574636723
21
21.5773993983935
31
0.00000000000000
  0
LINE
  5
F105F4
330
F105F5
100
AcDbEntity
8
Geo
100
AcDbLine
10
-82.3445574636723
20
21.5773993983935
30
0.00000000000000
11
-82.3145574636723
21
21.5603320141379
31
0.00000000000000
  0
LINE
  5
F105F6
330
F105F7
100
AcDbEntity
8
Geo
100
AcDbLine
10
-82.3145574636723
20
21.5603320141379
30
0.00000000000000
11
-82.2845574636723
21
21.5432750817983
31
0.00000000000000
  0
LINE
  5
F105F8
330
F105F9
100
AcDbEntity
8
Geo
100
AcDbLine
10
-82.2845574636723
20
21.5432750817983
30
0.00000000000000
11
-82.2545574636723
21
21.5262298806367
31
0.00000000000000
  0
LINE
  5
F105FA
330
F105FB
100
AcDbEntity
8
Geo
100
AcDbLine
10
-82.2545574636723
20
21.5262298806367
30
0.00000000000000
11
-82.2245574636723
21
21.5091976890352
31
0.00000000000000
  0
LINE
  5
F105FC
330
F105FD
100
AcDbEntity
8
Geo
100
AcDbLine
10
-82.2245574636723
20
21.5091976890352
30
0.00000000000000
11
-82.1945574636723
21
21.4921797844001
31
0.00000000000000
  0
LINE
  5
F105FE
330
F105FF
100
AcDbEntity
8
Geo
100
AcDbLine
10
-82.1945574636723
20
21.4921797844001
30
0.00000000000000
11
-82.1645574636724
21
21.4751774430664
31
0.00000000000000
  0
LINE
  5
F10600
330
F10601
100
AcDbEntity
8
Geo
100
AcDbLine
10
-82.1645574636724
20
21.4751774430664
30
0.00000000000000
11
-82.1345574636724
21
21.4581919402016
31
0.00000000000000
  0
LINE
  5
F10602
330
F10603
100
AcDbEntity
8
Geo
100
AcDbLine
10
-82.1345574636724
20
21.4581919402016
30
0.00000000000000
11
-82.1045574636724
21
21.4412245497105
31
0.00000000000000
  0
LINE
  5
F10604
330
F10605
100
AcDbEntity
8
Geo
100
AcDbLine
10
-82.1045574636724
20
21.4412245497105
30
0.00000000000000
11
-82.0745574636723
21
21.4242765441395
31
0.00000000000000
  0
LINE
  5
F10606
330
F10607
100
AcDbEntity
8
Geo
100
AcDbLine
10
-82.0745574636723
20
21.4242765441395
30
0.00000000000000
11
-82.0445574636723
21
21.4073491945810
31
0.00000000000000
  0
LINE
  5
F10608
330
F10609
100
AcDbEntity
8
Geo
100
AcDbLine
10
-82.0445574636723
20
21.4073491945810
30
0.00000000000000
11
-82.0145574636723
21
21.3904437705783
31
0.00000000000000
  0
LINE
  5
F1060A
330
F1060B
100
AcDbEntity
8
Geo
100
AcDbLine
10
-82.0145574636723
20
21.3904437705783
30
0.00000000000000
11
-81.9845574636723
21
21.3735615400303
31
0.00000000000000
  0
LINE
  5
F1060C
330
F1060D
100
AcDbEntity
8
Geo
100
AcDbLine
10
-81.9845574636723
20
21.3735615400303
30
0.00000000000000
11
-81.9545574636723
21
21.3567037690964
31
0.00000000000000
  0
LINE
  5
F1060E
330
F1060F
100
AcDbEntity
8
Geo
100
AcDbLine
10
-81.9545574636723
20
21.3567037690964
30
0.00000000000000
11
-81.9245574636723
21
21.3398717221014
31
0.00000000000000
  0
LINE
  5
F10610
330
F10611
100
AcDbEntity
8
Geo
100
AcDbLine
10
-81.9245574636723
20
21.3398717221014
30
0.00000000000000
11
-81.8945574636723
21
21.3230666614410
31
0.00000000000000
  0
LINE
  5
F10612
330
F10613
100
AcDbEntity
8
Geo
100
AcDbLine
10
-81.8945574636723
20
21.3230666614410
30
0.00000000000000
11
-81.8645574636723
21
21.3062898474869
31
0.00000000000000
  0
LINE
  5
F10614
330
F10615
100
AcDbEntity
8
Geo
100
AcDbLine
10
-81.8645574636723
20
21.3062898474869
30
0.00000000000000
11
-81.8345574636723
21
21.2895425384923
31
0.00000000000000
  0
LINE
  5
F10616
330
F10617
100
AcDbEntity
8
Geo
100
AcDbLine
10
-81.8345574636723
20
21.2895425384923
30
0.00000000000000
11
-81.8045574636723
21
21.2728259904974
31
0.00000000000000
  0
LINE
  5
F10618
330
F10619
100
AcDbEntity
8
Geo
100
AcDbLine
10
-81.8045574636723
20
21.2728259904974
30
0.00000000000000
11
-81.7745574636723
21
21.2561414572356
31
0.00000000000000
  0
LINE
  5
F1061A
330
F1061B
100
AcDbEntity
8
Geo
100
AcDbLine
10
-81.7745574636723
20
21.2561414572356
30
0.00000000000000
11
-81.7445574636723
21
21.2394901900390
31
0.00000000000000
  0
LINE
  5
F1061C
330
F1061D
100
AcDbEntity
8
Geo
100
AcDbLine
10
-81.7445574636723
20
21.2394901900390
30
0.00000000000000
11
-81.7145574636723
21
21.2228734377449
31
0.00000000000000
  0
LINE
  5
F1061E
330
F1061F
100
AcDbEntity
8
Geo
100
AcDbLine
10
-81.7145574636723
20
21.2228734377449
30
0.00000000000000
11
-81.6845574636723
21
21.2062924466019
31
0.00000000000000
  0
LINE
  5
F10620
330
F10621
100
AcDbEntity
8
Geo
100
AcDbLine
10
-81.6845574636723
20
21.2062924466019
30
0.00000000000000
11
-81.6545574636723
21
21.1897484601765
31
0.00000000000000
  0
LINE
  5
F10622
330
F10623
100
AcDbEntity
8
Geo
100
AcDbLine
10
-81.6545574636723
20
21.1897484601765
30
0.00000000000000
11
-81.6245574636723
21
21.1732427192600
31
0.00000000000000
  0
LINE
  5
F10624
330
F10625
100
AcDbEntity
8
Geo
100
AcDbLine
10
-81.6245574636723
20
21.1732427192600
30
0.00000000000000
11
-81.5945574636723
21
21.1567764617753
31
0.00000000000000
  0
LINE
  5
F10626
330
F10627
100
AcDbEntity
8
Geo
100
AcDbLine
10
-81.5945574636723
20
21.1567764617753
30
0.00000000000000
11
-81.5645574636723
21
21.1403509226838
31
0.00000000000000
  0
LINE
  5
F10628
330
F10629
100
AcDbEntity
8
Geo
100
AcDbLine
10
-81.5645574636723
20
21.1403509226838
30
0.00000000000000
11
-81.5345574636723
21
21.1239673338934
31
0.00000000000000
  0
LINE
  5
F1062A
330
F1062B
100
AcDbEntity
8
Geo
100
AcDbLine
10
-81.5345574636723
20
21.1239673338934
30
0.00000000000000
11
-81.5045574636723
21
21.1076269241655
31
0.00000000000000
  0
LINE
  5
F1062C
330
F1062D
100
AcDbEntity
8
Geo
100
AcDbLine
10
-81.5045574636723
20
21.1076269241655
30
0.00000000000000
11
-81.4745574636723
21
21.0913309190231
31
0.00000000000000
  0
LINE
  5
F1062E
330
F1062F
100
AcDbEntity
8
Geo
100
AcDbLine
10
-81.4745574636723
20
21.0913309190231
30
0.00000000000000
11
-81.4445574636723
21
21.0750805406592
31
0.00000000000000
  0
LINE
  5
F10630
330
F10631
100
AcDbEntity
8
Geo
100
AcDbLine
10
-81.4445574636723
20
21.0750805406592
30
0.00000000000000
11
-81.4145574636723
21
21.0588770078443
31
0.00000000000000
  0
LINE
  5
F10632
330
F10633
100
AcDbEntity
8
Geo
100
AcDbLine
10
-81.4145574636723
20
21.0588770078443
30
0.00000000000000
11
-81.3845574636723
21
21.0427215358358
31
0.00000000000000
  0
LINE
  5
F10634
330
F10635
100
AcDbEntity
8
Geo
100
AcDbLine
10
-81.3845574636723
20
21.0427215358358
30
0.00000000000000
11
-81.3545574636723
21
21.0266153362867
31
0.00000000000000
  0
LINE
  5
F10636
330
F10637
100
AcDbEntity
8
Geo
100
AcDbLine
10
-81.3545574636723
20
21.0266153362867
30
0.00000000000000
11
-81.3245574636723
21
21.0105596171543
31
0.00000000000000
  0
LINE
  5
F10638
330
F10639
100
AcDbEntity
8
Geo
100
AcDbLine
10
-81.3245574636723
20
21.0105596171543
30
0.00000000000000
11
-81.2945574636723
21
20.9945555826099
31
0.00000000000000
  0
LINE
  5
F1063A
330
F1063B
100
AcDbEntity
8
Geo
100
AcDbLine
10
-81.2945574636723
20
20.9945555826099
30
0.00000000000000
11
-81.2645574636723
21
20.9786044329488
31
0.00000000000000
  0
LINE
  5
F1063C
330
F1063D
100
AcDbEntity
8
Geo
100
AcDbLine
10
-81.2645574636723
20
20.9786044329488
30
0.00000000000000
11
-81.2345574636723
21
20.9627073644996
31
0.00000000000000
  0
LINE
  5
F1063E
330
F1063F
100
AcDbEntity
8
Geo
100
AcDbLine
10
-81.2345574636723
20
20.9627073644996
30
0.00000000000000
11
-81.2045574636723
21
20.9468655695351
31
0.00000000000000
  0
LINE
  5
F10640
330
F10641
100
AcDbEntity
8
Geo
100
AcDbLine
10
-81.2045574636723
20
20.9468655695351
30
0.00000000000000
11
-81.1745574636723
21
20.9310802361824
31
0.00000000000000
  0
LINE
  5
F10642
330
F10643
100
AcDbEntity
8
Geo
100
AcDbLine
10
-81.1745574636723
20
20.9310802361824
30
0.00000000000000
11
-81.1445574636723
21
20.9153525483341
31
0.00000000000000
  0
LINE
  5
F10644
330
F10645
100
AcDbEntity
8
Geo
100
AcDbLine
10
-81.1445574636723
20
20.9153525483341
30
0.00000000000000
11
-81.1145574636723
21
20.8996836855595
31
0.00000000000000
  0
LINE
  5
F10646
330
F10647
100
AcDbEntity
8
Geo
100
AcDbLine
10
-81.1145574636723
20
20.8996836855595
30
0.00000000000000
11
-81.0845574636723
21
20.8840748230159
31
0.00000000000000
  0
LINE
  5
F10648
330
F10649
100
AcDbEntity
8
Geo
100
AcDbLine
10
-81.0845574636723
20
20.8840748230159
30
0.00000000000000
11
-81.0545574636723
21
20.8685271313607
31
0.00000000000000
  0
LINE
  5
F1064A
330
F1064B
100
AcDbEntity
8
Geo
100
AcDbLine
10
-81.0545574636723
20
20.8685271313607
30
0.00000000000000
11
-81.0245574636723
21
20.8530417766634
31
0.00000000000000
  0
LINE
  5
F1064C
330
F1064D
100
AcDbEntity
8
Geo
100
AcDbLine
10
-81.0245574636723
20
20.8530417766634
30
0.00000000000000
11
-80.9945574636723
21
20.8376199203185
31
0.00000000000000
  0
LINE
  5
F1064E
330
F1064F
100
AcDbEntity
8
Geo
100
AcDbLine
10
-80.9945574636723
20
20.8376199203185
30
0.00000000000000
11
-80.9645574636723
21
20.8222627189578
31
0.00000000000000
  0
LINE
  5
F10650
330
F10651
100
AcDbEntity
8
Geo
100
AcDbLine
10
-80.9645574636723
20
20.8222627189578
30
0.00000000000000
11
-80.9345574636723
21
20.8069713243644
31
0.00000000000000
  0
LINE
  5
F10652
330
F10653
100
AcDbEntity
8
Geo
100
AcDbLine
10
-80.9345574636723
20
20.8069713243644
30
0.00000000000000
11
-80.9045574636723
21
20.7917468833856
31
0.00000000000000
  0
LINE
  5
F10654
330
F10655
100
AcDbEntity
8
Geo
100
AcDbLine
10
-80.9045574636723
20
20.7917468833856
30
0.00000000000000
11
-80.8745574636723
21
20.7765905378474
31
0.00000000000000
  0
LINE
  5
F10656
330
F10657
100
AcDbEntity
8
Geo
100
AcDbLine
10
-80.8745574636723
20
20.7765905378474
30
0.00000000000000
11
-80.8445574636723
21
20.7615034244686
31
0.00000000000000
  0
LINE
  5
F10658
330
F10659
100
AcDbEntity
8
Geo
100
AcDbLine
10
-80.8445574636723
20
20.7615034244686
30
0.00000000000000
11
-80.8145574636723
21
20.7464866747756
31
0.00000000000000
  0
LINE
  5
F1065A
330
F1065B
100
AcDbEntity
8
Geo
100
AcDbLine
10
-80.8145574636723
20
20.7464866747756
30
0.00000000000000
11
-80.7845574636723
21
20.7315414150177
31
0.00000000000000
  0
LINE
  5
F1065C
330
F1065D
100
AcDbEntity
8
Geo
100
AcDbLine
10
-80.7845574636723
20
20.7315414150177
30
0.00000000000000
11
-80.7545574636723
21
20.7166687660822
31
0.00000000000000
  0
LINE
  5
F1065E
330
F1065F
100
AcDbEntity
8
Geo
100
AcDbLine
10
-80.7545574636723
20
20.7166687660822
30
0.00000000000000
11
-80.7245574636723
21
20.7018698434109
31
0.00000000000000
  0
LINE
  5
F10660
330
F10661
100
AcDbEntity
8
Geo
100
AcDbLine
10
-80.7245574636723
20
20.7018698434109
30
0.00000000000000
11
-80.6945574636723
21
20.6871457569160
31
0.00000000000000
  0
LINE
  5
F10662
330
F10663
100
AcDbEntity
8
Geo
100
AcDbLine
10
-80.6945574636723
20
20.6871457569160
30
0.00000000000000
11
-80.6645574636723
21
20.6724976108972
31
0.00000000000000
  0
LINE
  5
F10664
330
F10665
100
AcDbEntity
8
Geo
100
AcDbLine
10
-80.6645574636723
20
20.6724976108972
30
0.00000000000000
11
-80.6345574636723
21
20.6579265039584
31
0.00000000000000
  0
LINE
  5
F10666
330
F10667
100
AcDbEntity
8
Geo
100
AcDbLine
10
-80.6345574636723
20
20.6579265039584
30
0.00000000000000
11
-80.6045574636723
21
20.6434335289260
31
0.00000000000000
  0
LINE
  5
F10668
330
F10669
100
AcDbEntity
8
Geo
100
AcDbLine
10
-80.6045574636723
20
20.6434335289260
30
0.00000000000000
11
-80.5745574636723
21
20.6290197727663
31
0.00000000000000
  0
LINE
  5
F1066A
330
F1066B
100
AcDbEntity
8
Geo
100
AcDbLine
10
-80.5745574636723
20
20.6290197727663
30
0.00000000000000
11
-80.5445574636723
21
20.6146863165041
31
0.00000000000000
  0
LINE
  5
F1066C
330
F1066D
100
AcDbEntity
8
Geo
100
AcDbLine
10
-80.5445574636723
20
20.6146863165041
30
0.00000000000000
11
-80.5145574636723
21
20.6004342351420
31
0.00000000000000
  0
LINE
  5
F1066E
330
F1066F
100
AcDbEntity
8
Geo
100
AcDbLine
10
-80.5145574636723
20
20.6004342351420
30
0.00000000000000
11
-80.4845574636723
21
20.5862645975795
31
0.00000000000000
  0
LINE
  5
F10670
330
F10671
100
AcDbEntity
8
Geo
100
AcDbLine
10
-80.4845574636723
20
20.5862645975795
30
0.00000000000000
11
-80.4545574636723
21
20.5721784665326
31
0.00000000000000
  0
LINE
  5
F10672
330
F10673
100
AcDbEntity
8
Geo
100
AcDbLine
10
-80.4545574636723
20
20.5721784665326
30
0.00000000000000
11
-80.4245574636723
21
20.5581768984547
31
0.00000000000000
  0
LINE
  5
F10674
330
F10675
100
AcDbEntity
8
Geo
100
AcDbLine
10
-80.4245574636723
20
20.5581768984547
30
0.00000000000000
11
-80.3945574636723
21
20.5442609434567
31
0.00000000000000
  0
LINE
  5
F10676
330
F10677
100
AcDbEntity
8
Geo
100
AcDbLine
10
-80.3945574636723
20
20.5442609434567
30
0.00000000000000
11
-80.3645574636723
21
20.5304316452288
31
0.00000000000000
  0
LINE
  5
F10678
330
F10679
100
AcDbEntity
8
Geo
100
AcDbLine
10
-80.3645574636723
20
20.5304316452288
30
0.00000000000000
11
-80.3345574636723
21
20.5166900409619
31
0.00000000000000
  0
LINE
  5
F1067A
330
F1067B
100
AcDbEntity
8
Geo
100
AcDbLine
10
-80.3345574636723
20
20.5166900409619
30
0.00000000000000
11
-80.3045574636723
21
20.5030371612697
31
0.00000000000000
  0
LINE
  5
F1067C
330
F1067D
100
AcDbEntity
8
Geo
100
AcDbLine
10
-80.3045574636723
20
20.5030371612697
30
0.00000000000000
11
-80.2745574636723
21
20.4894740301120
31
0.00000000000000
  0
LINE
  5
F1067E
330
F1067F
100
AcDbEntity
8
Geo
100
AcDbLine
10
-80.2745574636723
20
20.4894740301120
30
0.00000000000000
11
-80.2445574636723
21
20.4760016647171
31
0.00000000000000
  0
LINE
  5
F10680
330
F10681
100
AcDbEntity
8
Geo
100
AcDbLine
10
-80.2445574636723
20
20.4760016647171
30
0.00000000000000
11
-80.2145574636723
21
20.4626210755063
31
0.00000000000000
  0
LINE
  5
F10682
330
F10683
100
AcDbEntity
8
Geo
100
AcDbLine
10
-80.2145574636723
20
20.4626210755063
30
0.00000000000000
11
-80.1845574636723
21
20.4493332660173
31
0.00000000000000
  0
LINE
  5
F10684
330
F10685
100
AcDbEntity
8
Geo
100
AcDbLine
10
-80.1845574636723
20
20.4493332660173
30
0.00000000000000
11
-80.1545574636723
21
20.4361392328297
31
0.00000000000000
  0
LINE
  5
F10686
330
F10687
100
AcDbEntity
8
Geo
100
AcDbLine
10
-80.1545574636723
20
20.4361392328297
30
0.00000000000000
11
-80.1245574636723
21
20.4230399654898
31
0.00000000000000
  0
LINE
  5
F10688
330
F10689
100
AcDbEntity
8
Geo
100
AcDbLine
10
-80.1245574636723
20
20.4230399654898
30
0.00000000000000
11
-80.0945574636723
21
20.4100364464364
31
0.00000000000000
  0
LINE
  5
F1068A
330
F1068B
100
AcDbEntity
8
Geo
100
AcDbLine
10
-80.0945574636723
20
20.4100364464364
30
0.00000000000000
11
-80.0645574636723
21
20.3971296509275
31
0.00000000000000
  0
LINE
  5
F1068C
330
F1068D
100
AcDbEntity
8
Geo
100
AcDbLine
10
-80.0645574636723
20
20.3971296509275
30
0.00000000000000
11
-80.0345574636723
21
20.3843205469667
31
0.00000000000000
  0
LINE
  5
F1068E
330
F1068F
100
AcDbEntity
8
Geo
100
AcDbLine
10
-80.0345574636723
20
20.3843205469667
30
0.00000000000000
11
-80.0045574636723
21
20.3716100952306
31
0.00000000000000
  0
LINE
  5
F10690
330
F10691
100
AcDbEntity
8
Geo
100
AcDbLine
10
-80.0045574636723
20
20.3716100952306
30
0.00000000000000
11
-79.9745574636723
21
20.3589992489973
31
0.00000000000000
  0
LINE
  5
F10692
330
F10693
100
AcDbEntity
8
Geo
100
AcDbLine
10
-79.9745574636723
20
20.3589992489973
30
0.00000000000000
11
-79.9445574636723
21
20.3464889540743
31
0.00000000000000
  0
LINE
  5
F10694
330
F10695
100
AcDbEntity
8
Geo
100
AcDbLine
10
-79.9445574636723
20
20.3464889540743
30
0.00000000000000
11
-79.9145574636723
21
20.3340801487279
31
0.00000000000000
  0
LINE
  5
F10696
330
F10697
100
AcDbEntity
8
Geo
100
AcDbLine
10
-79.9145574636723
20
20.3340801487279
30
0.00000000000000
11
-79.8845574636723
21
20.3217737636127
31
0.00000000000000
  0
LINE
  5
F10698
330
F10699
100
AcDbEntity
8
Geo
100
AcDbLine
10
-79.8845574636723
20
20.3217737636127
30
0.00000000000000
11
-79.8545574636723
21
20.3095707217016
31
0.00000000000000
  0
LINE
  5
F1069A
330
F1069B
100
AcDbEntity
8
Geo
100
AcDbLine
10
-79.8545574636723
20
20.3095707217016
30
0.00000000000000
11
-79.8245574636723
21
20.2974719382173
31
0.00000000000000
  0
LINE
  5
F1069C
330
F1069D
100
AcDbEntity
8
Geo
100
AcDbLine
10
-79.8245574636723
20
20.2974719382173
30
0.00000000000000
11
-79.7945574636723
21
20.2854783205628
31
0.00000000000000
  0
LINE
  5
F1069E
330
F1069F
100
AcDbEntity
8
Geo
100
AcDbLine
10
-79.7945574636723
20
20.2854783205628
30
0.00000000000000
11
-79.7645574636723
21
20.2735907682537
31
0.00000000000000
  0
LINE
  5
F106A0
330
F106A1
100
AcDbEntity
8
Geo
100
AcDbLine
10
-79.7645574636723
20
20.2735907682537
30
0.00000000000000
11
-79.7345574636723
21
20.2618101728510
31
0.00000000000000
  0
LINE
  5
F106A2
330
F106A3
100
AcDbEntity
8
Geo
100
AcDbLine
10
-79.7345574636723
20
20.2618101728510
30
0.00000000000000
11
-79.7045574636723
21
20.2501374178937
31
0.00000000000000
  0
LINE
  5
F106A4
330
F106A5
100
AcDbEntity
8
Geo
100
AcDbLine
10
-79.7045574636723
20
20.2501374178937
30
0.00000000000000
11
-79.6745574636723
21
20.2385733788330
31
0.00000000000000
  0
LINE
  5
F106A6
330
F106A7
100
AcDbEntity
8
Geo
100
AcDbLine
10
-17.6545574636723
20
24.0996917657419
30
0.00000000000000
11
-17.6545574636723
21
21.6996917657419
31
0.00000000000000
  0
ARC
  5
F106A8
330
F106A9
100
AcDbEntity
8
Geo
100
AcDbCircle
10
-85.6545574636723
20
21.6996917657419
30
0.00000000000000
 40
2.00000000000000
100
AcDbArc
 50
180.000000000000
 51
270.000000000000
  0
LINE
  5
F106AA
330
F106AB
100
AcDbEntity
8
Geo
100
AcDbLine
10
-85.6545574636723
20
19.6996917657419
30
0.00000000000000
11
-79.6545574636723
21
19.6996917657419
31
0.00000000000000
  0
LINE
  5
F106AC
330
F106AD
100
AcDbEntity
8
Geo
100
AcDbLine
10
-79.6545574636723
20
19.6996917657419
30
0.00000000000000
11
-79.6536082712412
21
19.6996917657419
31
0.00000000000000
  0
LINE
  5
F106AE
330
F106AF
100
AcDbEntity
8
Geo
100
AcDbLine
10
-79.6536082712412
20
19.6996917657419
30
0.00000000000000
11
-75.9215574636723
21
18.6996917657419
31
0.00000000000000
  0
LINE
  5
F106B0
330
F106B1
100
AcDbEntity
8
Geo
100
AcDbLine
10
-75.9215574636723
20
18.6996917657419
30
0.00000000000000
11
-18.2545574636723
21
18.6996917657419
31
0.00000000000000
  0
LINE
  5
F106B2
330
F106B3
100
AcDbEntity
8
Geo
100
AcDbLine
10
-18.2545574636723
20
18.6996917657419
30
0.00000000000000
11
-17.6545574636723
21
19.2996917657419
31
0.00000000000000
  0
LINE
  5
F106B4
330
F106B5
100
AcDbEntity
8
Geo
100
AcDbLine
10
-85.6545574636723
20
23.6996917657419
30
0.00000000000000
11
-85.6545574636723
21
19.6996917657419
31
0.00000000000000
  0
LINE
  5
F106B6
330
F106B7
100
AcDbEntity
8
Geo
100
AcDbLine
10
-79.6545574636723
20
23.6996917657419
30
0.00000000000000
11
-79.6545574636723
21
19.6996917657419
31
0.00000000000000
  0
LINE
  5
F106B8
330
F106B9
100
AcDbEntity
8
Geo
100
AcDbLine
10
-79.6545574636723
20
23.6996917657419
30
0.00000000000000
11
-79.6545574636723
21
19.6996917657419
31
0.00000000000000
  0
LINE
  5
F106BA
330
F106BB
100
AcDbEntity
8
Geo
100
AcDbLine
10
-79.6536082712412
20
23.6996917657419
30
0.00000000000000
11
-79.6536082712412
21
19.6996917657419
31
0.00000000000000
  0
LINE
  5
F106BC
330
F106BD
100
AcDbEntity
8
Geo
100
AcDbLine
10
-75.9215574636723
20
24.6996917657419
30
0.00000000000000
11
-75.9215574636723
21
18.6996917657419
31
0.00000000000000
  0
LINE
  5
F106BE
330
F106BF
100
AcDbEntity
8
Geo
100
AcDbLine
10
-75.9215574636723
20
24.6996917657419
30
0.00000000000000
11
-75.9215574636723
21
18.6996917657419
31
0.00000000000000
  0
LINE
  5
F106C0
330
F106C1
100
AcDbEntity
8
Geo
100
AcDbLine
10
-18.2545574636723
20
24.6996917657419
30
0.00000000000000
11
-18.2545574636723
21
18.6996917657419
31
0.00000000000000
  0
LINE
  5
F106C2
330
F106C3
100
AcDbEntity
8
Geo
100
AcDbLine
10
-17.6545574636723
20
24.0996917657419
30
0.00000000000000
11
-17.6545574636723
21
19.2996917657419
31
0.00000000000000
  0
LINE
  5
F106C4
330
F106C5
100
AcDbEntity
8
Geo
 6
Dashdot
100
AcDbLine
10
-87.6545574636723
20
21.6996917657419
30
0.00000000000000
11
-17.6545574636723
21
21.6996917657419
31
0.00000000000000
0
VIEWPORT
5
294
102
{ACAD_XDICTIONARY
360
58A
102
}
330
25D
100
AcDbEntity
67
1
8
0
60
1
100
AcDbViewport
10
0.0
20
0.0
30
0.0
40
10.0
41
10.0
68
-1
69
1
12
0.0
22
0.0
13
0.0
23
0.0
14
1.0
24
1.0
15
0.0
25
0.0
16
0.0
26
0.0
36
1.0
17
0.0
27
0.0
37
0.0
42
0.0
43
0.0
44
0.0
45
10.0
50
0.0
51
0.0000000000007958
72
100
90
32800
1

281
0
71
0
74
0
110
0.0
120
0.0
130
0.0
111
1.0
121
0.0
131
0.0
112
0.0
122
1.0
132
0.0
79
0
146
0.0
1001
VD_INVISIBLE_NOT_FOR_READ
1000
VD_INVISIBLE_NOT_FOR_READ
0
VIEWPORT
5
295
102
{ACAD_XDICTIONARY
360
58C
102
}
330
25D
100
AcDbEntity
67
1
8
0
60
1
100
AcDbViewport
10
0.0
20
0.0
30
0.0
40
10.0
41
10.0
68
0
69
2
12
0.0
22
0.0
13
0.0
23
0.0
14
1.0
24
1.0
15
0.0
25
0.0
16
0.0
26
0.0
36
1.0
17
0.0
27
0.0
37
0.0
42
0.0
43
0.0
44
0.0
45
10.0
50
0.0
51
0.0000000000007958
72
100
90
163872
1

281
0
71
0
74
0
110
0.0
120
0.0
130
0.0
111
1.0
121
0.0
131
0.0
112
0.0
122
1.0
132
0.0
79
0
146
0.0
1001
VD_INVISIBLE_NOT_FOR_READ
1000
VD_INVISIBLE_NOT_FOR_READ
0
ENDSEC
0
SECTION
2
OBJECTS
0
DICTIONARY
5
13
330
0
100
AcDbDictionary
281
1
3
ACAD_COLOR
350
FA7
3
ACAD_GROUP
350
14
3
ACAD_LAYOUT
350
FCF
3
ACAD_MATERIAL
350
F7A
3
ACAD_MLEADERSTYLE
350
FCD
3
ACAD_MLINESTYLE
350
16
3
ACAD_PLOTSETTINGS
350
17
3
ACAD_PLOTSTYLENAME
350
18
3
ACAD_SCALELIST
350
FAB
3
ACAD_TABLESTYLE
350
FA8
3
ACAD_VISUALSTYLE
350
F93
3
ACDB_RECOMPOSE_DATA
350
107E
3
AcDbVariableDictionary
350
FF0
3
DWGPROPS
350
107F
0
DICTIONARY
5
FA7
102
{ACAD_REACTORS
330
13
102
}
330
13
100
AcDbDictionary
281
1
0
DICTIONARY
5
14
330
13
100
AcDbDictionary
281
1
0
DICTIONARY
5
FCF
102
{ACAD_REACTORS
330
13
102
}
330
13
100
AcDbDictionary
281
1
3
Layout1
350
FD1
3
Model
350
FD0
0
DICTIONARY
5
F7A
102
{ACAD_REACTORS
330
13
102
}
330
13
100
AcDbDictionary
281
1
3
ByBlock
350
F83
3
ByLayer
350
F7B
3
Global
350
F8B
0
DICTIONARY
5
FCD
102
{ACAD_REACTORS
330
13
102
}
330
13
100
AcDbDictionary
281
1
3
Standard
350
FCE
0
DICTIONARY
5
16
330
13
100
AcDbDictionary
281
1
3
Standard
350
FAA
0
DICTIONARY
5
17
102
{ACAD_REACTORS
330
13
102
}
330
13
100
AcDbDictionary
281
1
0
ACDBDICTIONARYWDFLT
5
18
102
{ACAD_REACTORS
330
13
102
}
330
13
100
AcDbDictionary
281
1
3
Normal
350
19
100
AcDbDictionaryWithDefault
340
19
0
DICTIONARY
5
FAB
102
{ACAD_REACTORS
330
13
102
}
330
13
100
AcDbDictionary
281
1
3
A0
350
FAC
3
A1
350
FAD
3
A2
350
FAE
3
A3
350
FAF
3
A4
350
FB0
3
A5
350
FB1
3
A6
350
FB2
3
A7
350
FB3
3
A8
350
FB4
3
A9
350
FB5
3
B0
350
FB6
3
B1
350
FB7
3
B2
350
FB8
3
B3
350
FB9
3
B4
350
FBA
3
B5
350
FBB
3
B6
350
FBC
3
B7
350
FBD
3
B8
350
FBE
3
B9
350
FBF
3
C0
350
FC0
3
C1
350
FC1
3
C2
350
FC2
3
C3
350
FC3
3
C4
350
FC4
3
C5
350
FC5
3
C6
350
FC6
3
C7
350
FC7
3
C8
350
FC8
3
C9
350
FC9
3
D0
350
FCA
3
D1
350
FCB
3
D2
350
FCC
0
DICTIONARY
5
FA8
102
{ACAD_REACTORS
330
13
102
}
330
13
100
AcDbDictionary
281
1
3
Standard
350
FA9
0
DICTIONARY
5
F93
102
{ACAD_REACTORS
330
13
102
}
330
13
100
AcDbDictionary
281
1
3
2dWireframe
350
F99
3
3D Hidden
350
F9B
3
3dWireframe
350
F9A
3
Basic
350
F98
3
Brighten
350
F9F
3
ColorChange
350
FA3
3
Conceptual
350
F9C
3
Dim
350
F9E
3
EdgeColorOff
350
FA6
3
Facepattern
350
FA2
3
Flat
350
F94
3
FlatWithEdges
350
F95
3
Gouraud
350
F96
3
GouraudWithEdges
350
F97
3
JitterOff
350
FA4
3
Linepattern
350
FA1
3
OverhangOff
350
FA5
3
Realistic
350
F9D
3
Thicken
350
FA0
0
XRECORD
5
107E
102
{ACAD_REACTORS
330
13
102
}
330
13
100
AcDbXrecord
280
1
90
1
330
FA9
0
DICTIONARY
5
FF0
102
{ACAD_REACTORS
330
13
102
}
330
13
100
AcDbDictionary
281
1
3
CANNOSCALE
350
FF3
3
CMLEADERSTYLE
350
FF2
3
CTABLESTYLE
350
FF1
3
DIMASSOC
350
FF6
3
INDEXCTL
350
FF5
3
SORTENTS
350
FF4
3
XCLIPFRAME
350
1078
0
XRECORD
5
107F
102
{ACAD_REACTORS
330
13
102
}
330
13
100
AcDbXrecord
280
1
1
DWGPROPS COOKIE
2

3

4

6

7

8

9

300
=
301
=
302
=
303
=
304
=
305
=
306
=
307
=
308
=
309
=
40
0.0
41
0.0
42
0.0
1

90
0
0
LAYOUT
5
FD1
102
{ACAD_XDICTIONARY
360
10A9
102
}
102
{ACAD_REACTORS
330
FCF
102
}
330
FCF
100
AcDbPlotSettings
1

2
Microsoft XPS Document Writer
4

6

40
0.0
41
0.0
42
0.0
43
0.0
44
0.0
45
0.0
46
0.0
47
0.0
48
0.0
49
0.0
140
0.0
141
0.0
142
1.0
143
1.0
70
688
72
0
73
0
74
5
7

75
16
147
1.0
148
0.0
149
0.0
100
AcDbLayout
1
Layout1
70
1
71
1
10
0.0
20
0.0
11
12.0
21
9.0
12
0.0
22
0.0
32
0.0
14
1.000000000000000E+20
24
1.000000000000000E+20
34
1.000000000000000E+20
15
-1.000000000000000E+20
25
-1.000000000000000E+20
35
-1.000000000000000E+20
146
0.0
13
0.0
23
0.0
33
0.0
16
1.0
26
0.0
36
0.0
17
0.0
27
1.0
37
0.0
76
0
330
25D
0
LAYOUT
5
FD0
102
{ACAD_XDICTIONARY
360
10A7
102
}
102
{ACAD_REACTORS
330
FCF
102
}
330
FCF
100
AcDbPlotSettings
1

2
Microsoft XPS Document Writer
4

6

40
0.0
41
0.0
42
0.0
43
0.0
44
0.0
45
0.0
46
0.0
47
0.0
48
0.0
49
0.0
140
0.0
141
0.0
142
1.0
143
1.0
70
1712
72
0
73
0
74
0
7

75
0
147
1.0
148
0.0
149
0.0
100
AcDbLayout
1
Model
70
1
71
0
10
0.0
20
0.0
11
12.0
21
9.0
12
0.0
22
0.0
32
0.0
14
0.0
24
0.0
34
0.0
15
0.0
25
0.0
35
0.0
146
0.0
13
0.0
23
0.0
33
0.0
16
1.0
26
0.0
36
0.0
17
0.0
27
1.0
37
0.0
76
0
330
261
331
26B
0
MATERIAL
5
F83
102
{ACAD_XDICTIONARY
360
F84
102
}
102
{ACAD_REACTORS
330
F7A
102
}
330
F7A
100
AcDbMaterial
1
ByBlock
72
0
43
0.0208333333333333
43
0.0
43
0.0
43
0.0
43
0.0
43
0.0208333333333333
43
0.0
43
0.0
43
0.0
43
0.0
43
1.0
43
0.0
43
0.0
43
0.0
43
0.0
43
1.0
77
0
47
0.0208333333333333
47
0.0
47
0.0
47
0.0
47
0.0
47
0.0208333333333333
47
0.0
47
0.0
47
0.0
47
0.0
47
1.0
47
0.0
47
0.0
47
0.0
47
0.0
47
1.0
171
0
49
0.0208333333333333
49
0.0
49
0.0
49
0.0
49
0.0
49
0.0208333333333333
49
0.0
49
0.0
49
0.0
49
0.0
49
1.0
49
0.0
49
0.0
49
0.0
49
0.0
49
1.0
175
0
142
0.0208333333333333
142
0.0
142
0.0
142
0.0
142
0.0
142
0.0208333333333333
142
0.0
142
0.0
142
0.0
142
0.0
142
1.0
142
0.0
142
0.0
142
0.0
142
0.0
142
1.0
179
0
144
0.0208333333333333
144
0.0
144
0.0
144
0.0
144
0.0
144
0.0208333333333333
144
0.0
144
0.0
144
0.0
144
0.0
144
1.0
144
0.0
144
0.0
144
0.0
144
0.0
144
1.0
147
0.0208333333333333
147
0.0
147
0.0
147
0.0
147
0.0
147
0.0208333333333333
147
0.0
147
0.0
147
0.0
147
0.0
147
1.0
147
0.0
147
0.0
147
0.0
147
0.0
147
1.0
0
MATERIAL
5
F7B
102
{ACAD_XDICTIONARY
360
F7C
102
}
102
{ACAD_REACTORS
330
F7A
102
}
330
F7A
100
AcDbMaterial
1
ByLayer
72
0
43
0.0208333333333333
43
0.0
43
0.0
43
0.0
43
0.0
43
0.0208333333333333
43
0.0
43
0.0
43
0.0
43
0.0
43
1.0
43
0.0
43
0.0
43
0.0
43
0.0
43
1.0
77
0
47
0.0208333333333333
47
0.0
47
0.0
47
0.0
47
0.0
47
0.0208333333333333
47
0.0
47
0.0
47
0.0
47
0.0
47
1.0
47
0.0
47
0.0
47
0.0
47
0.0
47
1.0
171
0
49
0.0208333333333333
49
0.0
49
0.0
49
0.0
49
0.0
49
0.0208333333333333
49
0.0
49
0.0
49
0.0
49
0.0
49
1.0
49
0.0
49
0.0
49
0.0
49
0.0
49
1.0
175
0
142
0.0208333333333333
142
0.0
142
0.0
142
0.0
142
0.0
142
0.0208333333333333
142
0.0
142
0.0
142
0.0
142
0.0
142
1.0
142
0.0
142
0.0
142
0.0
142
0.0
142
1.0
179
0
144
0.0208333333333333
144
0.0
144
0.0
144
0.0
144
0.0
144
0.0208333333333333
144
0.0
144
0.0
144
0.0
144
0.0
144
1.0
144
0.0
144
0.0
144
0.0
144
0.0
144
1.0
147
0.0208333333333333
147
0.0
147
0.0
147
0.0
147
0.0
147
0.0208333333333333
147
0.0
147
0.0
147
0.0
147
0.0
147
1.0
147
0.0
147
0.0
147
0.0
147
0.0
147
1.0
0
MATERIAL
5
F8B
102
{ACAD_XDICTIONARY
360
F8C
102
}
102
{ACAD_REACTORS
330
F7A
102
}
330
F7A
100
AcDbMaterial
1
Global
72
0
43
0.0208333333333333
43
0.0
43
0.0
43
0.0
43
0.0
43
0.0208333333333333
43
0.0
43
0.0
43
0.0
43
0.0
43
1.0
43
0.0
43
0.0
43
0.0
43
0.0
43
1.0
77
0
47
0.0208333333333333
47
0.0
47
0.0
47
0.0
47
0.0
47
0.0208333333333333
47
0.0
47
0.0
47
0.0
47
0.0
47
1.0
47
0.0
47
0.0
47
0.0
47
0.0
47
1.0
171
0
49
0.0208333333333333
49
0.0
49
0.0
49
0.0
49
0.0
49
0.0208333333333333
49
0.0
49
0.0
49
0.0
49
0.0
49
1.0
49
0.0
49
0.0
49
0.0
49
0.0
49
1.0
175
0
142
0.0208333333333333
142
0.0
142
0.0
142
0.0
142
0.0
142
0.0208333333333333
142
0.0
142
0.0
142
0.0
142
0.0
142
1.0
142
0.0
142
0.0
142
0.0
142
0.0
142
1.0
179
0
144
0.0208333333333333
144
0.0
144
0.0
144
0.0
144
0.0
144
0.0208333333333333
144
0.0
144
0.0
144
0.0
144
0.0
144
1.0
144
0.0
144
0.0
144
0.0
144
0.0
144
1.0
147
0.0208333333333333
147
0.0
147
0.0
147
0.0
147
0.0
147
0.0208333333333333
147
0.0
147
0.0
147
0.0
147
0.0
147
1.0
147
0.0
147
0.0
147
0.0
147
0.0
147
1.0
0
MLEADERSTYLE
5
FCE
102
{ACAD_REACTORS
330
FCD
102
}
330
FCD
100
AcDbMLeaderStyle
170
2
171
1
172
0
90
2
40
0.0
41
0.0
173
1
91
-1056964608
340
256
92
-2
290
1
42
0.09
291
1
43
0.36
3
Standard
44
0.18
300

342
253
174
1
178
6
175
1
176
0
93
-1056964608
45
0.18
292
0
297
0
46
0.18
94
-1056964608
47
1.0
49
1.0
140
1.0
293
1
141
0.0
294
1
177
0
142
1.0
295
0
296
0
143
0.125
1001
ACAD_MLEADERVER
1070
2
0
MLINESTYLE
5
FAA
102
{ACAD_REACTORS
330
16
102
}
330
16
100
AcDbMlineStyle
2
STANDARD
70
0
3

62
256
51
90.0
52
90.0
71
2
49
0.5
62
256
6
BYLAYER
49
-0.5
62
256
6
BYLAYER
0
ACDBPLACEHOLDER
5
19
102
{ACAD_REACTORS
330
18
102
}
330
18
0
SCALE
5
FAC
102
{ACAD_REACTORS
330
FAB
102
}
330
FAB
100
AcDbScale
70
0
300
1:1
140
1.0
141
1.0
290
1
0
SCALE
5
FAD
102
{ACAD_REACTORS
330
FAB
102
}
330
FAB
100
AcDbScale
70
0
300
1:2
140
1.0
141
2.0
290
0
0
SCALE
5
FAE
102
{ACAD_REACTORS
330
FAB
102
}
330
FAB
100
AcDbScale
70
0
300
1:4
140
1.0
141
4.0
290
0
0
SCALE
5
FAF
102
{ACAD_REACTORS
330
FAB
102
}
330
FAB
100
AcDbScale
70
0
300
1:5
140
1.0
141
5.0
290
0
0
SCALE
5
FB0
102
{ACAD_REACTORS
330
FAB
102
}
330
FAB
100
AcDbScale
70
0
300
1:8
140
1.0
141
8.0
290
0
0
SCALE
5
FB1
102
{ACAD_REACTORS
330
FAB
102
}
330
FAB
100
AcDbScale
70
0
300
1:10
140
1.0
141
10.0
290
0
0
SCALE
5
FB2
102
{ACAD_REACTORS
330
FAB
102
}
330
FAB
100
AcDbScale
70
0
300
1:16
140
1.0
141
16.0
290
0
0
SCALE
5
FB3
102
{ACAD_REACTORS
330
FAB
102
}
330
FAB
100
AcDbScale
70
0
300
1:20
140
1.0
141
20.0
290
0
0
SCALE
5
FB4
102
{ACAD_REACTORS
330
FAB
102
}
330
FAB
100
AcDbScale
70
0
300
1:30
140
1.0
141
30.0
290
0
0
SCALE
5
FB5
102
{ACAD_REACTORS
330
FAB
102
}
330
FAB
100
AcDbScale
70
0
300
1:40
140
1.0
141
40.0
290
0
0
SCALE
5
FB6
102
{ACAD_REACTORS
330
FAB
102
}
330
FAB
100
AcDbScale
70
0
300
1:50
140
1.0
141
50.0
290
0
0
SCALE
5
FB7
102
{ACAD_REACTORS
330
FAB
102
}
330
FAB
100
AcDbScale
70
0
300
1:100
140
1.0
141
100.0
290
0
0
SCALE
5
FB8
102
{ACAD_REACTORS
330
FAB
102
}
330
FAB
100
AcDbScale
70
0
300
2:1
140
2.0
141
1.0
290
0
0
SCALE
5
FB9
102
{ACAD_REACTORS
330
FAB
102
}
330
FAB
100
AcDbScale
70
0
300
4:1
140
4.0
141
1.0
290
0
0
SCALE
5
FBA
102
{ACAD_REACTORS
330
FAB
102
}
330
FAB
100
AcDbScale
70
0
300
8:1
140
8.0
141
1.0
290
0
0
SCALE
5
FBB
102
{ACAD_REACTORS
330
FAB
102
}
330
FAB
100
AcDbScale
70
0
300
10:1
140
10.0
141
1.0
290
0
0
SCALE
5
FBC
102
{ACAD_REACTORS
330
FAB
102
}
330
FAB
100
AcDbScale
70
0
300
100:1
140
100.0
141
1.0
290
0
0
SCALE
5
FBD
102
{ACAD_REACTORS
330
FAB
102
}
330
FAB
100
AcDbScale
70
0
300
1/128" = 1'-0"
140
0.0078125
141
12.0
290
0
0
SCALE
5
FBE
102
{ACAD_REACTORS
330
FAB
102
}
330
FAB
100
AcDbScale
70
0
300
1/64" = 1'-0"
140
0.015625
141
12.0
290
0
0
SCALE
5
FBF
102
{ACAD_REACTORS
330
FAB
102
}
330
FAB
100
AcDbScale
70
0
300
1/32" = 1'-0"
140
0.03125
141
12.0
290
0
0
SCALE
5
FC0
102
{ACAD_REACTORS
330
FAB
102
}
330
FAB
100
AcDbScale
70
0
300
1/16" = 1'-0"
140
0.0625
141
12.0
290
0
0
SCALE
5
FC1
102
{ACAD_REACTORS
330
FAB
102
}
330
FAB
100
AcDbScale
70
0
300
3/32" = 1'-0"
140
0.09375
141
12.0
290
0
0
SCALE
5
FC2
102
{ACAD_REACTORS
330
FAB
102
}
330
FAB
100
AcDbScale
70
0
300
1/8" = 1'-0"
140
0.125
141
12.0
290
0
0
SCALE
5
FC3
102
{ACAD_REACTORS
330
FAB
102
}
330
FAB
100
AcDbScale
70
0
300
3/16" = 1'-0"
140
0.1875
141
12.0
290
0
0
SCALE
5
FC4
102
{ACAD_REACTORS
330
FAB
102
}
330
FAB
100
AcDbScale
70
0
300
1/4" = 1'-0"
140
0.25
141
12.0
290
0
0
SCALE
5
FC5
102
{ACAD_REACTORS
330
FAB
102
}
330
FAB
100
AcDbScale
70
0
300
3/8" = 1'-0"
140
0.375
141
12.0
290
0
0
SCALE
5
FC6
102
{ACAD_REACTORS
330
FAB
102
}
330
FAB
100
AcDbScale
70
0
300
1/2" = 1'-0"
140
0.5
141
12.0
290
0
0
SCALE
5
FC7
102
{ACAD_REACTORS
330
FAB
102
}
330
FAB
100
AcDbScale
70
0
300
3/4" = 1'-0"
140
0.75
141
12.0
290
0
0
SCALE
5
FC8
102
{ACAD_REACTORS
330
FAB
102
}
330
FAB
100
AcDbScale
70
0
300
1" = 1'-0"
140
1.0
141
12.0
290
0
0
SCALE
5
FC9
102
{ACAD_REACTORS
330
FAB
102
}
330
FAB
100
AcDbScale
70
0
300
1-1/2" = 1'-0"
140
1.5
141
12.0
290
0
0
SCALE
5
FCA
102
{ACAD_REACTORS
330
FAB
102
}
330
FAB
100
AcDbScale
70
0
300
3" = 1'-0"
140
3.0
141
12.0
290
0
0
SCALE
5
FCB
102
{ACAD_REACTORS
330
FAB
102
}
330
FAB
100
AcDbScale
70
0
300
6" = 1'-0"
140
6.0
141
12.0
290
0
0
SCALE
5
FCC
102
{ACAD_REACTORS
330
FAB
102
}
330
FAB
100
AcDbScale
70
0
300
1'-0" = 1'-0"
140
12.0
141
12.0
290
0
0
TABLESTYLE
5
FA9
102
{ACAD_XDICTIONARY
360
FF8
102
}
102
{ACAD_REACTORS
330
FA8
102
}
330
FA8
100
AcDbTableStyle
3
Standard
70
0
71
0
40
0.06
41
0.06
280
0
281
0
7
Standard
140
0.18
170
2
62
0
63
7
283
0
274
-2
284
1
64
0
275
-2
285
1
65
0
276
-2
286
1
66
0
277
-2
287
1
67
0
278
-2
288
1
68
0
279
-2
289
1
69
0
7
Standard
140
0.25
170
5
62
0
63
7
283
0
274
-2
284
1
64
0
275
-2
285
1
65
0
276
-2
286
1
66
0
277
-2
287
1
67
0
278
-2
288
1
68
0
279
-2
289
1
69
0
7
Standard
140
0.18
170
5
62
0
63
7
283
0
274
-2
284
1
64
0
275
-2
285
1
65
0
276
-2
286
1
66
0
277
-2
287
1
67
0
278
-2
288
1
68
0
279
-2
289
1
69
0
0
VISUALSTYLE
5
F99
102
{ACAD_XDICTIONARY
360
108A
102
}
102
{ACAD_REACTORS
330
F93
102
}
330
F93
100
AcDbVisualStyle
2

70
4
71
0
72
2
73
0
90
0
40
-0.6
41
-30.0
62
5
63
7
74
1
91
4
64
7
65
257
75
1
175
1
42
1.0
92
0
66
257
43
1.0
76
1
77
6
78
2
67
7
79
5
170
0
171
0
290
0
174
0
93
1
44
0.0
173
0
291
0
45
0.0
1001
ACAD
1000
AcDbSavedByObjectVersion
1070
0
0
VISUALSTYLE
5
F9B
102
{ACAD_XDICTIONARY
360
108E
102
}
102
{ACAD_REACTORS
330
F93
102
}
330
F93
100
AcDbVisualStyle
2

70
6
71
1
72
2
73
2
90
0
40
-0.6
41
-30.0
62
5
63
7
74
2
91
2
64
7
65
257
75
2
175
1
42
179.0
92
0
66
257
43
1.0
76
1
77
6
78
2
67
7
79
3
170
0
171
0
290
0
174
0
93
1
44
0.0
173
0
291
0
45
0.0
1001
ACAD
1000
AcDbSavedByObjectVersion
1070
0
0
VISUALSTYLE
5
F9A
102
{ACAD_XDICTIONARY
360
108C
102
}
102
{ACAD_REACTORS
330
F93
102
}
330
F93
100
AcDbVisualStyle
2

70
5
71
0
72
2
73
0
90
0
40
-0.6
41
-30.0
62
5
63
7
74
1
91
4
64
7
65
257
75
1
175
1
42
1.0
92
0
66
257
43
1.0
76
1
77
6
78
2
67
7
79
5
170
0
171
0
290
0
174
0
93
1
44
0.0
173
0
291
0
45
0.0
1001
ACAD
1000
AcDbSavedByObjectVersion
1070
0
0
VISUALSTYLE
5
F98
102
{ACAD_XDICTIONARY
360
1088
102
}
102
{ACAD_REACTORS
330
F93
102
}
330
F93
100
AcDbVisualStyle
2

70
7
71
1
72
0
73
1
90
0
40
-0.6
41
-30.0
62
5
63
7
74
0
91
4
64
7
65
257
75
1
175
1
42
1.0
92
8
66
7
43
1.0
76
1
77
6
78
2
67
7
79
5
170
0
171
0
290
0
174
0
93
1
44
0.0
173
0
291
1
45
0.0
1001
ACAD
1000
AcDbSavedByObjectVersion
1070
0
0
VISUALSTYLE
5
F9F
102
{ACAD_XDICTIONARY
360
1096
102
}
102
{ACAD_REACTORS
330
F93
102
}
330
F93
100
AcDbVisualStyle
2

70
12
71
2
72
2
73
0
90
0
40
-0.6
41
-30.0
62
5
63
7
74
1
91
4
64
7
65
257
75
1
175
1
42
1.0
92
8
66
7
43
1.0
76
1
77
6
78
2
67
7
79
5
170
0
171
0
290
0
174
0
93
1
44
50.0
173
0
291
1
45
0.0
1001
ACAD
1000
AcDbSavedByObjectVersion
1070
0
0
VISUALSTYLE
5
FA3
102
{ACAD_XDICTIONARY
360
109E
102
}
102
{ACAD_REACTORS
330
F93
102
}
330
F93
100
AcDbVisualStyle
2

70
16
71
2
72
2
73
3
90
0
40
-0.6
41
-30.0
62
5
63
8
74
1
91
4
64
7
65
257
75
1
175
1
42
1.0
92
8
66
8
43
1.0
76
1
77
6
78
2
67
7
79
5
170
0
171
0
290
0
174
0
93
1
44
0.0
173
0
291
1
45
0.0
1001
ACAD
1000
AcDbSavedByObjectVersion
1070
0
0
VISUALSTYLE
5
F9C
102
{ACAD_XDICTIONARY
360
1090
102
}
102
{ACAD_REACTORS
330
F93
102
}
330
F93
100
AcDbVisualStyle
2

70
9
71
3
72
2
73
0
90
0
40
-0.6
41
-30.0
62
5
63
7
74
2
91
2
64
7
65
257
75
1
175
1
42
179.0
92
8
66
7
43
1.0
76
1
77
6
78
2
67
7
79
3
170
0
171
0
290
0
174
0
93
1
44
0.0
173
0
291
0
45
0.0
1001
ACAD
1000
AcDbSavedByObjectVersion
1070
0
0
VISUALSTYLE
5
F9E
102
{ACAD_XDICTIONARY
360
1094
102
}
102
{ACAD_REACTORS
330
F93
102
}
330
F93
100
AcDbVisualStyle
2

70
11
71
2
72
2
73
0
90
0
40
-0.6
41
-30.0
62
5
63
7
74
1
91
4
64
7
65
257
75
1
175
1
42
1.0
92
8
66
7
43
1.0
76
1
77
6
78
2
67
7
79
5
170
0
171
0
290
0
174
0
93
1
44
-50.0
173
0
291
1
45
0.0
1001
ACAD
1000
AcDbSavedByObjectVersion
1070
0
0
VISUALSTYLE
5
FA6
102
{ACAD_XDICTIONARY
360
10A4
102
}
102
{ACAD_REACTORS
330
F93
102
}
330
F93
100
AcDbVisualStyle
2

70
22
71
2
72
2
73
0
90
0
40
-0.6
41
-30.0
62
5
63
7
74
1
91
4
64
7
65
257
75
1
175
1
42
1.0
92
8
66
7
43
1.0
76
1
77
6
78
2
67
7
79
5
170
0
171
0
290
0
174
0
93
1
44
0.0
173
0
291
1
45
0.0
1001
ACAD
1000
AcDbSavedByObjectVersion
1070
0
0
VISUALSTYLE
5
FA2
102
{ACAD_XDICTIONARY
360
109C
102
}
102
{ACAD_REACTORS
330
F93
102
}
330
F93
100
AcDbVisualStyle
2

70
15
71
2
72
2
73
0
90
0
40
-0.6
41
-30.0
62
5
63
7
74
1
91
4
64
7
65
257
75
1
175
1
42
1.0
92
8
66
7
43
1.0
76
1
77
6
78
2
67
7
79
5
170
0
171
0
290
0
174
0
93
1
44
0.0
173
0
291
1
45
0.0
1001
ACAD
1000
AcDbSavedByObjectVersion
1070
0
0
VISUALSTYLE
5
F94
102
{ACAD_XDICTIONARY
360
1080
102
}
102
{ACAD_REACTORS
330
F93
102
}
330
F93
100
AcDbVisualStyle
2

70
0
71
2
72
1
73
1
90
2
40
-0.6
41
30.0
62
5
63
7
74
0
91
4
64
7
65
257
75
1
175
1
42
1.0
92
8
66
7
43
1.0
76
1
77
6
78
2
67
7
79
5
170
0
171
0
290
0
174
0
93
13
44
0.0
173
0
291
1
45
0.0
1001
ACAD
1000
AcDbSavedByObjectVersion
1070
0
0
VISUALSTYLE
5
F95
102
{ACAD_XDICTIONARY
360
1082
102
}
102
{ACAD_REACTORS
330
F93
102
}
330
F93
100
AcDbVisualStyle
2

70
1
71
2
72
1
73
1
90
2
40
-0.6
41
30.0
62
5
63
7
74
1
91
4
64
7
65
257
75
1
175
1
42
1.0
92
0
66
257
43
1.0
76
1
77
6
78
2
67
7
79
5
170
0
171
0
290
0
174
0
93
13
44
0.0
173
0
291
1
45
0.0
1001
ACAD
1000
AcDbSavedByObjectVersion
1070
0
0
VISUALSTYLE
5
F96
102
{ACAD_XDICTIONARY
360
1084
102
}
102
{ACAD_REACTORS
330
F93
102
}
330
F93
100
AcDbVisualStyle
2

70
2
71
2
72
2
73
1
90
2
40
-0.6
41
30.0
62
5
63
7
74
0
91
4
64
7
65
257
75
1
175
1
42
1.0
92
0
66
7
43
1.0
76
1
77
6
78
2
67
7
79
5
170
0
171
0
290
0
174
0
93
13
44
0.0
173
0
291
1
45
0.0
1001
ACAD
1000
AcDbSavedByObjectVersion
1070
0
0
VISUALSTYLE
5
F97
102
{ACAD_XDICTIONARY
360
1086
102
}
102
{ACAD_REACTORS
330
F93
102
}
330
F93
100
AcDbVisualStyle
2

70
3
71
2
72
2
73
1
90
2
40
-0.6
41
30.0
62
5
63
7
74
1
91
4
64
7
65
257
75
1
175
1
42
1.0
92
0
66
257
43
1.0
76
1
77
6
78
2
67
7
79
5
170
0
171
0
290
0
174
0
93
13
44
0.0
173
0
291
1
45
0.0
1001
ACAD
1000
AcDbSavedByObjectVersion
1070
0
0
VISUALSTYLE
5
FA4
102
{ACAD_XDICTIONARY
360
10A0
102
}
102
{ACAD_REACTORS
330
F93
102
}
330
F93
100
AcDbVisualStyle
2

70
20
71
2
72
2
73
0
90
0
40
-0.6
41
-30.0
62
5
63
7
74
1
91
4
64
7
65
257
75
1
175
1
42
1.0
92
10
66
7
43
1.0
76
1
77
6
78
2
67
7
79
5
170
0
171
0
290
0
174
0
93
1
44
0.0
173
0
291
1
45
0.0
1001
ACAD
1000
AcDbSavedByObjectVersion
1070
0
0
VISUALSTYLE
5
FA1
102
{ACAD_XDICTIONARY
360
109A
102
}
102
{ACAD_REACTORS
330
F93
102
}
330
F93
100
AcDbVisualStyle
2

70
14
71
2
72
2
73
0
90
0
40
-0.6
41
-30.0
62
5
63
7
74
1
91
4
64
7
65
257
75
7
175
7
42
1.0
92
8
66
7
43
1.0
76
1
77
6
78
2
67
7
79
5
170
0
171
0
290
0
174
0
93
1
44
0.0
173
0
291
1
45
0.0
1001
ACAD
1000
AcDbSavedByObjectVersion
1070
0
0
VISUALSTYLE
5
FA5
102
{ACAD_XDICTIONARY
360
10A2
102
}
102
{ACAD_REACTORS
330
F93
102
}
330
F93
100
AcDbVisualStyle
2

70
21
71
2
72
2
73
0
90
0
40
-0.6
41
-30.0
62
5
63
7
74
1
91
4
64
7
65
257
75
1
175
1
42
1.0
92
9
66
7
43
1.0
76
1
77
6
78
2
67
7
79
5
170
0
171
0
290
0
174
0
93
1
44
0.0
173
0
291
1
45
0.0
1001
ACAD
1000
AcDbSavedByObjectVersion
1070
0
0
VISUALSTYLE
5
F9D
102
{ACAD_XDICTIONARY
360
1092
102
}
102
{ACAD_REACTORS
330
F93
102
}
330
F93
100
AcDbVisualStyle
2

70
8
71
2
72
2
73
0
90
0
40
-0.6
41
-30.0
62
5
63
7
74
1
91
0
64
7
65
257
75
1
175
1
42
1.0
92
8
66
8
43
1.0
76
1
77
6
78
2
67
7
79
5
170
0
171
0
290
0
174
0
93
13
44
0.0
173
0
291
0
45
0.0
1001
ACAD
1000
AcDbSavedByObjectVersion
1070
0
0
VISUALSTYLE
5
FA0
102
{ACAD_XDICTIONARY
360
1098
102
}
102
{ACAD_REACTORS
330
F93
102
}
330
F93
100
AcDbVisualStyle
2

70
13
71
2
72
2
73
0
90
0
40
-0.6
41
-30.0
62
5
63
7
74
1
91
4
64
7
65
257
75
1
175
1
42
1.0
92
12
66
7
43
1.0
76
1
77
6
78
2
67
7
79
5
170
0
171
0
290
0
174
0
93
1
44
0.0
173
0
291
1
45
0.0
1001
ACAD
1000
AcDbSavedByObjectVersion
1070
0
0
DICTIONARYVAR
5
FF3
102
{ACAD_REACTORS
330
FF0
102
}
330
FF0
100
DictionaryVariables
280
0
1
1:1
0
DICTIONARYVAR
5
FF2
102
{ACAD_REACTORS
330
FF0
102
}
330
FF0
100
DictionaryVariables
280
0
1
STANDARD
0
DICTIONARYVAR
5
FF1
102
{ACAD_REACTORS
330
FF0
102
}
330
FF0
100
DictionaryVariables
280
0
1
STANDARD
0
DICTIONARYVAR
5
FF6
102
{ACAD_REACTORS
330
FF0
102
}
330
FF0
100
DictionaryVariables
280
0
1
1
0
DICTIONARYVAR
5
FF5
102
{ACAD_REACTORS
330
FF0
102
}
330
FF0
100
DictionaryVariables
280
0
1
0
0
DICTIONARYVAR
5
FF4
102
{ACAD_REACTORS
330
FF0
102
}
330
FF0
100
DictionaryVariables
280
0
1
127
0
DICTIONARYVAR
5
1078
102
{ACAD_REACTORS
330
FF0
102
}
330
FF0
100
DictionaryVariables
280
0
1
2
0
DICTIONARY
5
10A9
330
FD1
100
AcDbDictionary
280
1
281
1
3
ACAD_XREC_ROUNDTRIP
360
10AA
0
DICTIONARY
5
10A7
330
FD0
100
AcDbDictionary
280
1
281
1
3
ACAD_XREC_ROUNDTRIP
360
10A8
0
DICTIONARY
5
F84
330
F83
100
AcDbDictionary
280
1
281
1
3
ACAD_XREC_ROUNDTRIP
360
FFF
3
BUMPTILE
360
F86
3
DIFFUSETILE
360
F85
3
OPACITYTILE
360
F89
3
REFLECTIONTILE
360
F88
3
REFRACTIONTILE
360
F8A
3
SPECULARTILE
360
F87
0
DICTIONARY
5
F7C
330
F7B
100
AcDbDictionary
280
1
281
1
3
ACAD_XREC_ROUNDTRIP
360
FFE
3
BUMPTILE
360
F7E
3
DIFFUSETILE
360
F7D
3
OPACITYTILE
360
F81
3
REFLECTIONTILE
360
F80
3
REFRACTIONTILE
360
F82
3
SPECULARTILE
360
F7F
0
DICTIONARY
5
F8C
330
F8B
100
AcDbDictionary
280
1
281
1
3
ACAD_XREC_ROUNDTRIP
360
1000
3
BUMPTILE
360
F8E
3
DIFFUSETILE
360
F8D
3
OPACITYTILE
360
F91
3
REFLECTIONTILE
360
F90
3
REFRACTIONTILE
360
F92
3
SPECULARTILE
360
F8F
0
DICTIONARY
5
FF8
330
FA9
100
AcDbDictionary
280
1
281
1
3
ACAD_ROUNDTRIP_2008_TABLESTYLE_CELLSTYLEMAP
360
1079
3
ACAD_XREC_ROUNDTRIP
360
10A6
0
DICTIONARY
5
108A
330
F99
100
AcDbDictionary
280
1
281
1
3
ACAD_XREC_ROUNDTRIP
360
108B
0
DICTIONARY
5
108E
330
F9B
100
AcDbDictionary
280
1
281
1
3
ACAD_XREC_ROUNDTRIP
360
108F
0
DICTIONARY
5
108C
330
F9A
100
AcDbDictionary
280
1
281
1
3
ACAD_XREC_ROUNDTRIP
360
108D
0
DICTIONARY
5
1088
330
F98
100
AcDbDictionary
280
1
281
1
3
ACAD_XREC_ROUNDTRIP
360
1089
0
DICTIONARY
5
1096
330
F9F
100
AcDbDictionary
280
1
281
1
3
ACAD_XREC_ROUNDTRIP
360
1097
0
DICTIONARY
5
109E
330
FA3
100
AcDbDictionary
280
1
281
1
3
ACAD_XREC_ROUNDTRIP
360
109F
0
DICTIONARY
5
1090
330
F9C
100
AcDbDictionary
280
1
281
1
3
ACAD_XREC_ROUNDTRIP
360
1091
0
DICTIONARY
5
1094
330
F9E
100
AcDbDictionary
280
1
281
1
3
ACAD_XREC_ROUNDTRIP
360
1095
0
DICTIONARY
5
10A4
330
FA6
100
AcDbDictionary
280
1
281
1
3
ACAD_XREC_ROUNDTRIP
360
10A5
0
DICTIONARY
5
109C
330
FA2
100
AcDbDictionary
280
1
281
1
3
ACAD_XREC_ROUNDTRIP
360
109D
0
DICTIONARY
5
1080
330
F94
100
AcDbDictionary
280
1
281
1
3
ACAD_XREC_ROUNDTRIP
360
1081
0
DICTIONARY
5
1082
330
F95
100
AcDbDictionary
280
1
281
1
3
ACAD_XREC_ROUNDTRIP
360
1083
0
DICTIONARY
5
1084
330
F96
100
AcDbDictionary
280
1
281
1
3
ACAD_XREC_ROUNDTRIP
360
1085
0
DICTIONARY
5
1086
330
F97
100
AcDbDictionary
280
1
281
1
3
ACAD_XREC_ROUNDTRIP
360
1087
0
DICTIONARY
5
10A0
330
FA4
100
AcDbDictionary
280
1
281
1
3
ACAD_XREC_ROUNDTRIP
360
10A1
0
DICTIONARY
5
109A
330
FA1
100
AcDbDictionary
280
1
281
1
3
ACAD_XREC_ROUNDTRIP
360
109B
0
DICTIONARY
5
10A2
330
FA5
100
AcDbDictionary
280
1
281
1
3
ACAD_XREC_ROUNDTRIP
360
10A3
0
DICTIONARY
5
1092
330
F9D
100
AcDbDictionary
280
1
281
1
3
ACAD_XREC_ROUNDTRIP
360
1093
0
DICTIONARY
5
1098
330
FA0
100
AcDbDictionary
280
1
281
1
3
ACAD_XREC_ROUNDTRIP
360
1099
0
XRECORD
5
10AA
102
{ACAD_REACTORS
330
10A9
102
}
330
10A9
100
AcDbXrecord
280
1
102
SHADEPLOT
70
0
102
SHADEPLOTRESLEVEL
70
2
102
SHADEPLOTCUSTOMDPI
70
300
0
XRECORD
5
10A8
102
{ACAD_REACTORS
330
10A7
102
}
330
10A7
100
AcDbXrecord
280
1
102
SHADEPLOT
70
0
102
SHADEPLOTRESLEVEL
70
2
102
SHADEPLOTCUSTOMDPI
70
300
0
XRECORD
5
FFF
102
{ACAD_REACTORS
330
F84
102
}
330
F84
100
AcDbXrecord
280
1
102
MATERIAL
148
0.0
149
0.0
149
0.0
93
0
94
127
282
0
72
0
77
0
171
0
175
0
179
0
273
0
0
XRECORD
5
F86
102
{ACAD_REACTORS
330
F84
102
}
330
F84
100
AcDbXrecord
280
1
270
1
271
1
0
XRECORD
5
F85
102
{ACAD_REACTORS
330
F84
102
}
330
F84
100
AcDbXrecord
280
1
270
1
271
1
0
XRECORD
5
F89
102
{ACAD_REACTORS
330
F84
102
}
330
F84
100
AcDbXrecord
280
1
270
1
271
1
0
XRECORD
5
F88
102
{ACAD_REACTORS
330
F84
102
}
330
F84
100
AcDbXrecord
280
1
270
1
271
1
0
XRECORD
5
F8A
102
{ACAD_REACTORS
330
F84
102
}
330
F84
100
AcDbXrecord
280
1
270
1
271
1
0
XRECORD
5
F87
102
{ACAD_REACTORS
330
F84
102
}
330
F84
100
AcDbXrecord
280
1
270
1
271
1
0
XRECORD
5
FFE
102
{ACAD_REACTORS
330
F7C
102
}
330
F7C
100
AcDbXrecord
280
1
102
MATERIAL
148
0.0
149
0.0
149
0.0
93
0
94
127
282
0
72
0
77
0
171
0
175
0
179
0
273
0
0
XRECORD
5
F7E
102
{ACAD_REACTORS
330
F7C
102
}
330
F7C
100
AcDbXrecord
280
1
270
1
271
1
0
XRECORD
5
F7D
102
{ACAD_REACTORS
330
F7C
102
}
330
F7C
100
AcDbXrecord
280
1
270
1
271
1
0
XRECORD
5
F81
102
{ACAD_REACTORS
330
F7C
102
}
330
F7C
100
AcDbXrecord
280
1
270
1
271
1
0
XRECORD
5
F80
102
{ACAD_REACTORS
330
F7C
102
}
330
F7C
100
AcDbXrecord
280
1
270
1
271
1
0
XRECORD
5
F82
102
{ACAD_REACTORS
330
F7C
102
}
330
F7C
100
AcDbXrecord
280
1
270
1
271
1
0
XRECORD
5
F7F
102
{ACAD_REACTORS
330
F7C
102
}
330
F7C
100
AcDbXrecord
280
1
270
1
271
1
0
XRECORD
5
1000
102
{ACAD_REACTORS
330
F8C
102
}
330
F8C
100
AcDbXrecord
280
1
102
MATERIAL
148
0.0
149
0.0
149
0.0
93
0
94
127
282
0
72
0
77
0
171
0
175
0
179
0
273
0
0
XRECORD
5
F8E
102
{ACAD_REACTORS
330
F8C
102
}
330
F8C
100
AcDbXrecord
280
1
270
1
271
1
0
XRECORD
5
F8D
102
{ACAD_REACTORS
330
F8C
102
}
330
F8C
100
AcDbXrecord
280
1
270
1
271
1
0
XRECORD
5
F91
102
{ACAD_REACTORS
330
F8C
102
}
330
F8C
100
AcDbXrecord
280
1
270
1
271
1
0
XRECORD
5
F90
102
{ACAD_REACTORS
330
F8C
102
}
330
F8C
100
AcDbXrecord
280
1
270
1
271
1
0
XRECORD
5
F92
102
{ACAD_REACTORS
330
F8C
102
}
330
F8C
100
AcDbXrecord
280
1
270
1
271
1
0
XRECORD
5
F8F
102
{ACAD_REACTORS
330
F8C
102
}
330
F8C
100
AcDbXrecord
280
1
270
1
271
1
0
CELLSTYLEMAP
5
1079
102
{ACAD_REACTORS
330
FF8
102
}
330
FF8
100
AcDbCellStyleMap
90
3
300
CELLSTYLE
1
TABLEFORMAT_BEGIN
90
5
170
1
91
0
92
32768
62
257
93
1
300
CONTENTFORMAT
1
CONTENTFORMAT_BEGIN
90
0
91
0
92
512
93
0
300

40
0.0
140
1.0
94
5
62
0
340
253
144
0.25
309
CONTENTFORMAT_END
171
1
301
MARGIN
1
CELLMARGIN_BEGIN
40
0.06
40
0.06
40
0.06
40
0.06
40
0.18
40
0.18
309
CELLMARGIN_END
94
6
95
1
302
GRIDFORMAT
1
GRIDFORMAT_BEGIN
90
0
91
1
62
0
92
-2
340
0
93
0
40
0.045
309
GRIDFORMAT_END
95
2
302
GRIDFORMAT
1
GRIDFORMAT_BEGIN
90
0
91
1
62
0
92
-2
340
0
93
0
40
0.045
309
GRIDFORMAT_END
95
4
302
GRIDFORMAT
1
GRIDFORMAT_BEGIN
90
0
91
1
62
0
92
-2
340
0
93
0
40
0.045
309
GRIDFORMAT_END
95
8
302
GRIDFORMAT
1
GRIDFORMAT_BEGIN
90
0
91
1
62
0
92
-2
340
0
93
0
40
0.045
309
GRIDFORMAT_END
95
16
302
GRIDFORMAT
1
GRIDFORMAT_BEGIN
90
0
91
1
62
0
92
-2
340
0
93
0
40
0.045
309
GRIDFORMAT_END
95
32
302
GRIDFORMAT
1
GRIDFORMAT_BEGIN
90
0
91
1
62
0
92
-2
340
0
93
0
40
0.045
309
GRIDFORMAT_END
309
TABLEFORMAT_END
1
CELLSTYLE_BEGIN
90
1
91
1
300
_TITLE
309
CELLSTYLE_END
300
CELLSTYLE
1
TABLEFORMAT_BEGIN
90
5
170
1
91
0
92
0
62
257
93
1
300
CONTENTFORMAT
1
CONTENTFORMAT_BEGIN
90
0
91
0
92
512
93
0
300

40
0.0
140
1.0
94
5
62
0
340
253
144
0.18
309
CONTENTFORMAT_END
171
1
301
MARGIN
1
CELLMARGIN_BEGIN
40
0.06
40
0.06
40
0.06
40
0.06
40
0.18
40
0.18
309
CELLMARGIN_END
94
6
95
1
302
GRIDFORMAT
1
GRIDFORMAT_BEGIN
90
0
91
1
62
0
92
-2
340
0
93
0
40
0.045
309
GRIDFORMAT_END
95
2
302
GRIDFORMAT
1
GRIDFORMAT_BEGIN
90
0
91
1
62
0
92
-2
340
0
93
0
40
0.045
309
GRIDFORMAT_END
95
4
302
GRIDFORMAT
1
GRIDFORMAT_BEGIN
90
0
91
1
62
0
92
-2
340
0
93
0
40
0.045
309
GRIDFORMAT_END
95
8
302
GRIDFORMAT
1
GRIDFORMAT_BEGIN
90
0
91
1
62
0
92
-2
340
0
93
0
40
0.045
309
GRIDFORMAT_END
95
16
302
GRIDFORMAT
1
GRIDFORMAT_BEGIN
90
0
91
1
62
0
92
-2
340
0
93
0
40
0.045
309
GRIDFORMAT_END
95
32
302
GRIDFORMAT
1
GRIDFORMAT_BEGIN
90
0
91
1
62
0
92
-2
340
0
93
0
40
0.045
309
GRIDFORMAT_END
309
TABLEFORMAT_END
1
CELLSTYLE_BEGIN
90
2
91
1
300
_HEADER
309
CELLSTYLE_END
300
CELLSTYLE
1
TABLEFORMAT_BEGIN
90
5
170
1
91
0
92
0
62
257
93
1
300
CONTENTFORMAT
1
CONTENTFORMAT_BEGIN
90
0
91
0
92
512
93
0
300

40
0.0
140
1.0
94
2
62
0
340
253
144
0.18
309
CONTENTFORMAT_END
171
1
301
MARGIN
1
CELLMARGIN_BEGIN
40
0.06
40
0.06
40
0.06
40
0.06
40
0.18
40
0.18
309
CELLMARGIN_END
94
6
95
1
302
GRIDFORMAT
1
GRIDFORMAT_BEGIN
90
0
91
1
62
0
92
-2
340
0
93
0
40
0.045
309
GRIDFORMAT_END
95
2
302
GRIDFORMAT
1
GRIDFORMAT_BEGIN
90
0
91
1
62
0
92
-2
340
0
93
0
40
0.045
309
GRIDFORMAT_END
95
4
302
GRIDFORMAT
1
GRIDFORMAT_BEGIN
90
0
91
1
62
0
92
-2
340
0
93
0
40
0.045
309
GRIDFORMAT_END
95
8
302
GRIDFORMAT
1
GRIDFORMAT_BEGIN
90
0
91
1
62
0
92
-2
340
0
93
0
40
0.045
309
GRIDFORMAT_END
95
16
302
GRIDFORMAT
1
GRIDFORMAT_BEGIN
90
0
91
1
62
0
92
-2
340
0
93
0
40
0.045
309
GRIDFORMAT_END
95
32
302
GRIDFORMAT
1
GRIDFORMAT_BEGIN
90
0
91
1
62
0
92
-2
340
0
93
0
40
0.045
309
GRIDFORMAT_END
309
TABLEFORMAT_END
1
CELLSTYLE_BEGIN
90
3
91
2
300
_DATA
309
CELLSTYLE_END
0
XRECORD
5
10A6
102
{ACAD_REACTORS
330
FF8
102
}
330
FF8
100
AcDbXrecord
280
1
102
ACAD_ROUNDTRIP_PRE2007_TABLESTYLE
90
512
91
0
1

92
512
93
0
2

94
512
95
0
3

0
XRECORD
5
108B
102
{ACAD_REACTORS
330
108A
102
}
330
108A
100
AcDbXrecord
280
1
102
RTVSPropertyOp0
70
1
102
RTVSPropertyOp1
70
1
102
RTVSPropertyOp2
70
1
102
RTVSPropertyOp3
70
1
102
RTVSPropertyOp4
70
1
102
RTVSPropertyOp5
70
1
102
RTVSPropertyOp6
70
1
102
RTVSPropertyOp7
70
1
102
RTVSPropertyOp8
70
1
102
RTVSPropertyOp9
70
1
102
RTVSPropertyOp10
70
1
102
RTVSPropertyOp11
70
1
102
RTVSPropertyOp12
70
1
102
RTVSPropertyOp13
70
1
102
RTVSPropertyOp14
70
1
102
RTVSPropertyOp15
70
1
102
RTVSPropertyOp16
70
1
102
RTVSPropertyOp17
70
1
102
RTVSPropertyOp18
70
1
102
RTVSPropertyOp19
70
1
102
RTVSPropertyOp20
70
1
102
RTVSPropertyOp21
70
1
102
RTVSPropertyOp22
70
1
102
RTVSPropertyOp23
70
1
102
RTVSPropertyOp24
70
1
102
RTVSPropertyOp25
70
1
102
RTVSPropertyOp26
70
1
102
RTVSPropertyOp27
70
1
0
XRECORD
5
108F
102
{ACAD_REACTORS
330
108E
102
}
330
108E
100
AcDbXrecord
280
1
102
RTVSPropertyOp0
70
1
102
RTVSPropertyOp1
70
1
102
RTVSPropertyOp2
70
1
102
RTVSPropertyOp3
70
1
102
RTVSPropertyOp4
70
1
102
RTVSPropertyOp5
70
1
102
RTVSPropertyOp6
70
1
102
RTVSPropertyOp7
70
1
102
RTVSPropertyOp8
70
1
102
RTVSPropertyOp9
70
1
102
RTVSPropertyOp10
70
1
102
RTVSPropertyOp11
70
1
102
RTVSPropertyOp12
70
1
102
RTVSPropertyOp13
70
1
102
RTVSPropertyOp14
70
1
102
RTVSPropertyOp15
70
1
102
RTVSPropertyOp16
70
1
102
RTVSPropertyOp17
70
1
102
RTVSPropertyOp18
70
1
102
RTVSPropertyOp19
70
1
102
RTVSPropertyOp20
70
1
102
RTVSPropertyOp21
70
1
102
RTVSPropertyOp22
70
1
102
RTVSPropertyOp23
70
1
102
RTVSPropertyOp24
70
1
102
RTVSPropertyOp25
70
1
102
RTVSPropertyOp26
70
1
102
RTVSPropertyOp27
70
1
0
XRECORD
5
108D
102
{ACAD_REACTORS
330
108C
102
}
330
108C
100
AcDbXrecord
280
1
102
RTVSPropertyOp0
70
1
102
RTVSPropertyOp1
70
1
102
RTVSPropertyOp2
70
1
102
RTVSPropertyOp3
70
1
102
RTVSPropertyOp4
70
1
102
RTVSPropertyOp5
70
1
102
RTVSPropertyOp6
70
1
102
RTVSPropertyOp7
70
1
102
RTVSPropertyOp8
70
1
102
RTVSPropertyOp9
70
1
102
RTVSPropertyOp10
70
1
102
RTVSPropertyOp11
70
1
102
RTVSPropertyOp12
70
1
102
RTVSPropertyOp13
70
1
102
RTVSPropertyOp14
70
1
102
RTVSPropertyOp15
70
1
102
RTVSPropertyOp16
70
1
102
RTVSPropertyOp17
70
1
102
RTVSPropertyOp18
70
1
102
RTVSPropertyOp19
70
1
102
RTVSPropertyOp20
70
1
102
RTVSPropertyOp21
70
1
102
RTVSPropertyOp22
70
1
102
RTVSPropertyOp23
70
1
102
RTVSPropertyOp24
70
1
102
RTVSPropertyOp25
70
1
102
RTVSPropertyOp26
70
1
102
RTVSPropertyOp27
70
1
0
XRECORD
5
1089
102
{ACAD_REACTORS
330
1088
102
}
330
1088
100
AcDbXrecord
280
1
102
RTVSPropertyOp0
70
1
102
RTVSPropertyOp1
70
1
102
RTVSPropertyOp2
70
1
102
RTVSPropertyOp3
70
1
102
RTVSPropertyOp4
70
1
102
RTVSPropertyOp5
70
1
102
RTVSPropertyOp6
70
1
102
RTVSPropertyOp7
70
1
102
RTVSPropertyOp8
70
1
102
RTVSPropertyOp9
70
1
102
RTVSPropertyOp10
70
1
102
RTVSPropertyOp11
70
1
102
RTVSPropertyOp12
70
1
102
RTVSPropertyOp13
70
1
102
RTVSPropertyOp14
70
1
102
RTVSPropertyOp15
70
1
102
RTVSPropertyOp16
70
1
102
RTVSPropertyOp17
70
1
102
RTVSPropertyOp18
70
1
102
RTVSPropertyOp19
70
1
102
RTVSPropertyOp20
70
1
102
RTVSPropertyOp21
70
1
102
RTVSPropertyOp22
70
1
102
RTVSPropertyOp23
70
1
102
RTVSPropertyOp24
70
1
102
RTVSPropertyOp25
70
1
102
RTVSPropertyOp26
70
1
102
RTVSPropertyOp27
70
1
0
XRECORD
5
1097
102
{ACAD_REACTORS
330
1096
102
}
330
1096
100
AcDbXrecord
280
1
102
RTVSPropertyOp0
70
1
102
RTVSPropertyOp1
70
1
102
RTVSPropertyOp2
70
1
102
RTVSPropertyOp3
70
1
102
RTVSPropertyOp4
70
1
102
RTVSPropertyOp5
70
1
102
RTVSPropertyOp6
70
1
102
RTVSPropertyOp7
70
1
102
RTVSPropertyOp8
70
1
102
RTVSPropertyOp9
70
1
102
RTVSPropertyOp10
70
1
102
RTVSPropertyOp11
70
1
102
RTVSPropertyOp12
70
1
102
RTVSPropertyOp13
70
1
102
RTVSPropertyOp14
70
1
102
RTVSPropertyOp15
70
1
102
RTVSPropertyOp16
70
1
102
RTVSPropertyOp17
70
1
102
RTVSPropertyOp18
70
1
102
RTVSPropertyOp19
70
1
102
RTVSPropertyOp20
70
1
102
RTVSPropertyOp21
70
1
102
RTVSPropertyOp22
70
1
102
RTVSPropertyOp23
70
1
102
RTVSPropertyOp24
70
1
102
RTVSPropertyOp25
70
1
102
RTVSPropertyOp26
70
1
102
RTVSPropertyOp27
70
1
0
XRECORD
5
109F
102
{ACAD_REACTORS
330
109E
102
}
330
109E
100
AcDbXrecord
280
1
102
RTVSPropertyOp0
70
1
102
RTVSPropertyOp1
70
1
102
RTVSPropertyOp2
70
1
102
RTVSPropertyOp3
70
1
102
RTVSPropertyOp4
70
1
102
RTVSPropertyOp5
70
1
102
RTVSPropertyOp6
70
1
102
RTVSPropertyOp7
70
1
102
RTVSPropertyOp8
70
1
102
RTVSPropertyOp9
70
1
102
RTVSPropertyOp10
70
1
102
RTVSPropertyOp11
70
1
102
RTVSPropertyOp12
70
1
102
RTVSPropertyOp13
70
1
102
RTVSPropertyOp14
70
1
102
RTVSPropertyOp15
70
1
102
RTVSPropertyOp16
70
1
102
RTVSPropertyOp17
70
1
102
RTVSPropertyOp18
70
1
102
RTVSPropertyOp19
70
1
102
RTVSPropertyOp20
70
1
102
RTVSPropertyOp21
70
1
102
RTVSPropertyOp22
70
1
102
RTVSPropertyOp23
70
1
102
RTVSPropertyOp24
70
1
102
RTVSPropertyOp25
70
1
102
RTVSPropertyOp26
70
1
102
RTVSPropertyOp27
70
1
0
XRECORD
5
1091
102
{ACAD_REACTORS
330
1090
102
}
330
1090
100
AcDbXrecord
280
1
102
RTVSPropertyOp0
70
1
102
RTVSPropertyOp1
70
1
102
RTVSPropertyOp2
70
1
102
RTVSPropertyOp3
70
1
102
RTVSPropertyOp4
70
1
102
RTVSPropertyOp5
70
1
102
RTVSPropertyOp6
70
1
102
RTVSPropertyOp7
70
1
102
RTVSPropertyOp8
70
1
102
RTVSPropertyOp9
70
1
102
RTVSPropertyOp10
70
1
102
RTVSPropertyOp11
70
1
102
RTVSPropertyOp12
70
1
102
RTVSPropertyOp13
70
1
102
RTVSPropertyOp14
70
1
102
RTVSPropertyOp15
70
1
102
RTVSPropertyOp16
70
1
102
RTVSPropertyOp17
70
1
102
RTVSPropertyOp18
70
1
102
RTVSPropertyOp19
70
1
102
RTVSPropertyOp20
70
1
102
RTVSPropertyOp21
70
1
102
RTVSPropertyOp22
70
1
102
RTVSPropertyOp23
70
1
102
RTVSPropertyOp24
70
1
102
RTVSPropertyOp25
70
1
102
RTVSPropertyOp26
70
1
102
RTVSPropertyOp27
70
1
0
XRECORD
5
1095
102
{ACAD_REACTORS
330
1094
102
}
330
1094
100
AcDbXrecord
280
1
102
RTVSPropertyOp0
70
1
102
RTVSPropertyOp1
70
1
102
RTVSPropertyOp2
70
1
102
RTVSPropertyOp3
70
1
102
RTVSPropertyOp4
70
1
102
RTVSPropertyOp5
70
1
102
RTVSPropertyOp6
70
1
102
RTVSPropertyOp7
70
1
102
RTVSPropertyOp8
70
1
102
RTVSPropertyOp9
70
1
102
RTVSPropertyOp10
70
1
102
RTVSPropertyOp11
70
1
102
RTVSPropertyOp12
70
1
102
RTVSPropertyOp13
70
1
102
RTVSPropertyOp14
70
1
102
RTVSPropertyOp15
70
1
102
RTVSPropertyOp16
70
1
102
RTVSPropertyOp17
70
1
102
RTVSPropertyOp18
70
1
102
RTVSPropertyOp19
70
1
102
RTVSPropertyOp20
70
1
102
RTVSPropertyOp21
70
1
102
RTVSPropertyOp22
70
1
102
RTVSPropertyOp23
70
1
102
RTVSPropertyOp24
70
1
102
RTVSPropertyOp25
70
1
102
RTVSPropertyOp26
70
1
102
RTVSPropertyOp27
70
1
0
XRECORD
5
10A5
102
{ACAD_REACTORS
330
10A4
102
}
330
10A4
100
AcDbXrecord
280
1
102
RTVSPropertyOp0
70
0
102
RTVSPropertyOp1
70
0
102
RTVSPropertyOp2
70
0
102
RTVSPropertyOp3
70
0
102
RTVSPropertyOp4
70
0
102
RTVSPropertyOp5
70
0
102
RTVSPropertyOp6
70
0
102
RTVSPropertyOp7
70
0
102
RTVSPropertyOp8
70
0
102
RTVSPropertyOp9
70
0
102
RTVSPropertyOp10
70
0
102
RTVSPropertyOp11
70
0
102
RTVSPropertyOp12
70
0
102
RTVSPropertyOp13
70
0
102
RTVSPropertyOp14
70
2
102
RTVSPropertyOp15
70
0
102
RTVSPropertyOp16
70
0
102
RTVSPropertyOp17
70
0
102
RTVSPropertyOp18
70
0
102
RTVSPropertyOp19
70
0
102
RTVSPropertyOp20
70
0
102
RTVSPropertyOp21
70
0
102
RTVSPropertyOp22
70
0
102
RTVSPropertyOp23
70
0
102
RTVSPropertyOp24
70
0
102
RTVSPropertyOp25
70
0
102
RTVSPropertyOp26
70
0
102
RTVSPropertyOp27
70
0
0
XRECORD
5
109D
102
{ACAD_REACTORS
330
109C
102
}
330
109C
100
AcDbXrecord
280
1
102
RTVSPropertyOp0
70
1
102
RTVSPropertyOp1
70
1
102
RTVSPropertyOp2
70
1
102
RTVSPropertyOp3
70
1
102
RTVSPropertyOp4
70
1
102
RTVSPropertyOp5
70
1
102
RTVSPropertyOp6
70
1
102
RTVSPropertyOp7
70
1
102
RTVSPropertyOp8
70
1
102
RTVSPropertyOp9
70
1
102
RTVSPropertyOp10
70
1
102
RTVSPropertyOp11
70
1
102
RTVSPropertyOp12
70
1
102
RTVSPropertyOp13
70
1
102
RTVSPropertyOp14
70
1
102
RTVSPropertyOp15
70
1
102
RTVSPropertyOp16
70
1
102
RTVSPropertyOp17
70
1
102
RTVSPropertyOp18
70
1
102
RTVSPropertyOp19
70
1
102
RTVSPropertyOp20
70
1
102
RTVSPropertyOp21
70
1
102
RTVSPropertyOp22
70
1
102
RTVSPropertyOp23
70
1
102
RTVSPropertyOp24
70
1
102
RTVSPropertyOp25
70
1
102
RTVSPropertyOp26
70
1
102
RTVSPropertyOp27
70
1
0
XRECORD
5
1081
102
{ACAD_REACTORS
330
1080
102
}
330
1080
100
AcDbXrecord
280
1
102
RTVSPropertyOp0
70
1
102
RTVSPropertyOp1
70
1
102
RTVSPropertyOp2
70
1
102
RTVSPropertyOp3
70
1
102
RTVSPropertyOp4
70
1
102
RTVSPropertyOp5
70
1
102
RTVSPropertyOp6
70
1
102
RTVSPropertyOp7
70
1
102
RTVSPropertyOp8
70
1
102
RTVSPropertyOp9
70
1
102
RTVSPropertyOp10
70
1
102
RTVSPropertyOp11
70
1
102
RTVSPropertyOp12
70
1
102
RTVSPropertyOp13
70
1
102
RTVSPropertyOp14
70
1
102
RTVSPropertyOp15
70
1
102
RTVSPropertyOp16
70
1
102
RTVSPropertyOp17
70
1
102
RTVSPropertyOp18
70
1
102
RTVSPropertyOp19
70
1
102
RTVSPropertyOp20
70
1
102
RTVSPropertyOp21
70
1
102
RTVSPropertyOp22
70
1
102
RTVSPropertyOp23
70
1
102
RTVSPropertyOp24
70
1
102
RTVSPropertyOp25
70
1
102
RTVSPropertyOp26
70
1
102
RTVSPropertyOp27
70
1
0
XRECORD
5
1083
102
{ACAD_REACTORS
330
1082
102
}
330
1082
100
AcDbXrecord
280
1
102
RTVSPropertyOp0
70
1
102
RTVSPropertyOp1
70
1
102
RTVSPropertyOp2
70
1
102
RTVSPropertyOp3
70
1
102
RTVSPropertyOp4
70
1
102
RTVSPropertyOp5
70
1
102
RTVSPropertyOp6
70
1
102
RTVSPropertyOp7
70
1
102
RTVSPropertyOp8
70
1
102
RTVSPropertyOp9
70
1
102
RTVSPropertyOp10
70
1
102
RTVSPropertyOp11
70
1
102
RTVSPropertyOp12
70
1
102
RTVSPropertyOp13
70
1
102
RTVSPropertyOp14
70
1
102
RTVSPropertyOp15
70
1
102
RTVSPropertyOp16
70
1
102
RTVSPropertyOp17
70
1
102
RTVSPropertyOp18
70
1
102
RTVSPropertyOp19
70
1
102
RTVSPropertyOp20
70
1
102
RTVSPropertyOp21
70
1
102
RTVSPropertyOp22
70
1
102
RTVSPropertyOp23
70
1
102
RTVSPropertyOp24
70
1
102
RTVSPropertyOp25
70
1
102
RTVSPropertyOp26
70
1
102
RTVSPropertyOp27
70
1
0
XRECORD
5
1085
102
{ACAD_REACTORS
330
1084
102
}
330
1084
100
AcDbXrecord
280
1
102
RTVSPropertyOp0
70
1
102
RTVSPropertyOp1
70
1
102
RTVSPropertyOp2
70
1
102
RTVSPropertyOp3
70
1
102
RTVSPropertyOp4
70
1
102
RTVSPropertyOp5
70
1
102
RTVSPropertyOp6
70
1
102
RTVSPropertyOp7
70
1
102
RTVSPropertyOp8
70
1
102
RTVSPropertyOp9
70
1
102
RTVSPropertyOp10
70
1
102
RTVSPropertyOp11
70
1
102
RTVSPropertyOp12
70
1
102
RTVSPropertyOp13
70
1
102
RTVSPropertyOp14
70
1
102
RTVSPropertyOp15
70
1
102
RTVSPropertyOp16
70
1
102
RTVSPropertyOp17
70
1
102
RTVSPropertyOp18
70
1
102
RTVSPropertyOp19
70
1
102
RTVSPropertyOp20
70
1
102
RTVSPropertyOp21
70
1
102
RTVSPropertyOp22
70
1
102
RTVSPropertyOp23
70
1
102
RTVSPropertyOp24
70
1
102
RTVSPropertyOp25
70
1
102
RTVSPropertyOp26
70
1
102
RTVSPropertyOp27
70
1
0
XRECORD
5
1087
102
{ACAD_REACTORS
330
1086
102
}
330
1086
100
AcDbXrecord
280
1
102
RTVSPropertyOp0
70
1
102
RTVSPropertyOp1
70
1
102
RTVSPropertyOp2
70
1
102
RTVSPropertyOp3
70
1
102
RTVSPropertyOp4
70
1
102
RTVSPropertyOp5
70
1
102
RTVSPropertyOp6
70
1
102
RTVSPropertyOp7
70
1
102
RTVSPropertyOp8
70
1
102
RTVSPropertyOp9
70
1
102
RTVSPropertyOp10
70
1
102
RTVSPropertyOp11
70
1
102
RTVSPropertyOp12
70
1
102
RTVSPropertyOp13
70
1
102
RTVSPropertyOp14
70
1
102
RTVSPropertyOp15
70
1
102
RTVSPropertyOp16
70
1
102
RTVSPropertyOp17
70
1
102
RTVSPropertyOp18
70
1
102
RTVSPropertyOp19
70
1
102
RTVSPropertyOp20
70
1
102
RTVSPropertyOp21
70
1
102
RTVSPropertyOp22
70
1
102
RTVSPropertyOp23
70
1
102
RTVSPropertyOp24
70
1
102
RTVSPropertyOp25
70
1
102
RTVSPropertyOp26
70
1
102
RTVSPropertyOp27
70
1
0
XRECORD
5
10A1
102
{ACAD_REACTORS
330
10A0
102
}
330
10A0
100
AcDbXrecord
280
1
102
RTVSPropertyOp0
70
0
102
RTVSPropertyOp1
70
0
102
RTVSPropertyOp2
70
0
102
RTVSPropertyOp3
70
0
102
RTVSPropertyOp4
70
0
102
RTVSPropertyOp5
70
0
102
RTVSPropertyOp6
70
0
102
RTVSPropertyOp7
70
0
102
RTVSPropertyOp8
70
0
102
RTVSPropertyOp9
70
0
102
RTVSPropertyOp10
70
0
102
RTVSPropertyOp11
70
0
102
RTVSPropertyOp12
70
0
102
RTVSPropertyOp13
70
0
102
RTVSPropertyOp14
70
2
102
RTVSPropertyOp15
70
0
102
RTVSPropertyOp16
70
0
102
RTVSPropertyOp17
70
0
102
RTVSPropertyOp18
70
0
102
RTVSPropertyOp19
70
0
102
RTVSPropertyOp20
70
0
102
RTVSPropertyOp21
70
0
102
RTVSPropertyOp22
70
0
102
RTVSPropertyOp23
70
0
102
RTVSPropertyOp24
70
0
102
RTVSPropertyOp25
70
0
102
RTVSPropertyOp26
70
0
102
RTVSPropertyOp27
70
0
0
XRECORD
5
109B
102
{ACAD_REACTORS
330
109A
102
}
330
109A
100
AcDbXrecord
280
1
102
RTVSPropertyOp0
70
1
102
RTVSPropertyOp1
70
1
102
RTVSPropertyOp2
70
1
102
RTVSPropertyOp3
70
1
102
RTVSPropertyOp4
70
1
102
RTVSPropertyOp5
70
1
102
RTVSPropertyOp6
70
1
102
RTVSPropertyOp7
70
1
102
RTVSPropertyOp8
70
1
102
RTVSPropertyOp9
70
1
102
RTVSPropertyOp10
70
1
102
RTVSPropertyOp11
70
1
102
RTVSPropertyOp12
70
1
102
RTVSPropertyOp13
70
1
102
RTVSPropertyOp14
70
1
102
RTVSPropertyOp15
70
1
102
RTVSPropertyOp16
70
1
102
RTVSPropertyOp17
70
1
102
RTVSPropertyOp18
70
1
102
RTVSPropertyOp19
70
1
102
RTVSPropertyOp20
70
1
102
RTVSPropertyOp21
70
1
102
RTVSPropertyOp22
70
1
102
RTVSPropertyOp23
70
1
102
RTVSPropertyOp24
70
1
102
RTVSPropertyOp25
70
1
102
RTVSPropertyOp26
70
1
102
RTVSPropertyOp27
70
1
0
XRECORD
5
10A3
102
{ACAD_REACTORS
330
10A2
102
}
330
10A2
100
AcDbXrecord
280
1
102
RTVSPropertyOp0
70
0
102
RTVSPropertyOp1
70
0
102
RTVSPropertyOp2
70
0
102
RTVSPropertyOp3
70
0
102
RTVSPropertyOp4
70
0
102
RTVSPropertyOp5
70
0
102
RTVSPropertyOp6
70
0
102
RTVSPropertyOp7
70
0
102
RTVSPropertyOp8
70
0
102
RTVSPropertyOp9
70
0
102
RTVSPropertyOp10
70
0
102
RTVSPropertyOp11
70
0
102
RTVSPropertyOp12
70
0
102
RTVSPropertyOp13
70
0
102
RTVSPropertyOp14
70
2
102
RTVSPropertyOp15
70
0
102
RTVSPropertyOp16
70
0
102
RTVSPropertyOp17
70
0
102
RTVSPropertyOp18
70
0
102
RTVSPropertyOp19
70
0
102
RTVSPropertyOp20
70
0
102
RTVSPropertyOp21
70
0
102
RTVSPropertyOp22
70
0
102
RTVSPropertyOp23
70
0
102
RTVSPropertyOp24
70
0
102
RTVSPropertyOp25
70
0
102
RTVSPropertyOp26
70
0
102
RTVSPropertyOp27
70
0
0
XRECORD
5
1093
102
{ACAD_REACTORS
330
1092
102
}
330
1092
100
AcDbXrecord
280
1
102
RTVSPropertyOp0
70
1
102
RTVSPropertyOp1
70
1
102
RTVSPropertyOp2
70
1
102
RTVSPropertyOp3
70
1
102
RTVSPropertyOp4
70
1
102
RTVSPropertyOp5
70
1
102
RTVSPropertyOp6
70
1
102
RTVSPropertyOp7
70
1
102
RTVSPropertyOp8
70
1
102
RTVSPropertyOp9
70
1
102
RTVSPropertyOp10
70
1
102
RTVSPropertyOp11
70
1
102
RTVSPropertyOp12
70
1
102
RTVSPropertyOp13
70
1
102
RTVSPropertyOp14
70
1
102
RTVSPropertyOp15
70
1
102
RTVSPropertyOp16
70
1
102
RTVSPropertyOp17
70
1
102
RTVSPropertyOp18
70
1
102
RTVSPropertyOp19
70
1
102
RTVSPropertyOp20
70
1
102
RTVSPropertyOp21
70
1
102
RTVSPropertyOp22
70
1
102
RTVSPropertyOp23
70
1
102
RTVSPropertyOp24
70
1
102
RTVSPropertyOp25
70
1
102
RTVSPropertyOp26
70
1
102
RTVSPropertyOp27
70
1
0
XRECORD
5
1099
102
{ACAD_REACTORS
330
1098
102
}
330
1098
100
AcDbXrecord
280
1
102
RTVSPropertyOp0
70
1
102
RTVSPropertyOp1
70
1
102
RTVSPropertyOp2
70
1
102
RTVSPropertyOp3
70
1
102
RTVSPropertyOp4
70
1
102
RTVSPropertyOp5
70
1
102
RTVSPropertyOp6
70
1
102
RTVSPropertyOp7
70
1
102
RTVSPropertyOp8
70
1
102
RTVSPropertyOp9
70
1
102
RTVSPropertyOp10
70
1
102
RTVSPropertyOp11
70
1
102
RTVSPropertyOp12
70
1
102
RTVSPropertyOp13
70
1
102
RTVSPropertyOp14
70
1
102
RTVSPropertyOp15
70
1
102
RTVSPropertyOp16
70
1
102
RTVSPropertyOp17
70
1
102
RTVSPropertyOp18
70
1
102
RTVSPropertyOp19
70
1
102
RTVSPropertyOp20
70
1
102
RTVSPropertyOp21
70
1
102
RTVSPropertyOp22
70
1
102
RTVSPropertyOp23
70
1
102
RTVSPropertyOp24
70
1
102
RTVSPropertyOp25
70
1
102
RTVSPropertyOp26
70
1
102
RTVSPropertyOp27
70
1
0
ENDSEC
0
EOF
