0
SECTION
2
HEADER
9
$ACADVER
1
AC1015
9
$ACADMAINTVER
70
20
9
$DWGCODEPAGE
3
ANSI_1252
9
$INSBASE
10
0.0
20
0.0
30
0.0
9
$EXTMIN
10
-150.000000000000
20
-105.000000000000
30
0.0
9
$EXTMAX
10
150.000000000000
20
105.000000000000
30
0.0
9
$LIMMIN
10
0.0
20
0.0
9
$LIMMAX
10
12.0
20
9.0
9
$ORTHOMODE
70
0
9
$REGENMODE
70
1
9
$FILLMODE
70
1
9
$QTEXTMODE
70
0
9
$MIRRTEXT
70
1
9
$LTSCALE
40
1.0
9
$ATTMODE
70
1
9
$TEXTSIZE
40
0.2
9
$TRACEWID
40
0.05
9
$TEXTSTYLE
7
Standard
9
$CLAYER
8
0
9
$CELTYPE
6
ByLayer
9
$CECOLOR
62
256
9
$CELTSCALE
40
1.0
9
$DISPSILH
70
0
9
$DIMSCALE
40
1.0
9
$DIMASZ
40
2.5
9
$DIMEXO
40
0.625
9
$DIMDLI
40
0.38
9
$DIMRND
40
0.0
9
$DIMDLE
40
0.0
9
$DIMEXE
40
1.25
9
$DIMTP
40
0.0
9
$DIMTM
40
0.000000001
9
$DIMTXT
40
2.5
9
$DIMCEN
40
0.09
9
$DIMTSZ
40
0.0
9
$DIMTOL
70
1
9
$DIMLIM
70
0
9
$DIMTIH
70
0
9
$DIMTOH
70
0
9
$DIMSE1
70
0
9
$DIMSE2
70
0
9
$DIMTAD
70
1
9
$DIMZIN
70
0
9
$DIMBLK
1
VDDIM_DEFAULT
9
$DIMASO
70
1
9
$DIMSHO
70
1
9
$DIMPOST
1

9
$DIMAPOST
1

9
$DIMALT
70
0
9
$DIMALTD
70
2
9
$DIMALTF
40
25.4
9
$DIMLFAC
40
1.00000000000000
9
$DIMTOFL
70
0
9
$DIMTVP
40
0.0
9
$DIMTIX
70
0
9
$DIMSOXD
70
0
9
$DIMSAH
70
0
9
$DIMBLK1
1

9
$DIMBLK2
1

9
$DIMSTYLE
2
BEM-ISBE
9
$DIMCLRD
70
0
9
$DIMCLRE
70
0
9
$DIMCLRT
70
0
9
$DIMTFAC
40
0.5
9
$DIMGAP
40
0.625
9
$DIMJUST
70
0
9
$DIMSD1
70
0
9
$DIMSD2
70
0
9
$DIMTOLJ
70
1
9
$DIMTZIN
70
0
9
$DIMALTZ
70
0
9
$DIMALTTZ
70
0
9
$DIMUPT
70
0
9
$DIMDEC
70
3
9
$DIMTDEC
70
3
9
$DIMALTU
70
2
9
$DIMALTTD
70
2
9
$DIMTXSTY
7
Standard
9
$DIMAUNIT
70
0
9
$DIMADEC
70
3
9
$DIMALTRND
40
0.0
9
$DIMAZIN
70
0
9
$DIMDSEP
70
46
9
$DIMATFIT
70
3
9
$DIMFRAC
70
0
9
$DIMLDRBLK
1

9
$DIMLUNIT
70
2
9
$DIMLWD
70
-2
9
$DIMLWE
70
-2
9
$DIMTMOVE
70
0
9
$LUNITS
70
2
9
$LUPREC
70
4
9
$SKETCHINC
40
0.1
9
$FILLETRAD
40
0.5
9
$AUNITS
70
0
9
$AUPREC
70
0
9
$MENU
1
.
9
$ELEVATION
40
0.0
9
$PELEVATION
40
0.0
9
$THICKNESS
40
0.0
9
$LIMCHECK
70
0
9
$CHAMFERA
40
0.5
9
$CHAMFERB
40
0.5
9
$CHAMFERC
40
1.0
9
$CHAMFERD
40
0.0
9
$SKPOLY
70
0
9
$TDCREATE
40
0.0
9
$TDUCREATE
40
0.0
9
$TDUPDATE
40
0.0
9
$TDUUPDATE
40
0.0
9
$TDINDWG
40
0.0
9
$TDUSRTIMER
40
0.0
9
$USRTIMER
70
1
9
$ANGBASE
50
0.0
9
$ANGDIR
70
0
9
$PDMODE
70
0
9
$PDSIZE
40
0.0
9
$PLINEWID
40
0.0
9
$SPLFRAME
70
0
9
$SPLINETYPE
70
6
9
$SPLINESEGS
70
8
9
$HANDSEED
5
10AB
9
$SURFTAB1
70
6
9
$SURFTAB2
70
6
9
$SURFTYPE
70
6
9
$SURFU
70
6
9
$SURFV
70
6
9
$UCSBASE
2

9
$UCSNAME
2

9
$UCSORG
10
0.0
20
0.0
30
0.0
9
$UCSXDIR
10
1.0
20
0.0
30
0.0
9
$UCSYDIR
10
0.0
20
1.0
30
0.0
9
$UCSORTHOREF
2

9
$UCSORTHOVIEW
70
0
9
$UCSORGTOP
10
0.0
20
0.0
30
0.0
9
$UCSORGBOTTOM
10
0.0
20
0.0
30
0.0
9
$UCSORGLEFT
10
0.0
20
0.0
30
0.0
9
$UCSORGRIGHT
10
0.0
20
0.0
30
0.0
9
$UCSORGFRONT
10
0.0
20
0.0
30
0.0
9
$UCSORGBACK
10
0.0
20
0.0
30
0.0
9
$PUCSBASE
2

9
$PUCSNAME
2

9
$PUCSORG
10
0.0
20
0.0
30
0.0
9
$PUCSXDIR
10
1.0
20
0.0
30
0.0
9
$PUCSYDIR
10
0.0
20
1.0
30
0.0
9
$PUCSORTHOREF
2

9
$PUCSORTHOVIEW
70
0
9
$PUCSORGTOP
10
0.0
20
0.0
30
0.0
9
$PUCSORGBOTTOM
10
0.0
20
0.0
30
0.0
9
$PUCSORGLEFT
10
0.0
20
0.0
30
0.0
9
$PUCSORGRIGHT
10
0.0
20
0.0
30
0.0
9
$PUCSORGFRONT
10
0.0
20
0.0
30
0.0
9
$PUCSORGBACK
10
0.0
20
0.0
30
0.0
9
$USERI1
70
0
9
$USERI2
70
0
9
$USERI3
70
0
9
$USERI4
70
0
9
$USERI5
70
0
9
$USERR1
40
0.0
9
$USERR2
40
0.0
9
$USERR3
40
0.0
9
$USERR4
40
0.0
9
$USERR5
40
0.0
9
$WORLDVIEW
70
1
9
$SHADEDGE
70
3
9
$SHADEDIF
70
70
9
$TILEMODE
70
1
9
$MAXACTVP
70
64
9
$PINSBASE
10
0.0
20
0.0
30
0.0
9
$PLIMCHECK
70
0
9
$PEXTMIN
10
1.000000000000000E+20
20
1.000000000000000E+20
30
1.000000000000000E+20
9
$PEXTMAX
10
-1.000000000000000E+20
20
-1.000000000000000E+20
30
-1.000000000000000E+20
9
$PLIMMIN
10
0.0
20
0.0
9
$PLIMMAX
10
12.0
20
9.0
9
$UNITMODE
70
0
9
$VISRETAIN
70
1
9
$PLINEGEN
70
0
9
$PSLTSCALE
70
1
9
$TREEDEPTH
70
3020
9
$CMLSTYLE
2
Standard
9
$CMLJUST
70
0
9
$CMLSCALE
40
1.0
9
$PROXYGRAPHICS
70
1
9
$MEASUREMENT
70
0
9
$CELWEIGHT
370
-1
9
$ENDCAPS
280
0
9
$JOINSTYLE
280
0
9
$LWDISPLAY
290
0
9
$INSUNITS
70
4
9
$HYPERLINKBASE
1

9
$STYLESHEET
1

9
$XEDIT
290
1
9
$CEPSNTYPE
380
0
9
$PSTYLEMODE
290
0
9
$FINGERPRINTGUID
2
{FAEB1C30-E019-11D5-929B-00C0DF256EC4}
9
$VERSIONGUID
2
{04C5C4E4-4947-4D90-8812-D401569E61F7}
9
$EXTNAMES
290
1
9
$PSVPSCALE
40
0.0
9
$OLESTARTUP
290
0
0
ENDSEC
0
SECTION
2
CLASSES
0
CLASS
1
ACDBDICTIONARYWDFLT
2
AcDbDictionaryWithDefault
3
ObjectDBX Classes
90
0
280
0
281
0
0
CLASS
1
ACDBPLACEHOLDER
2
AcDbPlaceHolder
3
ObjectDBX Classes
90
0
280
0
281
0
0
CLASS
1
LAYOUT
2
AcDbLayout
3
ObjectDBX Classes
90
0
280
0
281
0
0
CLASS
1
MATERIAL
2
AcDbMaterial
3
ObjectDBX Classes
90
1153
280
0
281
0
0
CLASS
1
VISUALSTYLE
2
AcDbVisualStyle
3
ObjectDBX Classes
90
4095
280
0
281
0
0
CLASS
1
TABLESTYLE
2
AcDbTableStyle
3
ObjectDBX Classes
90
4095
280
0
281
0
0
CLASS
1
SCALE
2
AcDbScale
3
ObjectDBX Classes
90
1153
280
0
281
0
0
CLASS
1
MLEADERSTYLE
2
AcDbMLeaderStyle
3
ACDB_MLEADERSTYLE_CLASS
90
4095
280
0
281
0
0
CLASS
1
DICTIONARYVAR
2
AcDbDictionaryVar
3
ObjectDBX Classes
90
0
280
0
281
0
0
CLASS
1
CELLSTYLEMAP
2
AcDbCellStyleMap
3
ObjectDBX Classes
90
1152
280
0
281
0
0
ENDSEC
0
SECTION
2
TABLES
0
TABLE
2
VPORT
5
24A
330
0
100
AcDbSymbolTable
70
1
0
VPORT
5
26B
330
24A
100
AcDbSymbolTableRecord
100
AcDbViewportTableRecord
2
*Active
70
0
10
0.0
20
0.0
11
1.0
21
1.0
12
0.00000000000000
22
0.00000000000000
13
0.0
23
0.0
14
10.0
24
10.0
15
10.0
25
10.0
16
0.0
26
0.0
36
1.0
17
0.0
27
0.0
37
0.0
40
210.000000000000
41
1.42857142857143
42
1.0
43
0.0
44
0.0
50
0.0
51
0.0000000000007958
71
0
72
100
73
1
74
3
75
0
76
0
77
0
78
1
281
0
65
1
110
0.0
120
0.0
130
0.0
111
1.0
121
0.0
131
0.0
112
0.0
122
1.0
132
0.0
79
0
146
0.0
0
ENDTAB
0
TABLE
2
LTYPE
5
247
330
0
100
AcDbSymbolTable
70
25
0
LTYPE
5
256
330
247
100
AcDbSymbolTableRecord
100
AcDbLinetypeTableRecord
2
ByBlock
70
0
3

72
65
73
0
40
0.0
0
LTYPE
5
257
330
247
100
AcDbSymbolTableRecord
100
AcDbLinetypeTableRecord
2
ByLayer
70
0
3

72
65
73
0
40
0.0
0
LTYPE
5
258
330
247
100
AcDbSymbolTableRecord
100
AcDbLinetypeTableRecord
2
Continuous
70
0
3
Solid line
72
65
73
0
40
0.0
0
LTYPE
5
273
330
247
100
AcDbSymbolTableRecord
100
AcDbLinetypeTableRecord
2
CENTER
70
0
3
Center ____ _ ____ _ ____ _ ____ _ ____ _ ____
72
65
73
4
40
2.0
49
1.25
74
0
49
-0.25
74
0
49
0.25
74
0
49
-0.25
74
0
0
LTYPE
5
274
330
247
100
AcDbSymbolTableRecord
100
AcDbLinetypeTableRecord
2
DASHDOT
70
0
3
Dashdot __ . __ . __ . __ . __ . __ . __ . __
72
65
73
4
40
1.0
49
0.5
74
0
49
-0.25
74
0
49
0.0
74
0
49
-0.25
74
0
0
LTYPE
5
275
330
247
100
AcDbSymbolTableRecord
100
AcDbLinetypeTableRecord
2
DASHED
70
0
3
Dashed __ __ __ __ __ __ __ __ __ __ __ __ __ _
72
65
73
2
40
0.75
49
0.5
74
0
49
-0.25
74
0
0
LTYPE
5
276
330
247
100
AcDbSymbolTableRecord
100
AcDbLinetypeTableRecord
2
HIDDEN
70
0
3
Hidden __ __ __ __ __ __ __ __ __ __ __ __ __ __
72
65
73
2
40
0.375
49
0.25
74
0
49
-0.125
74
0
0
LTYPE
5
277
330
247
100
AcDbSymbolTableRecord
100
AcDbLinetypeTableRecord
2
HIDDEN2
70
0
3
Hidden2 _ _ _ _ _ _ _ _ _ _ _ _ _ _ _ _ _
72
65
73
2
40
0.1875
49
0.125
74
0
49
-0.0625
74
0
0
LTYPE
5
278
330
247
100
AcDbSymbolTableRecord
100
AcDbLinetypeTableRecord
2
BORDER
70
0
3
Border __ __ . __ __ . __ __ . __ __ . __ __ .
72
65
73
6
40
1.75
49
0.5
74
0
49
-0.25
74
0
49
0.5
74
0
49
-0.25
74
0
49
0.0
74
0
49
-0.25
74
0
0
LTYPE
5
279
330
247
100
AcDbSymbolTableRecord
100
AcDbLinetypeTableRecord
2
BORDER2
70
0
3
Border2 __.__.__.__.__.__.__.__.__.__.__.
72
65
73
6
40
0.875
49
0.25
74
0
49
-0.125
74
0
49
0.25
74
0
49
-0.125
74
0
49
0.0
74
0
49
-0.125
74
0
0
LTYPE
5
27A
330
247
100
AcDbSymbolTableRecord
100
AcDbLinetypeTableRecord
2
BORDERX2
70
0
3
Borderx2  ____  ____  .  ____  ____  .  ___
72
65
73
6
40
3.5
49
1.0
74
0
49
-0.5
74
0
49
1.0
74
0
49
-0.5
74
0
49
0.0
74
0
49
-0.5
74
0
0
LTYPE
5
27B
330
247
100
AcDbSymbolTableRecord
100
AcDbLinetypeTableRecord
2
CENTER2
70
0
3
Center2  ___ _ ___ _ ___ _ ___ _ ___ _ ___
72
65
73
4
40
1.125
49
0.75
74
0
49
-0.125
74
0
49
0.125
74
0
49
-0.125
74
0
0
LTYPE
5
27C
330
247
100
AcDbSymbolTableRecord
100
AcDbLinetypeTableRecord
2
CENTERX2
70
0
3
Centerx2  ________  __  ________  __  _____
72
65
73
4
40
4.0
49
2.5
74
0
49
-0.5
74
0
49
0.5
74
0
49
-0.5
74
0
0
LTYPE
5
27D
330
247
100
AcDbSymbolTableRecord
100
AcDbLinetypeTableRecord
2
DASHDOT2
70
0
3
Dashdot2  _._._._._._._._._._._._._._._.
72
65
73
4
40
0.5
49
0.25
74
0
49
-0.125
74
0
49
0.0
74
0
49
-0.125
74
0
0
LTYPE
5
27E
330
247
100
AcDbSymbolTableRecord
100
AcDbLinetypeTableRecord
2
DASHDOTX2
70
0
3
Dashdotx2 ____  .  ____  .  ____  .  ___
72
65
73
4
40
2.0
49
1.0
74
0
49
-0.5
74
0
49
0.0
74
0
49
-0.5
74
0
0
LTYPE
5
27F
330
247
100
AcDbSymbolTableRecord
100
AcDbLinetypeTableRecord
2
DASHED2
70
0
3
Dashed2 _ _ _ _ _ _ _ _ _ _ _ _ _ _ _ _ _
72
65
73
2
40
0.375
49
0.25
74
0
49
-0.125
74
0
0
LTYPE
5
280
330
247
100
AcDbSymbolTableRecord
100
AcDbLinetypeTableRecord
2
DASHEDX2
70
0
3
Dashedx2 ____  ____  ____  ____  ____  ___
72
65
73
2
40
1.5
49
1.0
74
0
49
-0.5
74
0
0
LTYPE
5
281
330
247
100
AcDbSymbolTableRecord
100
AcDbLinetypeTableRecord
2
DIVIDE
70
0
3
Divide ____ . . ____ . . ____ . . ____ . . ____
72
65
73
6
40
1.25
49
0.5
74
0
49
-0.25
74
0
49
0.0
74
0
49
-0.25
74
0
49
0.0
74
0
49
-0.25
74
0
0
LTYPE
5
282
330
247
100
AcDbSymbolTableRecord
100
AcDbLinetypeTableRecord
2
DIVIDE2
70
0
3
Divide2 __..__..__..__..__..__..__..__.._
72
65
73
6
40
0.625
49
0.25
74
0
49
-0.125
74
0
49
0.0
74
0
49
-0.125
74
0
49
0.0
74
0
49
-0.125
74
0
0
LTYPE
5
283
330
247
100
AcDbSymbolTableRecord
100
AcDbLinetypeTableRecord
2
DIVIDEX2
70
0
3
Dividex2 ________  .  .  ________  .  .  _
72
65
73
6
40
2.5
49
1.0
74
0
49
-0.5
74
0
49
0.0
74
0
49
-0.5
74
0
49
0.0
74
0
49
-0.5
74
0
0
LTYPE
5
284
330
247
100
AcDbSymbolTableRecord
100
AcDbLinetypeTableRecord
2
DOT
70
0
3
Dot . . . . . . . . . . . . . . . . . . . . . . . .
72
65
73
2
40
0.25
49
0.0
74
0
49
-0.25
74
0
0
LTYPE
5
285
330
247
100
AcDbSymbolTableRecord
100
AcDbLinetypeTableRecord
2
DOT2
70
0
3
Dot2 ........................................
72
65
73
2
40
0.125
49
0.0
74
0
49
-0.125
74
0
0
LTYPE
5
286
330
247
100
AcDbSymbolTableRecord
100
AcDbLinetypeTableRecord
2
DOTX2
70
0
3
Dotx2 .  .  .  .  .  .  .  .  .  .  .  .  .  .
72
65
73
2
40
0.5
49
0.0
74
0
49
-0.5
74
0
0
LTYPE
5
287
330
247
100
AcDbSymbolTableRecord
100
AcDbLinetypeTableRecord
2
HIDDENX2
70
0
3
Hiddenx2 ____ ____ ____ ____ ____ ____ ____
72
65
73
2
40
0.75
49
0.5
74
0
49
-0.25
74
0
0
LTYPE
5
288
330
247
100
AcDbSymbolTableRecord
100
AcDbLinetypeTableRecord
2
PHANTOM
70
0
3
Phantom ______  __  __  ______  __  __  ______
72
65
73
6
40
2.5
49
1.25
74
0
49
-0.25
74
0
49
0.25
74
0
49
-0.25
74
0
49
0.25
74
0
49
-0.25
74
0
0
LTYPE
5
289
330
247
100
AcDbSymbolTableRecord
100
AcDbLinetypeTableRecord
2
PHANTOM2
70
0
3
Phantom2 ___ _ _ ___ _ _ ___ _ _ ___ _ _
72
65
73
6
40
1.25
49
0.625
74
0
49
-0.125
74
0
49
0.125
74
0
49
-0.125
74
0
49
0.125
74
0
49
-0.125
74
0
0
LTYPE
5
28A
330
247
100
AcDbSymbolTableRecord
100
AcDbLinetypeTableRecord
2
PHANTOMX2
70
0
3
Phantomx2 ____________    ____    ____   _
72
65
73
6
40
5.0
49
2.5
74
0
49
-0.5
74
0
49
0.5
74
0
49
-0.5
74
0
49
0.5
74
0
49
-0.5
74
0
0
ENDTAB
0
TABLE
2
LAYER
5
244
330
0
100
AcDbSymbolTable
70
6
0
LAYER
5
252
330
244
100
AcDbSymbolTableRecord
100
AcDbLayerTableRecord
2
0
70
0
62
7
6
Continuous
370
0
390
251
0
LAYER
5
23F
330
244
100
AcDbSymbolTableRecord
100
AcDbLayerTableRecord
2
Bemassung
70
0
 62
   7
6
Continuous
370
0
390
251
0
LAYER
5
240
330
244
100
AcDbSymbolTableRecord
100
AcDbLayerTableRecord
2
Rahmen
70
0
 62
   7
6
Continuous
370
0
390
251
0
LAYER
5
241
330
244
100
AcDbSymbolTableRecord
100
AcDbLayerTableRecord
2
Geo
70
0
 62
   7
6
Continuous
370
0
390
251
0
LAYER
5
33A
330
244
100
AcDbSymbolTableRecord
100
AcDbLayerTableRecord
2
Defpoints
70
0
62
7
6
Continuous
290
0
370
-3
390
251
0
LAYER
5
57E
330
244
100
AcDbSymbolTableRecord
100
AcDbLayerTableRecord
2
Text
70
0
 62
   7
6
Continuous
370
0
390
251
1001
AcAecLayerStandard
1000

1000

0
ENDTAB
0
TABLE
2
STYLE
5
245
330
0
100
AcDbSymbolTable
70
2
0
STYLE
5
253
330
245
100
AcDbSymbolTableRecord
100
AcDbTextStyleTableRecord
2
Standard
70
0
40
0.0
41
1.0
50
0.0
71
0
42
0.2
3
Arial
4

1001
ACAD
1000
Arial
1071
0
0
STYLE
5
132
330
245
100
AcDbSymbolTableRecord
100
AcDbTextStyleTableRecord
2
Beschriftung
70
0
40
0.0
41
1.0
50
0.0
71
0
42
0.2
3
Arial
4

1001
ACAD
1000
Arial
1071
0
1001
AcadAnnotative
1000
AnnotativeData
1070
1
1070
1
0
ENDTAB
0
TABLE
2
VIEW
5
248
330
0
100
AcDbSymbolTable
70
0
0
ENDTAB
0
TABLE
2
UCS
5
249
330
0
100
AcDbSymbolTable
70
0
0
ENDTAB
0
TABLE
2
APPID
5
24B
330
0
100
AcDbSymbolTable
70
13
0
APPID
5
254
330
24B
100
AcDbSymbolTableRecord
100
AcDbRegAppTableRecord
2
ACAD
70
0
0
APPID
5
26C
330
24B
100
AcDbSymbolTableRecord
100
AcDbRegAppTableRecord
2
VD_INVISIBLE_NOT_FOR_READ
70
0
0
APPID
5
26D
330
24B
100
AcDbSymbolTableRecord
100
AcDbRegAppTableRecord
2
VD_TEMPHATCH
70
0
0
APPID
5
26E
330
24B
100
AcDbSymbolTableRecord
100
AcDbRegAppTableRecord
2
VDEXTRAPARAM
70
0
0
APPID
5
26F
330
24B
100
AcDbSymbolTableRecord
100
AcDbRegAppTableRecord
2
PE_URL
70
0
0
APPID
5
270
330
24B
100
AcDbSymbolTableRecord
100
AcDbRegAppTableRecord
2
VD_UNKNOWN
70
0
0
APPID
5
28F
330
24B
100
AcDbSymbolTableRecord
100
AcDbRegAppTableRecord
2
AcadAnnotative
70
0
0
APPID
5
290
330
24B
100
AcDbSymbolTableRecord
100
AcDbRegAppTableRecord
2
ACAD_DSTYLE_DIMJAG
70
0
0
APPID
5
291
330
24B
100
AcDbSymbolTableRecord
100
AcDbRegAppTableRecord
2
ACAD_DSTYLE_DIMTALN
70
0
0
APPID
5
293
330
24B
100
AcDbSymbolTableRecord
100
AcDbRegAppTableRecord
2
ACAD_PSEXT
70
0
0
APPID
5
42A
330
24B
100
AcDbSymbolTableRecord
100
AcDbRegAppTableRecord
2
ACAD_MLEADERVER
70
0
0
APPID
5
532
330
24B
100
AcDbSymbolTableRecord
100
AcDbRegAppTableRecord
2
ACAD_EXEMPT_FROM_CAD_STANDARDS
70
0
0
APPID
5
57F
330
24B
100
AcDbSymbolTableRecord
100
AcDbRegAppTableRecord
2
AcAecLayerStandard
70
0
0
ENDTAB
0
TABLE
2
DIMSTYLE
5
24C
330
0
100
AcDbSymbolTable
70
3
100
AcDbDimStyleTable
71
2
340
27
340
269
0
DIMSTYLE
105
269
330
24C
100
AcDbSymbolTableRecord
100
AcDbDimStyleTableRecord
2
Standard
70
0
172
1
174
1
288
1
340
253
342
23C
0
DIMSTYLE
105
137
330
24C
100
AcDbSymbolTableRecord
100
AcDbDimStyleTableRecord
2
Beschriftung
70
0
41
2.5
42
0.625
44
1.25
73
0
74
0
77
1
140
2.5
147
0.625
172
1
174
1
271
2
288
1
340
253
342
23C
1001
AcadAnnotative
1000
AnnotativeData
1070
1
1070
1
1001
ACAD_DSTYLE_DIMJAG
1070
388
1040
1.5
1001
ACAD_DSTYLE_DIMTALN
1070
392
1070
0
0
DIMSTYLE
105
27
102
{ACAD_REACTORS
102
}
330
24C
100
AcDbSymbolTableRecord
100
AcDbDimStyleTableRecord
2
BEM-ISBE
70
0
41
2.5
42
0.625
44
1.25
48
0.000000001
71
1
73
0
74
0
77
1
140
2.5
144
1.00000000000000
146
0.5
147
0.625
171
 3
172
 1
179
 3
271
 3
272
 3
274
 3
340
253
342
23C
1001
ACAD_DSTYLE_DIMJAG
1070
388
1040
1.5
1001
ACAD_DSTYLE_DIMTALN
1070
392
1070
1
0
ENDTAB
0
TABLE
2
BLOCK_RECORD
5
243
330
0
100
AcDbSymbolTable
70
5
0
BLOCK_RECORD
5
261
330
243
100
AcDbSymbolTableRecord
100
AcDbBlockTableRecord
2
*Model_Space
340
FD0
0
BLOCK_RECORD
5
25D
330
243
100
AcDbSymbolTableRecord
100
AcDbBlockTableRecord
2
*Paper_Space
340
FD1
0
BLOCK_RECORD
5
265
330
243
100
AcDbSymbolTableRecord
100
AcDbBlockTableRecord
2
*Paper_Space0
340
0
0
BLOCK_RECORD
5
23C
330
243
100
AcDbSymbolTableRecord
100
AcDbBlockTableRecord
2
VDDIM_DEFAULT
340
0
102
{BLKREFS
102
}
0
BLOCK_RECORD
5
23E
330
243
100
AcDbSymbolTableRecord
100
AcDbBlockTableRecord
2
VDDIM_NONE
340
0
0
ENDTAB
0
ENDSEC
0
SECTION
2
BLOCKS
0
BLOCK
5
262
330
261
100
AcDbEntity
8
0
100
AcDbBlockBegin
2
*Model_Space
70
0
10
0.0
20
0.0
30
0.0
3
*Model_Space
1

0
ENDBLK
5
263
330
261
100
AcDbEntity
8
0
100
AcDbBlockEnd
0
BLOCK
5
25E
330
25D
100
AcDbEntity
67
1
8
0
100
AcDbBlockBegin
2
*Paper_Space
70
0
10
0.0
20
0.0
30
0.0
3
*Paper_Space
1

0
ENDBLK
5
25F
330
25D
100
AcDbEntity
67
1
8
0
100
AcDbBlockEnd
0
BLOCK
5
266
330
265
100
AcDbEntity
8
0
100
AcDbBlockBegin
2
*Paper_Space0
70
0
10
0.0
20
0.0
30
0.0
3
*Paper_Space0
1

0
VIEWPORT
5
296
102
{ACAD_XDICTIONARY
360
58E
102
}
330
265
100
AcDbEntity
8
0
60
1
100
AcDbViewport
10
0.0
20
0.0
30
0.0
40
10.0
41
10.0
69
0
12
0.0
22
0.0
13
0.0
23
0.0
14
1.0
24
1.0
15
0.0
25
0.0
16
0.0
26
0.0
36
1.0
17
0.0
27
0.0
37
0.0
42
0.0
43
0.0
44
0.0
45
10.0
50
0.0
51
0.0000000000007958
72
100
90
163872
1

281
0
71
0
74
0
110
0.0
120
0.0
130
0.0
111
1.0
121
0.0
131
0.0
112
0.0
122
1.0
132
0.0
79
0
146
0.0
1001
VD_INVISIBLE_NOT_FOR_READ
1000
VD_INVISIBLE_NOT_FOR_READ
0
VIEWPORT
5
297
102
{ACAD_XDICTIONARY
360
590
102
}
330
265
100
AcDbEntity
8
0
60
1
100
AcDbViewport
10
0.0
20
0.0
30
0.0
40
10.0
41
10.0
69
0
12
0.0
22
0.0
13
0.0
23
0.0
14
1.0
24
1.0
15
0.0
25
0.0
16
0.0
26
0.0
36
1.0
17
0.0
27
0.0
37
0.0
42
0.0
43
0.0
44
0.0
45
10.0
50
0.0
51
0.0000000000007958
72
100
90
163872
1

281
0
71
0
74
0
110
0.0
120
0.0
130
0.0
111
1.0
121
0.0
131
0.0
112
0.0
122
1.0
132
0.0
79
0
146
0.0
1001
VD_INVISIBLE_NOT_FOR_READ
1000
VD_INVISIBLE_NOT_FOR_READ
0
ENDBLK
5
267
330
265
100
AcDbEntity
8
0
100
AcDbBlockEnd
0
BLOCK
5
28B
330
23C
100
AcDbEntity
8
0
100
AcDbBlockBegin
2
VDDIM_DEFAULT
70
0
10
0.0
20
0.0
30
0.0
3
VDDIM_DEFAULT
1

0
LWPOLYLINE
5
23D
330
23C
100
AcDbEntity
8
0
6
Continuous
62
0
100
AcDbPolyline
90
4
70
0
43
0.0
10
0.0
20
0.0
10
-1.0
20
-0.1665
10
-1.0
20
0.1665
10
0.0
20
0.0
1001
VDEXTRAPARAM
1071
1
1071
0
1071
0
1040
1.0
1000

1000

1040
0.0
1040
0.0
0
HATCH
5
292
330
23C
100
AcDbEntity
8
0
6
Continuous
62
0
100
AcDbHatch
10
0.0
20
0.0
30
0.0
210
0.0
220
0.0
230
1.0
2
SOLID
70
1
71
0
91
1
92
2
72
0
73
1
93
3
10
0.0
20
0.0
10
-1.0
20
-0.1665
10
-1.0
20
0.1665
97
0
75
0
76
1
98
1
10
0.0
20
0.0
1001
VDEXTRAPARAM
1071
1
1071
0
1071
0
1040
1.0
1000

1000

1040
0.0
1040
0.0
1001
VD_TEMPHATCH
1000
VD_TEMPHATCH
0
ENDBLK
5
28C
330
23C
100
AcDbEntity
8
0
100
AcDbBlockEnd
0
BLOCK
5
28D
330
23E
100
AcDbEntity
8
0
100
AcDbBlockBegin
2
VDDIM_NONE
70
0
10
0.0
20
0.0
30
0.0
3
VDDIM_NONE
1

0
ENDBLK
5
28E
330
23E
100
AcDbEntity
8
0
100
AcDbBlockEnd
0
ENDSEC
0
SECTION
2
ENTITIES
  0
LINE
  5
F10002
330
F10003
100
AcDbEntity
8
Geo
100
AcDbLine
10
-60.3312572266335
20
19.0616240965206
30
0.00000000000000
11
-60.3312572266335
21
19.1116240965206
31
0.00000000000000
  0
ARC
  5
F10004
330
F10005
100
AcDbEntity
8
Geo
100
AcDbCircle
10
-60.2812572266335
20
19.1116240965206
30
0.00000000000000
 40
0.0500000000000007
100
AcDbArc
 50
90.0000000000000
 51
180.000000000000
  0
LINE
  5
F10006
330
F10007
100
AcDbEntity
8
Geo
100
AcDbLine
10
-60.2812572266335
20
19.1616240965206
30
0.00000000000000
11
-60.1312572266335
21
19.1616240965206
31
0.00000000000000
  0
LINE
  5
F10008
330
F10009
100
AcDbEntity
8
Geo
100
AcDbLine
10
-60.1312572266335
20
19.1616240965206
30
0.00000000000000
11
-58.3311537610144
21
19.1616240965206
31
0.00000000000000
  0
LINE
  5
F1000A
330
F1000B
100
AcDbEntity
8
Geo
100
AcDbLine
10
-58.3311537610144
20
19.1616240965206
30
0.00000000000000
11
-51.2402572266335
21
21.0616240965206
31
0.00000000000000
  0
LINE
  5
F1000C
330
F1000D
100
AcDbEntity
8
Geo
100
AcDbLine
10
-51.2402572266335
20
21.0616240965206
30
0.00000000000000
11
-20.9312572266335
21
21.0616240965206
31
0.00000000000000
  0
LINE
  5
F1000E
330
F1000F
100
AcDbEntity
8
Geo
100
AcDbLine
10
-20.9312572266335
20
21.0616240965206
30
0.00000000000000
11
-20.3312572266335
21
20.4616240965206
31
0.00000000000000
  0
LINE
  5
F10010
330
F10011
100
AcDbEntity
8
Geo
100
AcDbLine
10
-60.3304570353396
20
19.1205335759264
30
0.00000000000000
11
-60.3302572266335
21
19.1215082968469
31
0.00000000000000
  0
LINE
  5
F10012
330
F10013
100
AcDbEntity
8
Geo
100
AcDbLine
10
-60.3302572266335
20
19.1215082968469
30
0.00000000000000
11
-60.3292572266335
21
19.1254633526466
31
0.00000000000000
  0
LINE
  5
F10014
330
F10015
100
AcDbEntity
8
Geo
100
AcDbLine
10
-60.3292572266335
20
19.1254633526466
30
0.00000000000000
11
-60.3282572266335
21
19.1284660576138
31
0.00000000000000
  0
LINE
  5
F10016
330
F10017
100
AcDbEntity
8
Geo
100
AcDbLine
10
-60.3282572266335
20
19.1284660576138
30
0.00000000000000
11
-60.3272572266335
21
19.1309751766551
31
0.00000000000000
  0
LINE
  5
F10018
330
F10019
100
AcDbEntity
8
Geo
100
AcDbLine
10
-60.3272572266335
20
19.1309751766551
30
0.00000000000000
11
-60.3262572266335
21
19.1331634846546
31
0.00000000000000
  0
LINE
  5
F1001A
330
F1001B
100
AcDbEntity
8
Geo
100
AcDbLine
10
-60.3262572266335
20
19.1331634846546
30
0.00000000000000
11
-60.3252572266335
21
19.1351073637690
31
0.00000000000000
  0
LINE
  5
F1001C
330
F1001D
100
AcDbEntity
8
Geo
100
AcDbLine
10
-60.3252572266335
20
19.1351073637690
30
0.00000000000000
11
-60.3242572266335
21
19.1368587617464
31
0.00000000000000
  0
LINE
  5
F1001E
330
F1001F
100
AcDbEntity
8
Geo
100
AcDbLine
10
-60.3242572266335
20
19.1368587617464
30
0.00000000000000
11
-60.3232572266335
21
19.1384549866542
31
0.00000000000000
  0
LINE
  5
F10020
330
F10021
100
AcDbEntity
8
Geo
100
AcDbLine
10
-60.3232572266335
20
19.1384549866542
30
0.00000000000000
11
-60.3222572266335
21
19.1399219808027
31
0.00000000000000
  0
LINE
  5
F10022
330
F10023
100
AcDbEntity
8
Geo
100
AcDbLine
10
-60.3222572266335
20
19.1399219808027
30
0.00000000000000
11
-60.3212572266335
21
19.1412786477922
31
0.00000000000000
  0
LINE
  5
F10024
330
F10025
100
AcDbEntity
8
Geo
100
AcDbLine
10
-60.3212572266335
20
19.1412786477922
30
0.00000000000000
11
-60.3202572266335
21
19.1425392656967
31
0.00000000000000
  0
LINE
  5
F10026
330
F10027
100
AcDbEntity
8
Geo
100
AcDbLine
10
-60.3202572266335
20
19.1425392656967
30
0.00000000000000
11
-60.3192572266335
21
19.1437149296480
31
0.00000000000000
  0
LINE
  5
F10028
330
F10029
100
AcDbEntity
8
Geo
100
AcDbLine
10
-60.3192572266335
20
19.1437149296480
30
0.00000000000000
11
-60.3182572266335
21
19.1448144623407
31
0.00000000000000
  0
LINE
  5
F1002A
330
F1002B
100
AcDbEntity
8
Geo
100
AcDbLine
10
-60.3182572266335
20
19.1448144623407
30
0.00000000000000
11
-60.3172572266335
21
19.1458450143990
31
0.00000000000000
  0
LINE
  5
F1002C
330
F1002D
100
AcDbEntity
8
Geo
100
AcDbLine
10
-60.3172572266335
20
19.1458450143990
30
0.00000000000000
11
-60.3162572266335
21
19.1468124747645
31
0.00000000000000
  0
LINE
  5
F1002E
330
F1002F
100
AcDbEntity
8
Geo
100
AcDbLine
10
-60.3162572266335
20
19.1468124747645
30
0.00000000000000
11
-60.3152572266335
21
19.1477217598222
31
0.00000000000000
  0
LINE
  5
F10030
330
F10031
100
AcDbEntity
8
Geo
100
AcDbLine
10
-60.3152572266335
20
19.1477217598222
30
0.00000000000000
11
-60.3142572266335
21
19.1485770223957
31
0.00000000000000
  0
LINE
  5
F10032
330
F10033
100
AcDbEntity
8
Geo
100
AcDbLine
10
-60.3142572266335
20
19.1485770223957
30
0.00000000000000
11
-60.3132572266335
21
19.1493818062022
31
0.00000000000000
  0
LINE
  5
F10034
330
F10035
100
AcDbEntity
8
Geo
100
AcDbLine
10
-60.3132572266335
20
19.1493818062022
30
0.00000000000000
11
-60.3122572266335
21
19.1501391622195
31
0.00000000000000
  0
LINE
  5
F10036
330
F10037
100
AcDbEntity
8
Geo
100
AcDbLine
10
-60.3122572266335
20
19.1501391622195
30
0.00000000000000
11
-60.3112572266335
21
19.1508517378546
31
0.00000000000000
  0
LINE
  5
F10038
330
F10039
100
AcDbEntity
8
Geo
100
AcDbLine
10
-60.3112572266335
20
19.1508517378546
30
0.00000000000000
11
-60.3102572266335
21
19.1515218463001
31
0.00000000000000
  0
LINE
  5
F1003A
330
F1003B
100
AcDbEntity
8
Geo
100
AcDbLine
10
-60.3102572266335
20
19.1515218463001
30
0.00000000000000
11
-60.3092572266335
21
19.1521515212062
31
0.00000000000000
  0
LINE
  5
F1003C
330
F1003D
100
AcDbEntity
8
Geo
100
AcDbLine
10
-60.3092572266335
20
19.1521515212062
30
0.00000000000000
11
-60.3082572266335
21
19.1527425602936
31
0.00000000000000
  0
LINE
  5
F1003E
330
F1003F
100
AcDbEntity
8
Geo
100
AcDbLine
10
-60.3082572266335
20
19.1527425602936
30
0.00000000000000
11
-60.3072572266335
21
19.1532965605221
31
0.00000000000000
  0
LINE
  5
F10040
330
F10041
100
AcDbEntity
8
Geo
100
AcDbLine
10
-60.3072572266335
20
19.1532965605221
30
0.00000000000000
11
-60.3062572266335
21
19.1538149467254
31
0.00000000000000
  0
LINE
  5
F10042
330
F10043
100
AcDbEntity
8
Geo
100
AcDbLine
10
-60.3062572266335
20
19.1538149467254
30
0.00000000000000
11
-60.3052572266335
21
19.1542989951322
31
0.00000000000000
  0
LINE
  5
F10044
330
F10045
100
AcDbEntity
8
Geo
100
AcDbLine
10
-60.3052572266335
20
19.1542989951322
30
0.00000000000000
11
-60.3042572266335
21
19.1547498528435
31
0.00000000000000
  0
LINE
  5
F10046
330
F10047
100
AcDbEntity
8
Geo
100
AcDbLine
10
-60.3042572266335
20
19.1547498528435
30
0.00000000000000
11
-60.3032572266335
21
19.1551685540767
31
0.00000000000000
  0
LINE
  5
F10048
330
F10049
100
AcDbEntity
8
Geo
100
AcDbLine
10
-60.3032572266335
20
19.1551685540767
30
0.00000000000000
11
-60.3022572266335
21
19.1555560338057
31
0.00000000000000
  0
LINE
  5
F1004A
330
F1004B
100
AcDbEntity
8
Geo
100
AcDbLine
10
-60.3022572266335
20
19.1555560338057
30
0.00000000000000
11
-60.3012572266335
21
19.1559131392820
31
0.00000000000000
  0
LINE
  5
F1004C
330
F1004D
100
AcDbEntity
8
Geo
100
AcDbLine
10
-60.3012572266335
20
19.1559131392820
30
0.00000000000000
11
-60.3002572266335
21
19.1562406398199
31
0.00000000000000
  0
LINE
  5
F1004E
330
F1004F
100
AcDbEntity
8
Geo
100
AcDbLine
10
-60.3002572266335
20
19.1562406398199
30
0.00000000000000
11
-60.2992572266335
21
19.1565392351487
31
0.00000000000000
  0
LINE
  5
F10050
330
F10051
100
AcDbEntity
8
Geo
100
AcDbLine
10
-60.2992572266335
20
19.1565392351487
30
0.00000000000000
11
-60.2982572266335
21
19.1568095625730
31
0.00000000000000
  0
LINE
  5
F10052
330
F10053
100
AcDbEntity
8
Geo
100
AcDbLine
10
-60.2982572266335
20
19.1568095625730
30
0.00000000000000
11
-60.2972572266335
21
19.1570522031354
31
0.00000000000000
  0
LINE
  5
F10054
330
F10055
100
AcDbEntity
8
Geo
100
AcDbLine
10
-60.2972572266335
20
19.1570522031354
30
0.00000000000000
11
-60.2962572266335
21
19.1572676869397
31
0.00000000000000
  0
LINE
  5
F10056
330
F10057
100
AcDbEntity
8
Geo
100
AcDbLine
10
-60.2962572266335
20
19.1572676869397
30
0.00000000000000
11
-60.2952572266335
21
19.1574564977608
31
0.00000000000000
  0
LINE
  5
F10058
330
F10059
100
AcDbEntity
8
Geo
100
AcDbLine
10
-60.2952572266335
20
19.1574564977608
30
0.00000000000000
11
-60.2942572266335
21
19.1576190770476
31
0.00000000000000
  0
LINE
  5
F1005A
330
F1005B
100
AcDbEntity
8
Geo
100
AcDbLine
10
-60.2942572266335
20
19.1576190770476
30
0.00000000000000
11
-60.2932572266335
21
19.1577558274047
31
0.00000000000000
  0
LINE
  5
F1005C
330
F1005D
100
AcDbEntity
8
Geo
100
AcDbLine
10
-60.2932572266335
20
19.1577558274047
30
0.00000000000000
11
-60.2922572266335
21
19.1578671156240
31
0.00000000000000
  0
LINE
  5
F1005E
330
F1005F
100
AcDbEntity
8
Geo
100
AcDbLine
10
-60.2922572266335
20
19.1578671156240
30
0.00000000000000
11
-60.2912572266335
21
19.1579532753254
31
0.00000000000000
  0
LINE
  5
F10060
330
F10061
100
AcDbEntity
8
Geo
100
AcDbLine
10
-60.2912572266335
20
19.1579532753254
30
0.00000000000000
11
-60.2902572266335
21
19.1580146092559
31
0.00000000000000
  0
LINE
  5
F10062
330
F10063
100
AcDbEntity
8
Geo
100
AcDbLine
10
-60.2902572266335
20
19.1580146092559
30
0.00000000000000
11
-60.2892572266335
21
19.1580513912886
31
0.00000000000000
  0
LINE
  5
F10064
330
F10065
100
AcDbEntity
8
Geo
100
AcDbLine
10
-60.2892572266335
20
19.1580513912886
30
0.00000000000000
11
-60.2882572266335
21
19.1580638681544
31
0.00000000000000
  0
LINE
  5
F10066
330
F10067
100
AcDbEntity
8
Geo
100
AcDbLine
10
-60.2882572266335
20
19.1580638681544
30
0.00000000000000
11
-60.2872572266335
21
19.1580522609370
31
0.00000000000000
  0
LINE
  5
F10068
330
F10069
100
AcDbEntity
8
Geo
100
AcDbLine
10
-60.2872572266335
20
19.1580522609370
30
0.00000000000000
11
-60.2862572266335
21
19.1580167663537
31
0.00000000000000
  0
LINE
  5
F1006A
330
F1006B
100
AcDbEntity
8
Geo
100
AcDbLine
10
-60.2862572266335
20
19.1580167663537
30
0.00000000000000
11
-60.2852572266335
21
19.1579575578414
31
0.00000000000000
  0
LINE
  5
F1006C
330
F1006D
100
AcDbEntity
8
Geo
100
AcDbLine
10
-60.2852572266335
20
19.1579575578414
30
0.00000000000000
11
-60.2842572266335
21
19.1578747864654
31
0.00000000000000
  0
LINE
  5
F1006E
330
F1006F
100
AcDbEntity
8
Geo
100
AcDbLine
10
-60.2842572266335
20
19.1578747864654
30
0.00000000000000
11
-60.2832572266335
21
19.1577685816633
31
0.00000000000000
  0
LINE
  5
F10070
330
F10071
100
AcDbEntity
8
Geo
100
AcDbLine
10
-60.2832572266335
20
19.1577685816633
30
0.00000000000000
11
-60.2822572266335
21
19.1576390518344
31
0.00000000000000
  0
LINE
  5
F10072
330
F10073
100
AcDbEntity
8
Geo
100
AcDbLine
10
-60.2822572266335
20
19.1576390518344
30
0.00000000000000
11
-60.2812572266335
21
19.1574862847831
31
0.00000000000000
  0
LINE
  5
F10074
330
F10075
100
AcDbEntity
8
Geo
100
AcDbLine
10
-60.2812572266335
20
19.1574862847831
30
0.00000000000000
11
-60.2802572266335
21
19.1573203265197
31
0.00000000000000
  0
LINE
  5
F10076
330
F10077
100
AcDbEntity
8
Geo
100
AcDbLine
10
-60.2802572266335
20
19.1573203265197
30
0.00000000000000
11
-60.2792572266335
21
19.1571511783909
31
0.00000000000000
  0
LINE
  5
F10078
330
F10079
100
AcDbEntity
8
Geo
100
AcDbLine
10
-60.2792572266335
20
19.1571511783909
30
0.00000000000000
11
-60.2782572266335
21
19.1569788460348
31
0.00000000000000
  0
LINE
  5
F1007A
330
F1007B
100
AcDbEntity
8
Geo
100
AcDbLine
10
-60.2782572266335
20
19.1569788460348
30
0.00000000000000
11
-60.2772572266335
21
19.1568033351959
31
0.00000000000000
  0
LINE
  5
F1007C
330
F1007D
100
AcDbEntity
8
Geo
100
AcDbLine
10
-60.2772572266335
20
19.1568033351959
30
0.00000000000000
11
-60.2762572266335
21
19.1566246517245
31
0.00000000000000
  0
LINE
  5
F1007E
330
F1007F
100
AcDbEntity
8
Geo
100
AcDbLine
10
-60.2762572266335
20
19.1566246517245
30
0.00000000000000
11
-60.2752572266335
21
19.1564428015768
31
0.00000000000000
  0
LINE
  5
F10080
330
F10081
100
AcDbEntity
8
Geo
100
AcDbLine
10
-60.2752572266335
20
19.1564428015768
30
0.00000000000000
11
-60.2742572266335
21
19.1562577908143
31
0.00000000000000
  0
LINE
  5
F10082
330
F10083
100
AcDbEntity
8
Geo
100
AcDbLine
10
-60.2742572266335
20
19.1562577908143
30
0.00000000000000
11
-60.2732572266335
21
19.1560696256041
31
0.00000000000000
  0
LINE
  5
F10084
330
F10085
100
AcDbEntity
8
Geo
100
AcDbLine
10
-60.2732572266335
20
19.1560696256041
30
0.00000000000000
11
-60.2722572266335
21
19.1558783122184
31
0.00000000000000
  0
LINE
  5
F10086
330
F10087
100
AcDbEntity
8
Geo
100
AcDbLine
10
-60.2722572266335
20
19.1558783122184
30
0.00000000000000
11
-60.2712572266335
21
19.1556838570342
31
0.00000000000000
  0
LINE
  5
F10088
330
F10089
100
AcDbEntity
8
Geo
100
AcDbLine
10
-60.2712572266335
20
19.1556838570342
30
0.00000000000000
11
-60.2702572266335
21
19.1554862665334
31
0.00000000000000
  0
LINE
  5
F1008A
330
F1008B
100
AcDbEntity
8
Geo
100
AcDbLine
10
-60.2702572266335
20
19.1554862665334
30
0.00000000000000
11
-60.2692572266335
21
19.1552855473022
31
0.00000000000000
  0
LINE
  5
F1008C
330
F1008D
100
AcDbEntity
8
Geo
100
AcDbLine
10
-60.2692572266335
20
19.1552855473022
30
0.00000000000000
11
-60.2682572266335
21
19.1550817060314
31
0.00000000000000
  0
LINE
  5
F1008E
330
F1008F
100
AcDbEntity
8
Geo
100
AcDbLine
10
-60.2682572266335
20
19.1550817060314
30
0.00000000000000
11
-60.2672572266335
21
19.1548747495155
31
0.00000000000000
  0
LINE
  5
F10090
330
F10091
100
AcDbEntity
8
Geo
100
AcDbLine
10
-60.2672572266335
20
19.1548747495155
30
0.00000000000000
11
-60.2662572266335
21
19.1546646846532
31
0.00000000000000
  0
LINE
  5
F10092
330
F10093
100
AcDbEntity
8
Geo
100
AcDbLine
10
-60.2662572266335
20
19.1546646846532
30
0.00000000000000
11
-60.2652572266335
21
19.1544515184466
31
0.00000000000000
  0
LINE
  5
F10094
330
F10095
100
AcDbEntity
8
Geo
100
AcDbLine
10
-60.2652572266335
20
19.1544515184466
30
0.00000000000000
11
-60.2642572266335
21
19.1542352580012
31
0.00000000000000
  0
LINE
  5
F10096
330
F10097
100
AcDbEntity
8
Geo
100
AcDbLine
10
-60.2642572266335
20
19.1542352580012
30
0.00000000000000
11
-60.2632572266335
21
19.1540159105256
31
0.00000000000000
  0
LINE
  5
F10098
330
F10099
100
AcDbEntity
8
Geo
100
AcDbLine
10
-60.2632572266335
20
19.1540159105256
30
0.00000000000000
11
-60.2622572266335
21
19.1537934833315
31
0.00000000000000
  0
LINE
  5
F1009A
330
F1009B
100
AcDbEntity
8
Geo
100
AcDbLine
10
-60.2622572266335
20
19.1537934833315
30
0.00000000000000
11
-60.2612572266335
21
19.1535679838330
31
0.00000000000000
  0
LINE
  5
F1009C
330
F1009D
100
AcDbEntity
8
Geo
100
AcDbLine
10
-60.2612572266335
20
19.1535679838330
30
0.00000000000000
11
-60.2602572266335
21
19.1533394195467
31
0.00000000000000
  0
LINE
  5
F1009E
330
F1009F
100
AcDbEntity
8
Geo
100
AcDbLine
10
-60.2602572266335
20
19.1533394195467
30
0.00000000000000
11
-60.2592572266335
21
19.1531077980915
31
0.00000000000000
  0
LINE
  5
F100A0
330
F100A1
100
AcDbEntity
8
Geo
100
AcDbLine
10
-60.2592572266335
20
19.1531077980915
30
0.00000000000000
11
-60.2582572266335
21
19.1528731271881
31
0.00000000000000
  0
LINE
  5
F100A2
330
F100A3
100
AcDbEntity
8
Geo
100
AcDbLine
10
-60.2582572266335
20
19.1528731271881
30
0.00000000000000
11
-60.2572572266335
21
19.1526354146588
31
0.00000000000000
  0
LINE
  5
F100A4
330
F100A5
100
AcDbEntity
8
Geo
100
AcDbLine
10
-60.2572572266335
20
19.1526354146588
30
0.00000000000000
11
-60.2562572266335
21
19.1523946684273
31
0.00000000000000
  0
LINE
  5
F100A6
330
F100A7
100
AcDbEntity
8
Geo
100
AcDbLine
10
-60.2562572266335
20
19.1523946684273
30
0.00000000000000
11
-60.2552572266335
21
19.1521508965184
31
0.00000000000000
  0
LINE
  5
F100A8
330
F100A9
100
AcDbEntity
8
Geo
100
AcDbLine
10
-60.2552572266335
20
19.1521508965184
30
0.00000000000000
11
-60.2542572266335
21
19.1519041070580
31
0.00000000000000
  0
LINE
  5
F100AA
330
F100AB
100
AcDbEntity
8
Geo
100
AcDbLine
10
-60.2542572266335
20
19.1519041070580
30
0.00000000000000
11
-60.2532572266335
21
19.1516543082722
31
0.00000000000000
  0
LINE
  5
F100AC
330
F100AD
100
AcDbEntity
8
Geo
100
AcDbLine
10
-60.2532572266335
20
19.1516543082722
30
0.00000000000000
11
-60.2522572266335
21
19.1514015084877
31
0.00000000000000
  0
LINE
  5
F100AE
330
F100AF
100
AcDbEntity
8
Geo
100
AcDbLine
10
-60.2522572266335
20
19.1514015084877
30
0.00000000000000
11
-60.2512572266335
21
19.1511457161311
31
0.00000000000000
  0
LINE
  5
F100B0
330
F100B1
100
AcDbEntity
8
Geo
100
AcDbLine
10
-60.2512572266335
20
19.1511457161311
30
0.00000000000000
11
-60.2502572266335
21
19.1508869397288
31
0.00000000000000
  0
LINE
  5
F100B2
330
F100B3
100
AcDbEntity
8
Geo
100
AcDbLine
10
-60.2502572266335
20
19.1508869397288
30
0.00000000000000
11
-60.2492572266335
21
19.1506251879067
31
0.00000000000000
  0
LINE
  5
F100B4
330
F100B5
100
AcDbEntity
8
Geo
100
AcDbLine
10
-60.2492572266335
20
19.1506251879067
30
0.00000000000000
11
-60.2482572266335
21
19.1503604693897
31
0.00000000000000
  0
LINE
  5
F100B6
330
F100B7
100
AcDbEntity
8
Geo
100
AcDbLine
10
-60.2482572266335
20
19.1503604693897
30
0.00000000000000
11
-60.2472572266335
21
19.1500927930019
31
0.00000000000000
  0
LINE
  5
F100B8
330
F100B9
100
AcDbEntity
8
Geo
100
AcDbLine
10
-60.2472572266335
20
19.1500927930019
30
0.00000000000000
11
-60.2462572266335
21
19.1498221676658
31
0.00000000000000
  0
LINE
  5
F100BA
330
F100BB
100
AcDbEntity
8
Geo
100
AcDbLine
10
-60.2462572266335
20
19.1498221676658
30
0.00000000000000
11
-60.2452572266335
21
19.1495486024021
31
0.00000000000000
  0
LINE
  5
F100BC
330
F100BD
100
AcDbEntity
8
Geo
100
AcDbLine
10
-60.2452572266335
20
19.1495486024021
30
0.00000000000000
11
-60.2442572266335
21
19.1492721063296
31
0.00000000000000
  0
LINE
  5
F100BE
330
F100BF
100
AcDbEntity
8
Geo
100
AcDbLine
10
-60.2442572266335
20
19.1492721063296
30
0.00000000000000
11
-60.2432572266335
21
19.1489926886650
31
0.00000000000000
  0
LINE
  5
F100C0
330
F100C1
100
AcDbEntity
8
Geo
100
AcDbLine
10
-60.2432572266335
20
19.1489926886650
30
0.00000000000000
11
-60.2422572266335
21
19.1487103587220
31
0.00000000000000
  0
LINE
  5
F100C2
330
F100C3
100
AcDbEntity
8
Geo
100
AcDbLine
10
-60.2422572266335
20
19.1487103587220
30
0.00000000000000
11
-60.2412572266335
21
19.1484251259117
31
0.00000000000000
  0
LINE
  5
F100C4
330
F100C5
100
AcDbEntity
8
Geo
100
AcDbLine
10
-60.2412572266335
20
19.1484251259117
30
0.00000000000000
11
-60.2402572266335
21
19.1481369997418
31
0.00000000000000
  0
LINE
  5
F100C6
330
F100C7
100
AcDbEntity
8
Geo
100
AcDbLine
10
-60.2402572266335
20
19.1481369997418
30
0.00000000000000
11
-60.2392572266335
21
19.1478459898165
31
0.00000000000000
  0
LINE
  5
F100C8
330
F100C9
100
AcDbEntity
8
Geo
100
AcDbLine
10
-60.2392572266335
20
19.1478459898165
30
0.00000000000000
11
-60.2382572266335
21
19.1475521058360
31
0.00000000000000
  0
LINE
  5
F100CA
330
F100CB
100
AcDbEntity
8
Geo
100
AcDbLine
10
-60.2382572266335
20
19.1475521058360
30
0.00000000000000
11
-60.2372572266335
21
19.1472553575965
31
0.00000000000000
  0
LINE
  5
F100CC
330
F100CD
100
AcDbEntity
8
Geo
100
AcDbLine
10
-60.2372572266335
20
19.1472553575965
30
0.00000000000000
11
-60.2362572266335
21
19.1469557549896
31
0.00000000000000
  0
LINE
  5
F100CE
330
F100CF
100
AcDbEntity
8
Geo
100
AcDbLine
10
-60.2362572266335
20
19.1469557549896
30
0.00000000000000
11
-60.2352572266335
21
19.1466533080019
31
0.00000000000000
  0
LINE
  5
F100D0
330
F100D1
100
AcDbEntity
8
Geo
100
AcDbLine
10
-60.2352572266335
20
19.1466533080019
30
0.00000000000000
11
-60.2342572266335
21
19.1463480267151
31
0.00000000000000
  0
LINE
  5
F100D2
330
F100D3
100
AcDbEntity
8
Geo
100
AcDbLine
10
-60.2342572266335
20
19.1463480267151
30
0.00000000000000
11
-60.2332572266335
21
19.1460399213051
31
0.00000000000000
  0
LINE
  5
F100D4
330
F100D5
100
AcDbEntity
8
Geo
100
AcDbLine
10
-60.2332572266335
20
19.1460399213051
30
0.00000000000000
11
-60.2322572266335
21
19.1457290020422
31
0.00000000000000
  0
LINE
  5
F100D6
330
F100D7
100
AcDbEntity
8
Geo
100
AcDbLine
10
-60.2322572266335
20
19.1457290020422
30
0.00000000000000
11
-60.2312572266335
21
19.1454152792901
31
0.00000000000000
  0
LINE
  5
F100D8
330
F100D9
100
AcDbEntity
8
Geo
100
AcDbLine
10
-60.2312572266335
20
19.1454152792901
30
0.00000000000000
11
-60.2302572266335
21
19.1450987635064
31
0.00000000000000
  0
LINE
  5
F100DA
330
F100DB
100
AcDbEntity
8
Geo
100
AcDbLine
10
-60.2302572266335
20
19.1450987635064
30
0.00000000000000
11
-60.2292572266335
21
19.1447794652415
31
0.00000000000000
  0
LINE
  5
F100DC
330
F100DD
100
AcDbEntity
8
Geo
100
AcDbLine
10
-60.2292572266335
20
19.1447794652415
30
0.00000000000000
11
-60.2282572266335
21
19.1444573951387
31
0.00000000000000
  0
LINE
  5
F100DE
330
F100DF
100
AcDbEntity
8
Geo
100
AcDbLine
10
-60.2282572266335
20
19.1444573951387
30
0.00000000000000
11
-60.2272572266335
21
19.1441325639336
31
0.00000000000000
  0
LINE
  5
F100E0
330
F100E1
100
AcDbEntity
8
Geo
100
AcDbLine
10
-60.2272572266335
20
19.1441325639336
30
0.00000000000000
11
-60.2262572266335
21
19.1438049824539
31
0.00000000000000
  0
LINE
  5
F100E2
330
F100E3
100
AcDbEntity
8
Geo
100
AcDbLine
10
-60.2262572266335
20
19.1438049824539
30
0.00000000000000
11
-60.2252572266335
21
19.1434746616189
31
0.00000000000000
  0
LINE
  5
F100E4
330
F100E5
100
AcDbEntity
8
Geo
100
AcDbLine
10
-60.2252572266335
20
19.1434746616189
30
0.00000000000000
11
-60.2242572266335
21
19.1431416124394
31
0.00000000000000
  0
LINE
  5
F100E6
330
F100E7
100
AcDbEntity
8
Geo
100
AcDbLine
10
-60.2242572266335
20
19.1431416124394
30
0.00000000000000
11
-60.2232572266335
21
19.1428058460168
31
0.00000000000000
  0
LINE
  5
F100E8
330
F100E9
100
AcDbEntity
8
Geo
100
AcDbLine
10
-60.2232572266335
20
19.1428058460168
30
0.00000000000000
11
-60.2222572266335
21
19.1424673735435
31
0.00000000000000
  0
LINE
  5
F100EA
330
F100EB
100
AcDbEntity
8
Geo
100
AcDbLine
10
-60.2222572266335
20
19.1424673735435
30
0.00000000000000
11
-60.2212572266335
21
19.1421262063017
31
0.00000000000000
  0
LINE
  5
F100EC
330
F100ED
100
AcDbEntity
8
Geo
100
AcDbLine
10
-60.2212572266335
20
19.1421262063017
30
0.00000000000000
11
-60.2202572266335
21
19.1417823556638
31
0.00000000000000
  0
LINE
  5
F100EE
330
F100EF
100
AcDbEntity
8
Geo
100
AcDbLine
10
-60.2202572266335
20
19.1417823556638
30
0.00000000000000
11
-60.2192572266335
21
19.1414358330913
31
0.00000000000000
  0
LINE
  5
F100F0
330
F100F1
100
AcDbEntity
8
Geo
100
AcDbLine
10
-60.2192572266335
20
19.1414358330913
30
0.00000000000000
11
-60.2182572266335
21
19.1410866501349
31
0.00000000000000
  0
LINE
  5
F100F2
330
F100F3
100
AcDbEntity
8
Geo
100
AcDbLine
10
-60.2182572266335
20
19.1410866501349
30
0.00000000000000
11
-60.2172572266335
21
19.1407348184342
31
0.00000000000000
  0
LINE
  5
F100F4
330
F100F5
100
AcDbEntity
8
Geo
100
AcDbLine
10
-60.2172572266335
20
19.1407348184342
30
0.00000000000000
11
-60.2162572266335
21
19.1403803497167
31
0.00000000000000
  0
LINE
  5
F100F6
330
F100F7
100
AcDbEntity
8
Geo
100
AcDbLine
10
-60.2162572266335
20
19.1403803497167
30
0.00000000000000
11
-60.2152572266335
21
19.1400232557980
31
0.00000000000000
  0
LINE
  5
F100F8
330
F100F9
100
AcDbEntity
8
Geo
100
AcDbLine
10
-60.2152572266335
20
19.1400232557980
30
0.00000000000000
11
-60.2142572266335
21
19.1396635485813
31
0.00000000000000
  0
LINE
  5
F100FA
330
F100FB
100
AcDbEntity
8
Geo
100
AcDbLine
10
-60.2142572266335
20
19.1396635485813
30
0.00000000000000
11
-60.2132572266335
21
19.1393012400568
31
0.00000000000000
  0
LINE
  5
F100FC
330
F100FD
100
AcDbEntity
8
Geo
100
AcDbLine
10
-60.2132572266335
20
19.1393012400568
30
0.00000000000000
11
-60.2122572266335
21
19.1389363423013
31
0.00000000000000
  0
LINE
  5
F100FE
330
F100FF
100
AcDbEntity
8
Geo
100
AcDbLine
10
-60.2122572266335
20
19.1389363423013
30
0.00000000000000
11
-60.2112572266335
21
19.1385688674781
31
0.00000000000000
  0
LINE
  5
F10100
330
F10101
100
AcDbEntity
8
Geo
100
AcDbLine
10
-60.2112572266335
20
19.1385688674781
30
0.00000000000000
11
-60.2102572266335
21
19.1381988278364
31
0.00000000000000
  0
LINE
  5
F10102
330
F10103
100
AcDbEntity
8
Geo
100
AcDbLine
10
-60.2102572266335
20
19.1381988278364
30
0.00000000000000
11
-60.2092572266335
21
19.1378262357107
31
0.00000000000000
  0
LINE
  5
F10104
330
F10105
100
AcDbEntity
8
Geo
100
AcDbLine
10
-60.2092572266335
20
19.1378262357107
30
0.00000000000000
11
-60.2082572266335
21
19.1374511035207
31
0.00000000000000
  0
LINE
  5
F10106
330
F10107
100
AcDbEntity
8
Geo
100
AcDbLine
10
-60.2082572266335
20
19.1374511035207
30
0.00000000000000
11
-60.2072572266335
21
19.1370734437709
31
0.00000000000000
  0
LINE
  5
F10108
330
F10109
100
AcDbEntity
8
Geo
100
AcDbLine
10
-60.2072572266335
20
19.1370734437709
30
0.00000000000000
11
-60.2062572266335
21
19.1366932690498
31
0.00000000000000
  0
LINE
  5
F1010A
330
F1010B
100
AcDbEntity
8
Geo
100
AcDbLine
10
-60.2062572266335
20
19.1366932690498
30
0.00000000000000
11
-60.2052572266335
21
19.1363105920299
31
0.00000000000000
  0
LINE
  5
F1010C
330
F1010D
100
AcDbEntity
8
Geo
100
AcDbLine
10
-60.2052572266335
20
19.1363105920299
30
0.00000000000000
11
-60.2042572266335
21
19.1359254254671
31
0.00000000000000
  0
LINE
  5
F1010E
330
F1010F
100
AcDbEntity
8
Geo
100
AcDbLine
10
-60.2042572266335
20
19.1359254254671
30
0.00000000000000
11
-60.2032572266335
21
19.1355377822002
31
0.00000000000000
  0
LINE
  5
F10110
330
F10111
100
AcDbEntity
8
Geo
100
AcDbLine
10
-60.2032572266335
20
19.1355377822002
30
0.00000000000000
11
-60.2022572266335
21
19.1351476751506
31
0.00000000000000
  0
LINE
  5
F10112
330
F10113
100
AcDbEntity
8
Geo
100
AcDbLine
10
-60.2022572266335
20
19.1351476751506
30
0.00000000000000
11
-60.2012572266335
21
19.1347551173219
31
0.00000000000000
  0
LINE
  5
F10114
330
F10115
100
AcDbEntity
8
Geo
100
AcDbLine
10
-60.2012572266335
20
19.1347551173219
30
0.00000000000000
11
-60.2002572266335
21
19.1343601217993
31
0.00000000000000
  0
LINE
  5
F10116
330
F10117
100
AcDbEntity
8
Geo
100
AcDbLine
10
-60.2002572266335
20
19.1343601217993
30
0.00000000000000
11
-60.1992572266335
21
19.1339627017492
31
0.00000000000000
  0
LINE
  5
F10118
330
F10119
100
AcDbEntity
8
Geo
100
AcDbLine
10
-60.1992572266335
20
19.1339627017492
30
0.00000000000000
11
-60.1982572266335
21
19.1335628704189
31
0.00000000000000
  0
LINE
  5
F1011A
330
F1011B
100
AcDbEntity
8
Geo
100
AcDbLine
10
-60.1982572266335
20
19.1335628704189
30
0.00000000000000
11
-60.1972572266335
21
19.1331606411362
31
0.00000000000000
  0
LINE
  5
F1011C
330
F1011D
100
AcDbEntity
8
Geo
100
AcDbLine
10
-60.1972572266335
20
19.1331606411362
30
0.00000000000000
11
-60.1962572266335
21
19.1327560273087
31
0.00000000000000
  0
LINE
  5
F1011E
330
F1011F
100
AcDbEntity
8
Geo
100
AcDbLine
10
-60.1962572266335
20
19.1327560273087
30
0.00000000000000
11
-60.1952572266335
21
19.1323490424233
31
0.00000000000000
  0
LINE
  5
F10120
330
F10121
100
AcDbEntity
8
Geo
100
AcDbLine
10
-60.1952572266335
20
19.1323490424233
30
0.00000000000000
11
-60.1942572266335
21
19.1319397000463
31
0.00000000000000
  0
LINE
  5
F10122
330
F10123
100
AcDbEntity
8
Geo
100
AcDbLine
10
-60.1942572266335
20
19.1319397000463
30
0.00000000000000
11
-60.1932572266335
21
19.1315280138224
31
0.00000000000000
  0
LINE
  5
F10124
330
F10125
100
AcDbEntity
8
Geo
100
AcDbLine
10
-60.1932572266335
20
19.1315280138224
30
0.00000000000000
11
-60.1922572266335
21
19.1311139974744
31
0.00000000000000
  0
LINE
  5
F10126
330
F10127
100
AcDbEntity
8
Geo
100
AcDbLine
10
-60.1922572266335
20
19.1311139974744
30
0.00000000000000
11
-60.1912572266335
21
19.1306976648027
31
0.00000000000000
  0
LINE
  5
F10128
330
F10129
100
AcDbEntity
8
Geo
100
AcDbLine
10
-60.1912572266335
20
19.1306976648027
30
0.00000000000000
11
-60.1902572266335
21
19.1302790296852
31
0.00000000000000
  0
LINE
  5
F1012A
330
F1012B
100
AcDbEntity
8
Geo
100
AcDbLine
10
-60.1902572266335
20
19.1302790296852
30
0.00000000000000
11
-60.1892572266335
21
19.1298581060763
31
0.00000000000000
  0
LINE
  5
F1012C
330
F1012D
100
AcDbEntity
8
Geo
100
AcDbLine
10
-60.1892572266335
20
19.1298581060763
30
0.00000000000000
11
-60.1882572266335
21
19.1294349080067
31
0.00000000000000
  0
LINE
  5
F1012E
330
F1012F
100
AcDbEntity
8
Geo
100
AcDbLine
10
-60.1882572266335
20
19.1294349080067
30
0.00000000000000
11
-60.1872572266335
21
19.1290094495830
31
0.00000000000000
  0
LINE
  5
F10130
330
F10131
100
AcDbEntity
8
Geo
100
AcDbLine
10
-60.1872572266335
20
19.1290094495830
30
0.00000000000000
11
-60.1862572266335
21
19.1285817449871
31
0.00000000000000
  0
LINE
  5
F10132
330
F10133
100
AcDbEntity
8
Geo
100
AcDbLine
10
-60.1862572266335
20
19.1285817449871
30
0.00000000000000
11
-60.1852572266335
21
19.1281518084758
31
0.00000000000000
  0
LINE
  5
F10134
330
F10135
100
AcDbEntity
8
Geo
100
AcDbLine
10
-60.1852572266335
20
19.1281518084758
30
0.00000000000000
11
-60.1842572266335
21
19.1277196543802
31
0.00000000000000
  0
LINE
  5
F10136
330
F10137
100
AcDbEntity
8
Geo
100
AcDbLine
10
-60.1842572266335
20
19.1277196543802
30
0.00000000000000
11
-60.1832572266335
21
19.1272852971056
31
0.00000000000000
  0
LINE
  5
F10138
330
F10139
100
AcDbEntity
8
Geo
100
AcDbLine
10
-60.1832572266335
20
19.1272852971056
30
0.00000000000000
11
-60.1822572266335
21
19.1268487511303
31
0.00000000000000
  0
LINE
  5
F1013A
330
F1013B
100
AcDbEntity
8
Geo
100
AcDbLine
10
-60.1822572266335
20
19.1268487511303
30
0.00000000000000
11
-60.1812572266335
21
19.1264100310059
31
0.00000000000000
  0
LINE
  5
F1013C
330
F1013D
100
AcDbEntity
8
Geo
100
AcDbLine
10
-60.1812572266335
20
19.1264100310059
30
0.00000000000000
11
-60.1802572266335
21
19.1259691513563
31
0.00000000000000
  0
LINE
  5
F1013E
330
F1013F
100
AcDbEntity
8
Geo
100
AcDbLine
10
-60.1802572266335
20
19.1259691513563
30
0.00000000000000
11
-60.1792572266335
21
19.1255261268775
31
0.00000000000000
  0
LINE
  5
F10140
330
F10141
100
AcDbEntity
8
Geo
100
AcDbLine
10
-60.1792572266335
20
19.1255261268775
30
0.00000000000000
11
-60.1782572266335
21
19.1250809723370
31
0.00000000000000
  0
LINE
  5
F10142
330
F10143
100
AcDbEntity
8
Geo
100
AcDbLine
10
-60.1782572266335
20
19.1250809723370
30
0.00000000000000
11
-60.1772572266335
21
19.1246337025731
31
0.00000000000000
  0
LINE
  5
F10144
330
F10145
100
AcDbEntity
8
Geo
100
AcDbLine
10
-60.1772572266335
20
19.1246337025731
30
0.00000000000000
11
-60.1762572266335
21
19.1241843324949
31
0.00000000000000
  0
LINE
  5
F10146
330
F10147
100
AcDbEntity
8
Geo
100
AcDbLine
10
-60.1762572266335
20
19.1241843324949
30
0.00000000000000
11
-60.1752572266335
21
19.1237328770813
31
0.00000000000000
  0
LINE
  5
F10148
330
F10149
100
AcDbEntity
8
Geo
100
AcDbLine
10
-60.1752572266335
20
19.1237328770813
30
0.00000000000000
11
-60.1742572266335
21
19.1232793513808
31
0.00000000000000
  0
LINE
  5
F1014A
330
F1014B
100
AcDbEntity
8
Geo
100
AcDbLine
10
-60.1742572266335
20
19.1232793513808
30
0.00000000000000
11
-60.1732572266335
21
19.1228237705108
31
0.00000000000000
  0
LINE
  5
F1014C
330
F1014D
100
AcDbEntity
8
Geo
100
AcDbLine
10
-60.1732572266335
20
19.1228237705108
30
0.00000000000000
11
-60.1722572266335
21
19.1223661496573
31
0.00000000000000
  0
LINE
  5
F1014E
330
F1014F
100
AcDbEntity
8
Geo
100
AcDbLine
10
-60.1722572266335
20
19.1223661496573
30
0.00000000000000
11
-60.1712572266335
21
19.1219065040743
31
0.00000000000000
  0
LINE
  5
F10150
330
F10151
100
AcDbEntity
8
Geo
100
AcDbLine
10
-60.1712572266335
20
19.1219065040743
30
0.00000000000000
11
-60.1702572266335
21
19.1214448490834
31
0.00000000000000
  0
LINE
  5
F10152
330
F10153
100
AcDbEntity
8
Geo
100
AcDbLine
10
-60.1702572266335
20
19.1214448490834
30
0.00000000000000
11
-60.1692572266335
21
19.1209812000729
31
0.00000000000000
  0
LINE
  5
F10154
330
F10155
100
AcDbEntity
8
Geo
100
AcDbLine
10
-60.1692572266335
20
19.1209812000729
30
0.00000000000000
11
-60.1682572266335
21
19.1205155724977
31
0.00000000000000
  0
LINE
  5
F10156
330
F10157
100
AcDbEntity
8
Geo
100
AcDbLine
10
-60.1682572266335
20
19.1205155724977
30
0.00000000000000
11
-60.1672572266335
21
19.1200479818789
31
0.00000000000000
  0
LINE
  5
F10158
330
F10159
100
AcDbEntity
8
Geo
100
AcDbLine
10
-60.1672572266335
20
19.1200479818789
30
0.00000000000000
11
-60.1662572266335
21
19.1195784438026
31
0.00000000000000
  0
LINE
  5
F1015A
330
F1015B
100
AcDbEntity
8
Geo
100
AcDbLine
10
-60.1662572266335
20
19.1195784438026
30
0.00000000000000
11
-60.1652572266335
21
19.1191069739200
31
0.00000000000000
  0
LINE
  5
F1015C
330
F1015D
100
AcDbEntity
8
Geo
100
AcDbLine
10
-60.1652572266335
20
19.1191069739200
30
0.00000000000000
11
-60.1642572266335
21
19.1186335879469
31
0.00000000000000
  0
LINE
  5
F1015E
330
F1015F
100
AcDbEntity
8
Geo
100
AcDbLine
10
-60.1642572266335
20
19.1186335879469
30
0.00000000000000
11
-60.1632572266335
21
19.1181583016627
31
0.00000000000000
  0
LINE
  5
F10160
330
F10161
100
AcDbEntity
8
Geo
100
AcDbLine
10
-60.1632572266335
20
19.1181583016627
30
0.00000000000000
11
-60.1622572266335
21
19.1176811309102
31
0.00000000000000
  0
LINE
  5
F10162
330
F10163
100
AcDbEntity
8
Geo
100
AcDbLine
10
-60.1622572266335
20
19.1176811309102
30
0.00000000000000
11
-60.1612572266335
21
19.1172020915951
31
0.00000000000000
  0
LINE
  5
F10164
330
F10165
100
AcDbEntity
8
Geo
100
AcDbLine
10
-60.1612572266335
20
19.1172020915951
30
0.00000000000000
11
-60.1602572266335
21
19.1167211996854
31
0.00000000000000
  0
LINE
  5
F10166
330
F10167
100
AcDbEntity
8
Geo
100
AcDbLine
10
-60.1602572266335
20
19.1167211996854
30
0.00000000000000
11
-60.1592572266335
21
19.1162384712106
31
0.00000000000000
  0
LINE
  5
F10168
330
F10169
100
AcDbEntity
8
Geo
100
AcDbLine
10
-60.1592572266335
20
19.1162384712106
30
0.00000000000000
11
-60.1582572266335
21
19.1157539222617
31
0.00000000000000
  0
LINE
  5
F1016A
330
F1016B
100
AcDbEntity
8
Geo
100
AcDbLine
10
-60.1582572266335
20
19.1157539222617
30
0.00000000000000
11
-60.1572572266335
21
19.1152675689902
31
0.00000000000000
  0
LINE
  5
F1016C
330
F1016D
100
AcDbEntity
8
Geo
100
AcDbLine
10
-60.1572572266335
20
19.1152675689902
30
0.00000000000000
11
-60.1562572266335
21
19.1147794276081
31
0.00000000000000
  0
LINE
  5
F1016E
330
F1016F
100
AcDbEntity
8
Geo
100
AcDbLine
10
-60.1562572266335
20
19.1147794276081
30
0.00000000000000
11
-60.1552572266335
21
19.1142895143864
31
0.00000000000000
  0
LINE
  5
F10170
330
F10171
100
AcDbEntity
8
Geo
100
AcDbLine
10
-60.1552572266335
20
19.1142895143864
30
0.00000000000000
11
-60.1542572266335
21
19.1137978456557
31
0.00000000000000
  0
LINE
  5
F10172
330
F10173
100
AcDbEntity
8
Geo
100
AcDbLine
10
-60.1542572266335
20
19.1137978456557
30
0.00000000000000
11
-60.1532572266335
21
19.1133044378049
31
0.00000000000000
  0
LINE
  5
F10174
330
F10175
100
AcDbEntity
8
Geo
100
AcDbLine
10
-60.1532572266335
20
19.1133044378049
30
0.00000000000000
11
-60.1522572266335
21
19.1128093072808
31
0.00000000000000
  0
LINE
  5
F10176
330
F10177
100
AcDbEntity
8
Geo
100
AcDbLine
10
-60.1522572266335
20
19.1128093072808
30
0.00000000000000
11
-60.1512572266335
21
19.1123124705878
31
0.00000000000000
  0
LINE
  5
F10178
330
F10179
100
AcDbEntity
8
Geo
100
AcDbLine
10
-60.1512572266335
20
19.1123124705878
30
0.00000000000000
11
-60.1502572266335
21
19.1118139442869
31
0.00000000000000
  0
LINE
  5
F1017A
330
F1017B
100
AcDbEntity
8
Geo
100
AcDbLine
10
-60.1502572266335
20
19.1118139442869
30
0.00000000000000
11
-60.1492572266335
21
19.1113137449959
31
0.00000000000000
  0
LINE
  5
F1017C
330
F1017D
100
AcDbEntity
8
Geo
100
AcDbLine
10
-60.1492572266335
20
19.1113137449959
30
0.00000000000000
11
-60.1482572266335
21
19.1108118893877
31
0.00000000000000
  0
LINE
  5
F1017E
330
F1017F
100
AcDbEntity
8
Geo
100
AcDbLine
10
-60.1482572266335
20
19.1108118893877
30
0.00000000000000
11
-60.1472572266335
21
19.1103083941911
31
0.00000000000000
  0
LINE
  5
F10180
330
F10181
100
AcDbEntity
8
Geo
100
AcDbLine
10
-60.1472572266335
20
19.1103083941911
30
0.00000000000000
11
-60.1462572266335
21
19.1098032761890
31
0.00000000000000
  0
LINE
  5
F10182
330
F10183
100
AcDbEntity
8
Geo
100
AcDbLine
10
-60.1462572266335
20
19.1098032761890
30
0.00000000000000
11
-60.1452572266335
21
19.1092965522188
31
0.00000000000000
  0
LINE
  5
F10184
330
F10185
100
AcDbEntity
8
Geo
100
AcDbLine
10
-60.1452572266335
20
19.1092965522188
30
0.00000000000000
11
-60.1442572266335
21
19.1087882391711
31
0.00000000000000
  0
LINE
  5
F10186
330
F10187
100
AcDbEntity
8
Geo
100
AcDbLine
10
-60.1442572266335
20
19.1087882391711
30
0.00000000000000
11
-60.1432572266335
21
19.1082783539896
31
0.00000000000000
  0
LINE
  5
F10188
330
F10189
100
AcDbEntity
8
Geo
100
AcDbLine
10
-60.1432572266335
20
19.1082783539896
30
0.00000000000000
11
-60.1422572266335
21
19.1077669136706
31
0.00000000000000
  0
LINE
  5
F1018A
330
F1018B
100
AcDbEntity
8
Geo
100
AcDbLine
10
-60.1422572266335
20
19.1077669136706
30
0.00000000000000
11
-60.1412572266335
21
19.1072539352620
31
0.00000000000000
  0
LINE
  5
F1018C
330
F1018D
100
AcDbEntity
8
Geo
100
AcDbLine
10
-60.1412572266335
20
19.1072539352620
30
0.00000000000000
11
-60.1402572266335
21
19.1067394358629
31
0.00000000000000
  0
LINE
  5
F1018E
330
F1018F
100
AcDbEntity
8
Geo
100
AcDbLine
10
-60.1402572266335
20
19.1067394358629
30
0.00000000000000
11
-60.1392572266335
21
19.1062234326234
31
0.00000000000000
  0
LINE
  5
F10190
330
F10191
100
AcDbEntity
8
Geo
100
AcDbLine
10
-60.1392572266335
20
19.1062234326234
30
0.00000000000000
11
-60.1382572266335
21
19.1057059427435
31
0.00000000000000
  0
LINE
  5
F10192
330
F10193
100
AcDbEntity
8
Geo
100
AcDbLine
10
-60.1382572266335
20
19.1057059427435
30
0.00000000000000
11
-60.1372572266335
21
19.1051869834727
31
0.00000000000000
  0
LINE
  5
F10194
330
F10195
100
AcDbEntity
8
Geo
100
AcDbLine
10
-60.1372572266335
20
19.1051869834727
30
0.00000000000000
11
-60.1362572266335
21
19.1046665721098
31
0.00000000000000
  0
LINE
  5
F10196
330
F10197
100
AcDbEntity
8
Geo
100
AcDbLine
10
-60.1362572266335
20
19.1046665721098
30
0.00000000000000
11
-60.1352572266335
21
19.1041447260017
31
0.00000000000000
  0
LINE
  5
F10198
330
F10199
100
AcDbEntity
8
Geo
100
AcDbLine
10
-60.1352572266335
20
19.1041447260017
30
0.00000000000000
11
-60.1342572266335
21
19.1036214625432
31
0.00000000000000
  0
LINE
  5
F1019A
330
F1019B
100
AcDbEntity
8
Geo
100
AcDbLine
10
-60.1342572266335
20
19.1036214625432
30
0.00000000000000
11
-60.1332572266335
21
19.1030967991764
31
0.00000000000000
  0
LINE
  5
F1019C
330
F1019D
100
AcDbEntity
8
Geo
100
AcDbLine
10
-60.1332572266335
20
19.1030967991764
30
0.00000000000000
11
-60.1322572266335
21
19.1025707533900
31
0.00000000000000
  0
LINE
  5
F1019E
330
F1019F
100
AcDbEntity
8
Geo
100
AcDbLine
10
-60.3312572266335
20
19.0129026574923
30
0.00000000000000
11
-60.3312447014380
21
19.0127431866279
31
0.00000000000000
  0
LINE
  5
F101A0
330
F101A1
100
AcDbEntity
8
Geo
100
AcDbLine
10
-60.3312447014380
20
19.0127431866279
30
0.00000000000000
11
-60.3304570353396
21
19.0027146171148
31
0.00000000000000
  0
LINE
  5
F101A2
330
F101A3
100
AcDbEntity
8
Geo
100
AcDbLine
10
-60.3312572266335
20
19.0703065054039
30
0.00000000000000
11
-60.3302572266335
21
19.1026276798257
31
0.00000000000000
  0
LINE
  5
F101A4
330
F101A5
100
AcDbEntity
8
Geo
100
AcDbLine
10
-60.3302572266335
20
19.1026276798257
30
0.00000000000000
11
-60.3292572266335
21
19.1091578788348
31
0.00000000000000
  0
LINE
  5
F101A6
330
F101A7
100
AcDbEntity
8
Geo
100
AcDbLine
10
-60.3292572266335
20
19.1091578788348
30
0.00000000000000
11
-60.3282572266335
21
19.1135876612479
31
0.00000000000000
  0
LINE
  5
F101A8
330
F101A9
100
AcDbEntity
8
Geo
100
AcDbLine
10
-60.3282572266335
20
19.1135876612479
30
0.00000000000000
11
-60.3272572266335
21
19.1170237323566
31
0.00000000000000
  0
LINE
  5
F101AA
330
F101AB
100
AcDbEntity
8
Geo
100
AcDbLine
10
-60.3272572266335
20
19.1170237323566
30
0.00000000000000
11
-60.3262572266335
21
19.1198573527160
31
0.00000000000000
  0
LINE
  5
F101AC
330
F101AD
100
AcDbEntity
8
Geo
100
AcDbLine
10
-60.3262572266335
20
19.1198573527160
30
0.00000000000000
11
-60.3252572266335
21
19.1222776451282
31
0.00000000000000
  0
LINE
  5
F101AE
330
F101AF
100
AcDbEntity
8
Geo
100
AcDbLine
10
-60.3252572266335
20
19.1222776451282
30
0.00000000000000
11
-60.3242572266335
21
19.1243920983353
31
0.00000000000000
  0
LINE
  5
F101B0
330
F101B1
100
AcDbEntity
8
Geo
100
AcDbLine
10
-60.3242572266335
20
19.1243920983353
30
0.00000000000000
11
-60.3232572266335
21
19.1262683175825
31
0.00000000000000
  0
LINE
  5
F101B2
330
F101B3
100
AcDbEntity
8
Geo
100
AcDbLine
10
-60.3232572266335
20
19.1262683175825
30
0.00000000000000
11
-60.3222572266335
21
19.1279519013191
31
0.00000000000000
  0
LINE
  5
F101B4
330
F101B5
100
AcDbEntity
8
Geo
100
AcDbLine
10
-60.3222572266335
20
19.1279519013191
30
0.00000000000000
11
-60.3212572266335
21
19.1294752232852
31
0.00000000000000
  0
LINE
  5
F101B6
330
F101B7
100
AcDbEntity
8
Geo
100
AcDbLine
10
-60.3212572266335
20
19.1294752232852
30
0.00000000000000
11
-60.3202572266335
21
19.1308621890649
31
0.00000000000000
  0
LINE
  5
F101B8
330
F101B9
100
AcDbEntity
8
Geo
100
AcDbLine
10
-60.3202572266335
20
19.1308621890649
30
0.00000000000000
11
-60.3192572266335
21
19.1321310083314
31
0.00000000000000
  0
LINE
  5
F101BA
330
F101BB
100
AcDbEntity
8
Geo
100
AcDbLine
10
-60.3192572266335
20
19.1321310083314
30
0.00000000000000
11
-60.3182572266335
21
19.1332959058686
31
0.00000000000000
  0
LINE
  5
F101BC
330
F101BD
100
AcDbEntity
8
Geo
100
AcDbLine
10
-60.3182572266335
20
19.1332959058686
30
0.00000000000000
11
-60.3172572266335
21
19.1343682274311
31
0.00000000000000
  0
LINE
  5
F101BE
330
F101BF
100
AcDbEntity
8
Geo
100
AcDbLine
10
-60.3172572266335
20
19.1343682274311
30
0.00000000000000
11
-60.3162572266335
21
19.1353571821171
31
0.00000000000000
  0
LINE
  5
F101C0
330
F101C1
100
AcDbEntity
8
Geo
100
AcDbLine
10
-60.3162572266335
20
19.1353571821171
30
0.00000000000000
11
-60.3152572266335
21
19.1362703568286
31
0.00000000000000
  0
LINE
  5
F101C2
330
F101C3
100
AcDbEntity
8
Geo
100
AcDbLine
10
-60.3152572266335
20
19.1362703568286
30
0.00000000000000
11
-60.3142572266335
21
19.1371140825617
31
0.00000000000000
  0
LINE
  5
F101C4
330
F101C5
100
AcDbEntity
8
Geo
100
AcDbLine
10
-60.3142572266335
20
19.1371140825617
30
0.00000000000000
11
-60.3132572266335
21
19.1378937013476
31
0.00000000000000
  0
LINE
  5
F101C6
330
F101C7
100
AcDbEntity
8
Geo
100
AcDbLine
10
-60.3132572266335
20
19.1378937013476
30
0.00000000000000
11
-60.3122572266335
21
19.1386137647726
31
0.00000000000000
  0
LINE
  5
F101C8
330
F101C9
100
AcDbEntity
8
Geo
100
AcDbLine
10
-60.3122572266335
20
19.1386137647726
30
0.00000000000000
11
-60.3112572266335
21
19.1392781842657
31
0.00000000000000
  0
LINE
  5
F101CA
330
F101CB
100
AcDbEntity
8
Geo
100
AcDbLine
10
-60.3112572266335
20
19.1392781842657
30
0.00000000000000
11
-60.3102572266335
21
19.1398903466790
31
0.00000000000000
  0
LINE
  5
F101CC
330
F101CD
100
AcDbEntity
8
Geo
100
AcDbLine
10
-60.3102572266335
20
19.1398903466790
30
0.00000000000000
11
-60.3092572266335
21
19.1404532044298
31
0.00000000000000
  0
LINE
  5
F101CE
330
F101CF
100
AcDbEntity
8
Geo
100
AcDbLine
10
-60.3092572266335
20
19.1404532044298
30
0.00000000000000
11
-60.3082572266335
21
19.1409693466949
31
0.00000000000000
  0
LINE
  5
F101D0
330
F101D1
100
AcDbEntity
8
Geo
100
AcDbLine
10
-60.3082572266335
20
19.1409693466949
30
0.00000000000000
11
-60.3072572266335
21
19.1414410562767
31
0.00000000000000
  0
LINE
  5
F101D2
330
F101D3
100
AcDbEntity
8
Geo
100
AcDbLine
10
-60.3072572266335
20
19.1414410562767
30
0.00000000000000
11
-60.3062572266335
21
19.1418703554937
31
0.00000000000000
  0
LINE
  5
F101D4
330
F101D5
100
AcDbEntity
8
Geo
100
AcDbLine
10
-60.3062572266335
20
19.1418703554937
30
0.00000000000000
11
-60.3052572266335
21
19.1422590435580
31
0.00000000000000
  0
LINE
  5
F101D6
330
F101D7
100
AcDbEntity
8
Geo
100
AcDbLine
10
-60.3052572266335
20
19.1422590435580
30
0.00000000000000
11
-60.3042572266335
21
19.1426087272764
31
0.00000000000000
  0
LINE
  5
F101D8
330
F101D9
100
AcDbEntity
8
Geo
100
AcDbLine
10
-60.3042572266335
20
19.1426087272764
30
0.00000000000000
11
-60.3032572266335
21
19.1429208464625
31
0.00000000000000
  0
LINE
  5
F101DA
330
F101DB
100
AcDbEntity
8
Geo
100
AcDbLine
10
-60.3032572266335
20
19.1429208464625
30
0.00000000000000
11
-60.3022572266335
21
19.1431966951179
31
0.00000000000000
  0
LINE
  5
F101DC
330
F101DD
100
AcDbEntity
8
Geo
100
AcDbLine
10
-60.3022572266335
20
19.1431966951179
30
0.00000000000000
11
-60.3012572266335
21
19.1434374392011
31
0.00000000000000
  0
LINE
  5
F101DE
330
F101DF
100
AcDbEntity
8
Geo
100
AcDbLine
10
-60.3012572266335
20
19.1434374392011
30
0.00000000000000
11
-60.3002572266335
21
19.1436441316185
31
0.00000000000000
  0
LINE
  5
F101E0
330
F101E1
100
AcDbEntity
8
Geo
100
AcDbLine
10
-60.3002572266335
20
19.1436441316185
30
0.00000000000000
11
-60.2992572266335
21
19.1438177249394
31
0.00000000000000
  0
LINE
  5
F101E2
330
F101E3
100
AcDbEntity
8
Geo
100
AcDbLine
10
-60.2992572266335
20
19.1438177249394
30
0.00000000000000
11
-60.2982572266335
21
19.1439590822315
31
0.00000000000000
  0
LINE
  5
F101E4
330
F101E5
100
AcDbEntity
8
Geo
100
AcDbLine
10
-60.2982572266335
20
19.1439590822315
30
0.00000000000000
11
-60.2972572266335
21
19.1440689863327
31
0.00000000000000
  0
LINE
  5
F101E6
330
F101E7
100
AcDbEntity
8
Geo
100
AcDbLine
10
-60.2972572266335
20
19.1440689863327
30
0.00000000000000
11
-60.2962572266335
21
19.1441481478154
31
0.00000000000000
  0
LINE
  5
F101E8
330
F101E9
100
AcDbEntity
8
Geo
100
AcDbLine
10
-60.2962572266335
20
19.1441481478154
30
0.00000000000000
11
-60.2952572266335
21
19.1441972118475
31
0.00000000000000
  0
LINE
  5
F101EA
330
F101EB
100
AcDbEntity
8
Geo
100
AcDbLine
10
-60.2952572266335
20
19.1441972118475
30
0.00000000000000
11
-60.2942572266335
21
19.1442167641200
31
0.00000000000000
  0
LINE
  5
F101EC
330
F101ED
100
AcDbEntity
8
Geo
100
AcDbLine
10
-60.2942572266335
20
19.1442167641200
30
0.00000000000000
11
-60.2932572266335
21
19.1442073359768
31
0.00000000000000
  0
LINE
  5
F101EE
330
F101EF
100
AcDbEntity
8
Geo
100
AcDbLine
10
-60.2932572266335
20
19.1442073359768
30
0.00000000000000
11
-60.2922572266335
21
19.1441694088606
31
0.00000000000000
  0
LINE
  5
F101F0
330
F101F1
100
AcDbEntity
8
Geo
100
AcDbLine
10
-60.2922572266335
20
19.1441694088606
30
0.00000000000000
11
-60.2912572266335
21
19.1441034181679
31
0.00000000000000
  0
LINE
  5
F101F2
330
F101F3
100
AcDbEntity
8
Geo
100
AcDbLine
10
-60.2912572266335
20
19.1441034181679
30
0.00000000000000
11
-60.2902572266335
21
19.1440097565899
31
0.00000000000000
  0
LINE
  5
F101F4
330
F101F5
100
AcDbEntity
8
Geo
100
AcDbLine
10
-60.2902572266335
20
19.1440097565899
30
0.00000000000000
11
-60.2892572266335
21
19.1438887770039
31
0.00000000000000
  0
LINE
  5
F101F6
330
F101F7
100
AcDbEntity
8
Geo
100
AcDbLine
10
-60.2892572266335
20
19.1438887770039
30
0.00000000000000
11
-60.2882572266335
21
19.1437407949677
31
0.00000000000000
  0
LINE
  5
F101F8
330
F101F9
100
AcDbEntity
8
Geo
100
AcDbLine
10
-60.2882572266335
20
19.1437407949677
30
0.00000000000000
11
-60.2872572266335
21
19.1435660908621
31
0.00000000000000
  0
LINE
  5
F101FA
330
F101FB
100
AcDbEntity
8
Geo
100
AcDbLine
10
-60.2872572266335
20
19.1435660908621
30
0.00000000000000
11
-60.2862572266335
21
19.1433649117173
31
0.00000000000000
  0
LINE
  5
F101FC
330
F101FD
100
AcDbEntity
8
Geo
100
AcDbLine
10
-60.2862572266335
20
19.1433649117173
30
0.00000000000000
11
-60.2852572266335
21
19.1431374727542
31
0.00000000000000
  0
LINE
  5
F101FE
330
F101FF
100
AcDbEntity
8
Geo
100
AcDbLine
10
-60.2852572266335
20
19.1431374727542
30
0.00000000000000
11
-60.2842572266335
21
19.1428839586642
31
0.00000000000000
  0
LINE
  5
F10200
330
F10201
100
AcDbEntity
8
Geo
100
AcDbLine
10
-60.2842572266335
20
19.1428839586642
30
0.00000000000000
11
-60.2832572266335
21
19.1426045246493
31
0.00000000000000
  0
LINE
  5
F10202
330
F10203
100
AcDbEntity
8
Geo
100
AcDbLine
10
-60.2832572266335
20
19.1426045246493
30
0.00000000000000
11
-60.2822572266335
21
19.1422992972365
31
0.00000000000000
  0
LINE
  5
F10204
330
F10205
100
AcDbEntity
8
Geo
100
AcDbLine
10
-60.2822572266335
20
19.1422992972365
30
0.00000000000000
11
-60.2812572266335
21
19.1419683748801
31
0.00000000000000
  0
LINE
  5
F10206
330
F10207
100
AcDbEntity
8
Geo
100
AcDbLine
10
-60.2812572266335
20
19.1419683748801
30
0.00000000000000
11
-60.2802572266335
21
19.1416232937799
31
0.00000000000000
  0
LINE
  5
F10208
330
F10209
100
AcDbEntity
8
Geo
100
AcDbLine
10
-60.2802572266335
20
19.1416232937799
30
0.00000000000000
11
-60.2792572266335
21
19.1412755460473
31
0.00000000000000
  0
LINE
  5
F1020A
330
F1020B
100
AcDbEntity
8
Geo
100
AcDbLine
10
-60.2792572266335
20
19.1412755460473
30
0.00000000000000
11
-60.2782572266335
21
19.1409251432737
31
0.00000000000000
  0
LINE
  5
F1020C
330
F1020D
100
AcDbEntity
8
Geo
100
AcDbLine
10
-60.2782572266335
20
19.1409251432737
30
0.00000000000000
11
-60.2772572266335
21
19.1405720971392
31
0.00000000000000
  0
LINE
  5
F1020E
330
F1020F
100
AcDbEntity
8
Geo
100
AcDbLine
10
-60.2772572266335
20
19.1405720971392
30
0.00000000000000
11
-60.2762572266335
21
19.1402164194120
31
0.00000000000000
  0
LINE
  5
F10210
330
F10211
100
AcDbEntity
8
Geo
100
AcDbLine
10
-60.2762572266335
20
19.1402164194120
30
0.00000000000000
11
-60.2752572266335
21
19.1398581219480
31
0.00000000000000
  0
LINE
  5
F10212
330
F10213
100
AcDbEntity
8
Geo
100
AcDbLine
10
-60.2752572266335
20
19.1398581219480
30
0.00000000000000
11
-60.2742572266335
21
19.1394972166904
31
0.00000000000000
  0
LINE
  5
F10214
330
F10215
100
AcDbEntity
8
Geo
100
AcDbLine
10
-60.2742572266335
20
19.1394972166904
30
0.00000000000000
11
-60.2732572266335
21
19.1391337156693
31
0.00000000000000
  0
LINE
  5
F10216
330
F10217
100
AcDbEntity
8
Geo
100
AcDbLine
10
-60.2732572266335
20
19.1391337156693
30
0.00000000000000
11
-60.2722572266335
21
19.1387676310015
31
0.00000000000000
  0
LINE
  5
F10218
330
F10219
100
AcDbEntity
8
Geo
100
AcDbLine
10
-60.2722572266335
20
19.1387676310015
30
0.00000000000000
11
-60.2712572266335
21
19.1383989748896
31
0.00000000000000
  0
LINE
  5
F1021A
330
F1021B
100
AcDbEntity
8
Geo
100
AcDbLine
10
-60.2712572266335
20
19.1383989748896
30
0.00000000000000
11
-60.2702572266335
21
19.1380277596222
31
0.00000000000000
  0
LINE
  5
F1021C
330
F1021D
100
AcDbEntity
8
Geo
100
AcDbLine
10
-60.2702572266335
20
19.1380277596222
30
0.00000000000000
11
-60.2692572266335
21
19.1376539975732
31
0.00000000000000
  0
LINE
  5
F1021E
330
F1021F
100
AcDbEntity
8
Geo
100
AcDbLine
10
-60.2692572266335
20
19.1376539975732
30
0.00000000000000
11
-60.2682572266335
21
19.1372777012011
31
0.00000000000000
  0
LINE
  5
F10220
330
F10221
100
AcDbEntity
8
Geo
100
AcDbLine
10
-60.2682572266335
20
19.1372777012011
30
0.00000000000000
11
-60.2672572266335
21
19.1368988830492
31
0.00000000000000
  0
LINE
  5
F10222
330
F10223
100
AcDbEntity
8
Geo
100
AcDbLine
10
-60.2672572266335
20
19.1368988830492
30
0.00000000000000
11
-60.2662572266335
21
19.1365175557448
31
0.00000000000000
  0
LINE
  5
F10224
330
F10225
100
AcDbEntity
8
Geo
100
AcDbLine
10
-60.2662572266335
20
19.1365175557448
30
0.00000000000000
11
-60.2652572266335
21
19.1361337319986
31
0.00000000000000
  0
LINE
  5
F10226
330
F10227
100
AcDbEntity
8
Geo
100
AcDbLine
10
-60.2652572266335
20
19.1361337319986
30
0.00000000000000
11
-60.2642572266335
21
19.1357474246048
31
0.00000000000000
  0
LINE
  5
F10228
330
F10229
100
AcDbEntity
8
Geo
100
AcDbLine
10
-60.2642572266335
20
19.1357474246048
30
0.00000000000000
11
-60.2632572266335
21
19.1353586464403
31
0.00000000000000
  0
LINE
  5
F1022A
330
F1022B
100
AcDbEntity
8
Geo
100
AcDbLine
10
-60.2632572266335
20
19.1353586464403
30
0.00000000000000
11
-60.2622572266335
21
19.1349674104643
31
0.00000000000000
  0
LINE
  5
F1022C
330
F1022D
100
AcDbEntity
8
Geo
100
AcDbLine
10
-60.2622572266335
20
19.1349674104643
30
0.00000000000000
11
-60.2612572266335
21
19.1345737297179
31
0.00000000000000
  0
LINE
  5
F1022E
330
F1022F
100
AcDbEntity
8
Geo
100
AcDbLine
10
-60.2612572266335
20
19.1345737297179
30
0.00000000000000
11
-60.2602572266335
21
19.1341776173238
31
0.00000000000000
  0
LINE
  5
F10230
330
F10231
100
AcDbEntity
8
Geo
100
AcDbLine
10
-60.2602572266335
20
19.1341776173238
30
0.00000000000000
11
-60.2592572266335
21
19.1337790864858
31
0.00000000000000
  0
LINE
  5
F10232
330
F10233
100
AcDbEntity
8
Geo
100
AcDbLine
10
-60.2592572266335
20
19.1337790864858
30
0.00000000000000
11
-60.2582572266335
21
19.1333781504881
31
0.00000000000000
  0
LINE
  5
F10234
330
F10235
100
AcDbEntity
8
Geo
100
AcDbLine
10
-60.2582572266335
20
19.1333781504881
30
0.00000000000000
11
-60.2572572266335
21
19.1329748226953
31
0.00000000000000
  0
LINE
  5
F10236
330
F10237
100
AcDbEntity
8
Geo
100
AcDbLine
10
-60.2572572266335
20
19.1329748226953
30
0.00000000000000
11
-60.2562572266335
21
19.1325691165515
31
0.00000000000000
  0
LINE
  5
F10238
330
F10239
100
AcDbEntity
8
Geo
100
AcDbLine
10
-60.2562572266335
20
19.1325691165515
30
0.00000000000000
11
-60.2552572266335
21
19.1321610455803
31
0.00000000000000
  0
LINE
  5
F1023A
330
F1023B
100
AcDbEntity
8
Geo
100
AcDbLine
10
-60.2552572266335
20
19.1321610455803
30
0.00000000000000
11
-60.2542572266335
21
19.1317506233840
31
0.00000000000000
  0
LINE
  5
F1023C
330
F1023D
100
AcDbEntity
8
Geo
100
AcDbLine
10
-60.2542572266335
20
19.1317506233840
30
0.00000000000000
11
-60.2532572266335
21
19.1313378636433
31
0.00000000000000
  0
LINE
  5
F1023E
330
F1023F
100
AcDbEntity
8
Geo
100
AcDbLine
10
-60.2532572266335
20
19.1313378636433
30
0.00000000000000
11
-60.2522572266335
21
19.1309227801168
31
0.00000000000000
  0
LINE
  5
F10240
330
F10241
100
AcDbEntity
8
Geo
100
AcDbLine
10
-60.2522572266335
20
19.1309227801168
30
0.00000000000000
11
-60.2512572266335
21
19.1305053866406
31
0.00000000000000
  0
LINE
  5
F10242
330
F10243
100
AcDbEntity
8
Geo
100
AcDbLine
10
-60.2512572266335
20
19.1305053866406
30
0.00000000000000
11
-60.2502572266335
21
19.1300856971278
31
0.00000000000000
  0
LINE
  5
F10244
330
F10245
100
AcDbEntity
8
Geo
100
AcDbLine
10
-60.2502572266335
20
19.1300856971278
30
0.00000000000000
11
-60.2492572266335
21
19.1296637255680
31
0.00000000000000
  0
LINE
  5
F10246
330
F10247
100
AcDbEntity
8
Geo
100
AcDbLine
10
-60.2492572266335
20
19.1296637255680
30
0.00000000000000
11
-60.2482572266335
21
19.1292394860268
31
0.00000000000000
  0
LINE
  5
F10248
330
F10249
100
AcDbEntity
8
Geo
100
AcDbLine
10
-60.2482572266335
20
19.1292394860268
30
0.00000000000000
11
-60.2472572266335
21
19.1288129926456
31
0.00000000000000
  0
LINE
  5
F1024A
330
F1024B
100
AcDbEntity
8
Geo
100
AcDbLine
10
-60.2472572266335
20
19.1288129926456
30
0.00000000000000
11
-60.2462572266335
21
19.1283842596407
31
0.00000000000000
  0
LINE
  5
F1024C
330
F1024D
100
AcDbEntity
8
Geo
100
AcDbLine
10
-60.2462572266335
20
19.1283842596407
30
0.00000000000000
11
-60.2452572266335
21
19.1279533013033
31
0.00000000000000
  0
LINE
  5
F1024E
330
F1024F
100
AcDbEntity
8
Geo
100
AcDbLine
10
-60.2452572266335
20
19.1279533013033
30
0.00000000000000
11
-60.2442572266335
21
19.1275201319984
31
0.00000000000000
  0
LINE
  5
F10250
330
F10251
100
AcDbEntity
8
Geo
100
AcDbLine
10
-60.2442572266335
20
19.1275201319984
30
0.00000000000000
11
-60.2432572266335
21
19.1270847661652
31
0.00000000000000
  0
LINE
  5
F10252
330
F10253
100
AcDbEntity
8
Geo
100
AcDbLine
10
-60.2432572266335
20
19.1270847661652
30
0.00000000000000
11
-60.2422572266335
21
19.1266472183157
31
0.00000000000000
  0
LINE
  5
F10254
330
F10255
100
AcDbEntity
8
Geo
100
AcDbLine
10
-60.2422572266335
20
19.1266472183157
30
0.00000000000000
11
-60.2412572266335
21
19.1262075030349
31
0.00000000000000
  0
LINE
  5
F10256
330
F10257
100
AcDbEntity
8
Geo
100
AcDbLine
10
-60.2412572266335
20
19.1262075030349
30
0.00000000000000
11
-60.2402572266335
21
19.1257656349798
31
0.00000000000000
  0
LINE
  5
F10258
330
F10259
100
AcDbEntity
8
Geo
100
AcDbLine
10
-60.2402572266335
20
19.1257656349798
30
0.00000000000000
11
-60.2392572266335
21
19.1253216288793
31
0.00000000000000
  0
LINE
  5
F1025A
330
F1025B
100
AcDbEntity
8
Geo
100
AcDbLine
10
-60.2392572266335
20
19.1253216288793
30
0.00000000000000
11
-60.2382572266335
21
19.1248754995337
31
0.00000000000000
  0
LINE
  5
F1025C
330
F1025D
100
AcDbEntity
8
Geo
100
AcDbLine
10
-60.2382572266335
20
19.1248754995337
30
0.00000000000000
11
-60.2372572266335
21
19.1244272618138
31
0.00000000000000
  0
LINE
  5
F1025E
330
F1025F
100
AcDbEntity
8
Geo
100
AcDbLine
10
-60.2372572266335
20
19.1244272618138
30
0.00000000000000
11
-60.2362572266335
21
19.1239769306609
31
0.00000000000000
  0
LINE
  5
F10260
330
F10261
100
AcDbEntity
8
Geo
100
AcDbLine
10
-60.2362572266335
20
19.1239769306609
30
0.00000000000000
11
-60.2352572266335
21
19.1235245210860
31
0.00000000000000
  0
LINE
  5
F10262
330
F10263
100
AcDbEntity
8
Geo
100
AcDbLine
10
-60.2352572266335
20
19.1235245210860
30
0.00000000000000
11
-60.2342572266335
21
19.1230700481693
31
0.00000000000000
  0
LINE
  5
F10264
330
F10265
100
AcDbEntity
8
Geo
100
AcDbLine
10
-60.2342572266335
20
19.1230700481693
30
0.00000000000000
11
-60.2332572266335
21
19.1226135270600
31
0.00000000000000
  0
LINE
  5
F10266
330
F10267
100
AcDbEntity
8
Geo
100
AcDbLine
10
-60.2332572266335
20
19.1226135270600
30
0.00000000000000
11
-60.2322572266335
21
19.1221549729752
31
0.00000000000000
  0
LINE
  5
F10268
330
F10269
100
AcDbEntity
8
Geo
100
AcDbLine
10
-60.2322572266335
20
19.1221549729752
30
0.00000000000000
11
-60.2312572266335
21
19.1216944012002
31
0.00000000000000
  0
LINE
  5
F1026A
330
F1026B
100
AcDbEntity
8
Geo
100
AcDbLine
10
-60.2312572266335
20
19.1216944012002
30
0.00000000000000
11
-60.2302572266335
21
19.1212318270872
31
0.00000000000000
  0
LINE
  5
F1026C
330
F1026D
100
AcDbEntity
8
Geo
100
AcDbLine
10
-60.2302572266335
20
19.1212318270872
30
0.00000000000000
11
-60.2292572266335
21
19.1207672660554
31
0.00000000000000
  0
LINE
  5
F1026E
330
F1026F
100
AcDbEntity
8
Geo
100
AcDbLine
10
-60.2292572266335
20
19.1207672660554
30
0.00000000000000
11
-60.2282572266335
21
19.1203007335901
31
0.00000000000000
  0
LINE
  5
F10270
330
F10271
100
AcDbEntity
8
Geo
100
AcDbLine
10
-60.2282572266335
20
19.1203007335901
30
0.00000000000000
11
-60.2272572266335
21
19.1198322452424
31
0.00000000000000
  0
LINE
  5
F10272
330
F10273
100
AcDbEntity
8
Geo
100
AcDbLine
10
-60.2272572266335
20
19.1198322452424
30
0.00000000000000
11
-60.2262572266335
21
19.1193618166284
31
0.00000000000000
  0
LINE
  5
F10274
330
F10275
100
AcDbEntity
8
Geo
100
AcDbLine
10
-60.2262572266335
20
19.1193618166284
30
0.00000000000000
11
-60.2252572266335
21
19.1188894634291
31
0.00000000000000
  0
LINE
  5
F10276
330
F10277
100
AcDbEntity
8
Geo
100
AcDbLine
10
-60.2252572266335
20
19.1188894634291
30
0.00000000000000
11
-60.2242572266335
21
19.1184152013895
31
0.00000000000000
  0
LINE
  5
F10278
330
F10279
100
AcDbEntity
8
Geo
100
AcDbLine
10
-60.2242572266335
20
19.1184152013895
30
0.00000000000000
11
-60.2232572266335
21
19.1179390463183
31
0.00000000000000
  0
LINE
  5
F1027A
330
F1027B
100
AcDbEntity
8
Geo
100
AcDbLine
10
-60.2232572266335
20
19.1179390463183
30
0.00000000000000
11
-60.2222572266335
21
19.1174610140874
31
0.00000000000000
  0
LINE
  5
F1027C
330
F1027D
100
AcDbEntity
8
Geo
100
AcDbLine
10
-60.2222572266335
20
19.1174610140874
30
0.00000000000000
11
-60.2212572266335
21
19.1169811206310
31
0.00000000000000
  0
LINE
  5
F1027E
330
F1027F
100
AcDbEntity
8
Geo
100
AcDbLine
10
-60.2212572266335
20
19.1169811206310
30
0.00000000000000
11
-60.2202572266335
21
19.1164993819457
31
0.00000000000000
  0
LINE
  5
F10280
330
F10281
100
AcDbEntity
8
Geo
100
AcDbLine
10
-60.2202572266335
20
19.1164993819457
30
0.00000000000000
11
-60.2192572266335
21
19.1160158140892
31
0.00000000000000
  0
LINE
  5
F10282
330
F10283
100
AcDbEntity
8
Geo
100
AcDbLine
10
-60.2192572266335
20
19.1160158140892
30
0.00000000000000
11
-60.2182572266335
21
19.1155304331805
31
0.00000000000000
  0
LINE
  5
F10284
330
F10285
100
AcDbEntity
8
Geo
100
AcDbLine
10
-60.2182572266335
20
19.1155304331805
30
0.00000000000000
11
-60.2172572266335
21
19.1150432553990
31
0.00000000000000
  0
LINE
  5
F10286
330
F10287
100
AcDbEntity
8
Geo
100
AcDbLine
10
-60.2172572266335
20
19.1150432553990
30
0.00000000000000
11
-60.2162572266335
21
19.1145542969837
31
0.00000000000000
  0
LINE
  5
F10288
330
F10289
100
AcDbEntity
8
Geo
100
AcDbLine
10
-60.2162572266335
20
19.1145542969837
30
0.00000000000000
11
-60.2152572266335
21
19.1140635742333
31
0.00000000000000
  0
LINE
  5
F1028A
330
F1028B
100
AcDbEntity
8
Geo
100
AcDbLine
10
-60.2152572266335
20
19.1140635742333
30
0.00000000000000
11
-60.2142572266335
21
19.1135711035052
31
0.00000000000000
  0
LINE
  5
F1028C
330
F1028D
100
AcDbEntity
8
Geo
100
AcDbLine
10
-60.2142572266335
20
19.1135711035052
30
0.00000000000000
11
-60.2132572266335
21
19.1130769012150
31
0.00000000000000
  0
LINE
  5
F1028E
330
F1028F
100
AcDbEntity
8
Geo
100
AcDbLine
10
-60.2132572266335
20
19.1130769012150
30
0.00000000000000
11
-60.2122572266335
21
19.1125809838361
31
0.00000000000000
  0
LINE
  5
F10290
330
F10291
100
AcDbEntity
8
Geo
100
AcDbLine
10
-60.2122572266335
20
19.1125809838361
30
0.00000000000000
11
-60.2112572266335
21
19.1120833678990
31
0.00000000000000
  0
LINE
  5
F10292
330
F10293
100
AcDbEntity
8
Geo
100
AcDbLine
10
-60.2112572266335
20
19.1120833678990
30
0.00000000000000
11
-60.2102572266335
21
19.1115840699908
31
0.00000000000000
  0
LINE
  5
F10294
330
F10295
100
AcDbEntity
8
Geo
100
AcDbLine
10
-60.2102572266335
20
19.1115840699908
30
0.00000000000000
11
-60.2092572266335
21
19.1110831067549
31
0.00000000000000
  0
LINE
  5
F10296
330
F10297
100
AcDbEntity
8
Geo
100
AcDbLine
10
-60.2092572266335
20
19.1110831067549
30
0.00000000000000
11
-60.2082572266335
21
19.1105804948898
31
0.00000000000000
  0
LINE
  5
F10298
330
F10299
100
AcDbEntity
8
Geo
100
AcDbLine
10
-60.2082572266335
20
19.1105804948898
30
0.00000000000000
11
-60.2072572266335
21
19.1100762511493
31
0.00000000000000
  0
LINE
  5
F1029A
330
F1029B
100
AcDbEntity
8
Geo
100
AcDbLine
10
-60.2072572266335
20
19.1100762511493
30
0.00000000000000
11
-60.2062572266335
21
19.1095703923415
31
0.00000000000000
  0
LINE
  5
F1029C
330
F1029D
100
AcDbEntity
8
Geo
100
AcDbLine
10
-60.2062572266335
20
19.1095703923415
30
0.00000000000000
11
-60.2052572266335
21
19.1090629353283
31
0.00000000000000
  0
LINE
  5
F1029E
330
F1029F
100
AcDbEntity
8
Geo
100
AcDbLine
10
-60.2052572266335
20
19.1090629353283
30
0.00000000000000
11
-60.2042572266335
21
19.1085538970248
31
0.00000000000000
  0
LINE
  5
F102A0
330
F102A1
100
AcDbEntity
8
Geo
100
AcDbLine
10
-60.2042572266335
20
19.1085538970248
30
0.00000000000000
11
-60.2032572266335
21
19.1080432943990
31
0.00000000000000
  0
LINE
  5
F102A2
330
F102A3
100
AcDbEntity
8
Geo
100
AcDbLine
10
-60.2032572266335
20
19.1080432943990
30
0.00000000000000
11
-60.2022572266335
21
19.1075311444709
31
0.00000000000000
  0
LINE
  5
F102A4
330
F102A5
100
AcDbEntity
8
Geo
100
AcDbLine
10
-60.2022572266335
20
19.1075311444709
30
0.00000000000000
11
-60.2012572266335
21
19.1070174643121
31
0.00000000000000
  0
LINE
  5
F102A6
330
F102A7
100
AcDbEntity
8
Geo
100
AcDbLine
10
-60.2012572266335
20
19.1070174643121
30
0.00000000000000
11
-60.2002572266335
21
19.1065022710452
31
0.00000000000000
  0
LINE
  5
F102A8
330
F102A9
100
AcDbEntity
8
Geo
100
AcDbLine
10
-60.2002572266335
20
19.1065022710452
30
0.00000000000000
11
-60.1992572266335
21
19.1059855818434
31
0.00000000000000
  0
LINE
  5
F102AA
330
F102AB
100
AcDbEntity
8
Geo
100
AcDbLine
10
-60.1992572266335
20
19.1059855818434
30
0.00000000000000
11
-60.1982572266335
21
19.1054674139295
31
0.00000000000000
  0
LINE
  5
F102AC
330
F102AD
100
AcDbEntity
8
Geo
100
AcDbLine
10
-60.1982572266335
20
19.1054674139295
30
0.00000000000000
11
-60.1972572266335
21
19.1049477845757
31
0.00000000000000
  0
LINE
  5
F102AE
330
F102AF
100
AcDbEntity
8
Geo
100
AcDbLine
10
-60.1972572266335
20
19.1049477845757
30
0.00000000000000
11
-60.1962572266335
21
19.1044267111030
31
0.00000000000000
  0
LINE
  5
F102B0
330
F102B1
100
AcDbEntity
8
Geo
100
AcDbLine
10
-60.1962572266335
20
19.1044267111030
30
0.00000000000000
11
-60.1952572266335
21
19.1039042108805
31
0.00000000000000
  0
LINE
  5
F102B2
330
F102B3
100
AcDbEntity
8
Geo
100
AcDbLine
10
-60.1952572266335
20
19.1039042108805
30
0.00000000000000
11
-60.1942572266335
21
19.1033803013247
31
0.00000000000000
  0
LINE
  5
F102B4
330
F102B5
100
AcDbEntity
8
Geo
100
AcDbLine
10
-60.1942572266335
20
19.1033803013247
30
0.00000000000000
11
-60.1932572266335
21
19.1028549998993
31
0.00000000000000
  0
LINE
  5
F102B6
330
F102B7
100
AcDbEntity
8
Geo
100
AcDbLine
10
-60.1932572266335
20
19.1028549998993
30
0.00000000000000
11
-60.1922572266335
21
19.1023283241142
31
0.00000000000000
  0
LINE
  5
F102B8
330
F102B9
100
AcDbEntity
8
Geo
100
AcDbLine
10
-60.1922572266335
20
19.1023283241142
30
0.00000000000000
11
-60.1912572266335
21
19.1018002915254
31
0.00000000000000
  0
LINE
  5
F102BA
330
F102BB
100
AcDbEntity
8
Geo
100
AcDbLine
10
-60.1912572266335
20
19.1018002915254
30
0.00000000000000
11
-60.1902572266335
21
19.1012709197338
31
0.00000000000000
  0
LINE
  5
F102BC
330
F102BD
100
AcDbEntity
8
Geo
100
AcDbLine
10
-60.1902572266335
20
19.1012709197338
30
0.00000000000000
11
-60.1892572266335
21
19.1007402263850
31
0.00000000000000
  0
LINE
  5
F102BE
330
F102BF
100
AcDbEntity
8
Geo
100
AcDbLine
10
-60.1892572266335
20
19.1007402263850
30
0.00000000000000
11
-60.1882572266335
21
19.1002082291689
31
0.00000000000000
  0
LINE
  5
F102C0
330
F102C1
100
AcDbEntity
8
Geo
100
AcDbLine
10
-60.1882572266335
20
19.1002082291689
30
0.00000000000000
11
-60.1872572266335
21
19.0996749458186
31
0.00000000000000
  0
LINE
  5
F102C2
330
F102C3
100
AcDbEntity
8
Geo
100
AcDbLine
10
-60.1872572266335
20
19.0996749458186
30
0.00000000000000
11
-60.1862572266335
21
19.0991403941102
31
0.00000000000000
  0
LINE
  5
F102C4
330
F102C5
100
AcDbEntity
8
Geo
100
AcDbLine
10
-60.1862572266335
20
19.0991403941102
30
0.00000000000000
11
-60.1852572266335
21
19.0986045918620
31
0.00000000000000
  0
LINE
  5
F102C6
330
F102C7
100
AcDbEntity
8
Geo
100
AcDbLine
10
-60.1852572266335
20
19.0986045918620
30
0.00000000000000
11
-60.1842572266335
21
19.0980675569341
31
0.00000000000000
  0
LINE
  5
F102C8
330
F102C9
100
AcDbEntity
8
Geo
100
AcDbLine
10
-60.1842572266335
20
19.0980675569341
30
0.00000000000000
11
-60.1832572266335
21
19.0975293072275
31
0.00000000000000
  0
LINE
  5
F102CA
330
F102CB
100
AcDbEntity
8
Geo
100
AcDbLine
10
-60.1832572266335
20
19.0975293072275
30
0.00000000000000
11
-60.1822572266335
21
19.0969898606839
31
0.00000000000000
  0
LINE
  5
F102CC
330
F102CD
100
AcDbEntity
8
Geo
100
AcDbLine
10
-60.1822572266335
20
19.0969898606839
30
0.00000000000000
11
-60.1812572266335
21
19.0964492352847
31
0.00000000000000
  0
LINE
  5
F102CE
330
F102CF
100
AcDbEntity
8
Geo
100
AcDbLine
10
-60.1812572266335
20
19.0964492352847
30
0.00000000000000
11
-60.1802572266335
21
19.0959074490509
31
0.00000000000000
  0
LINE
  5
F102D0
330
F102D1
100
AcDbEntity
8
Geo
100
AcDbLine
10
-60.1802572266335
20
19.0959074490509
30
0.00000000000000
11
-60.1792572266335
21
19.0953645200417
31
0.00000000000000
  0
LINE
  5
F102D2
330
F102D3
100
AcDbEntity
8
Geo
100
AcDbLine
10
-60.1792572266335
20
19.0953645200417
30
0.00000000000000
11
-60.1782572266335
21
19.0948204663549
31
0.00000000000000
  0
LINE
  5
F102D4
330
F102D5
100
AcDbEntity
8
Geo
100
AcDbLine
10
-60.1782572266335
20
19.0948204663549
30
0.00000000000000
11
-60.1772572266335
21
19.0942753061256
31
0.00000000000000
  0
LINE
  5
F102D6
330
F102D7
100
AcDbEntity
8
Geo
100
AcDbLine
10
-60.1772572266335
20
19.0942753061256
30
0.00000000000000
11
-60.1762572266335
21
19.0937290575256
31
0.00000000000000
  0
LINE
  5
F102D8
330
F102D9
100
AcDbEntity
8
Geo
100
AcDbLine
10
-60.1762572266335
20
19.0937290575256
30
0.00000000000000
11
-60.1752572266335
21
19.0931817387632
31
0.00000000000000
  0
LINE
  5
F102DA
330
F102DB
100
AcDbEntity
8
Geo
100
AcDbLine
10
-60.1752572266335
20
19.0931817387632
30
0.00000000000000
11
-60.1742572266335
21
19.0926333680823
31
0.00000000000000
  0
LINE
  5
F102DC
330
F102DD
100
AcDbEntity
8
Geo
100
AcDbLine
10
-60.1742572266335
20
19.0926333680823
30
0.00000000000000
11
-60.1732572266335
21
19.0920839637619
31
0.00000000000000
  0
LINE
  5
F102DE
330
F102DF
100
AcDbEntity
8
Geo
100
AcDbLine
10
-60.1732572266335
20
19.0920839637619
30
0.00000000000000
11
-60.1722572266335
21
19.0915335441154
31
0.00000000000000
  0
LINE
  5
F102E0
330
F102E1
100
AcDbEntity
8
Geo
100
AcDbLine
10
-60.1722572266335
20
19.0915335441154
30
0.00000000000000
11
-60.1712572266335
21
19.0909821274901
31
0.00000000000000
  0
LINE
  5
F102E2
330
F102E3
100
AcDbEntity
8
Geo
100
AcDbLine
10
-60.1712572266335
20
19.0909821274901
30
0.00000000000000
11
-60.1702572266335
21
19.0904297322665
31
0.00000000000000
  0
LINE
  5
F102E4
330
F102E5
100
AcDbEntity
8
Geo
100
AcDbLine
10
-60.1702572266335
20
19.0904297322665
30
0.00000000000000
11
-60.1692572266335
21
19.0898763768577
31
0.00000000000000
  0
LINE
  5
F102E6
330
F102E7
100
AcDbEntity
8
Geo
100
AcDbLine
10
-60.1692572266335
20
19.0898763768577
30
0.00000000000000
11
-60.1682572266335
21
19.0893220797088
31
0.00000000000000
  0
LINE
  5
F102E8
330
F102E9
100
AcDbEntity
8
Geo
100
AcDbLine
10
-60.1682572266335
20
19.0893220797088
30
0.00000000000000
11
-60.1672572266335
21
19.0887668592964
31
0.00000000000000
  0
LINE
  5
F102EA
330
F102EB
100
AcDbEntity
8
Geo
100
AcDbLine
10
-60.1672572266335
20
19.0887668592964
30
0.00000000000000
11
-60.1662572266335
21
19.0882107341278
31
0.00000000000000
  0
LINE
  5
F102EC
330
F102ED
100
AcDbEntity
8
Geo
100
AcDbLine
10
-60.1662572266335
20
19.0882107341278
30
0.00000000000000
11
-60.1652572266335
21
19.0876537227403
31
0.00000000000000
  0
LINE
  5
F102EE
330
F102EF
100
AcDbEntity
8
Geo
100
AcDbLine
10
-60.1652572266335
20
19.0876537227403
30
0.00000000000000
11
-60.1642572266335
21
19.0870958437011
31
0.00000000000000
  0
LINE
  5
F102F0
330
F102F1
100
AcDbEntity
8
Geo
100
AcDbLine
10
-60.1642572266335
20
19.0870958437011
30
0.00000000000000
11
-60.1632572266335
21
19.0865371156059
31
0.00000000000000
  0
LINE
  5
F102F2
330
F102F3
100
AcDbEntity
8
Geo
100
AcDbLine
10
-60.1632572266335
20
19.0865371156059
30
0.00000000000000
11
-60.1622572266335
21
19.0859775570792
31
0.00000000000000
  0
LINE
  5
F102F4
330
F102F5
100
AcDbEntity
8
Geo
100
AcDbLine
10
-60.1622572266335
20
19.0859775570792
30
0.00000000000000
11
-60.1612572266335
21
19.0854171867726
31
0.00000000000000
  0
LINE
  5
F102F6
330
F102F7
100
AcDbEntity
8
Geo
100
AcDbLine
10
-60.1612572266335
20
19.0854171867726
30
0.00000000000000
11
-60.1602572266335
21
19.0848560233653
31
0.00000000000000
  0
LINE
  5
F102F8
330
F102F9
100
AcDbEntity
8
Geo
100
AcDbLine
10
-60.1602572266335
20
19.0848560233653
30
0.00000000000000
11
-60.1592572266335
21
19.0842940855625
31
0.00000000000000
  0
LINE
  5
F102FA
330
F102FB
100
AcDbEntity
8
Geo
100
AcDbLine
10
-60.1592572266335
20
19.0842940855625
30
0.00000000000000
11
-60.1582572266335
21
19.0837313920955
31
0.00000000000000
  0
LINE
  5
F102FC
330
F102FD
100
AcDbEntity
8
Geo
100
AcDbLine
10
-60.1582572266335
20
19.0837313920955
30
0.00000000000000
11
-60.1572572266335
21
19.0831679617207
31
0.00000000000000
  0
LINE
  5
F102FE
330
F102FF
100
AcDbEntity
8
Geo
100
AcDbLine
10
-60.1572572266335
20
19.0831679617207
30
0.00000000000000
11
-60.1562572266335
21
19.0826038132191
31
0.00000000000000
  0
LINE
  5
F10300
330
F10301
100
AcDbEntity
8
Geo
100
AcDbLine
10
-60.1562572266335
20
19.0826038132191
30
0.00000000000000
11
-60.1552572266335
21
19.0820389653956
31
0.00000000000000
  0
LINE
  5
F10302
330
F10303
100
AcDbEntity
8
Geo
100
AcDbLine
10
-60.1552572266335
20
19.0820389653956
30
0.00000000000000
11
-60.1542572266335
21
19.0814734370783
31
0.00000000000000
  0
LINE
  5
F10304
330
F10305
100
AcDbEntity
8
Geo
100
AcDbLine
10
-60.1542572266335
20
19.0814734370783
30
0.00000000000000
11
-60.1532572266335
21
19.0809072471181
31
0.00000000000000
  0
LINE
  5
F10306
330
F10307
100
AcDbEntity
8
Geo
100
AcDbLine
10
-60.1532572266335
20
19.0809072471181
30
0.00000000000000
11
-60.1522572266335
21
19.0803404143880
31
0.00000000000000
  0
LINE
  5
F10308
330
F10309
100
AcDbEntity
8
Geo
100
AcDbLine
10
-60.1522572266335
20
19.0803404143880
30
0.00000000000000
11
-60.1512572266335
21
19.0797729577825
31
0.00000000000000
  0
LINE
  5
F1030A
330
F1030B
100
AcDbEntity
8
Geo
100
AcDbLine
10
-60.1512572266335
20
19.0797729577825
30
0.00000000000000
11
-60.1502572266335
21
19.0792048962165
31
0.00000000000000
  0
LINE
  5
F1030C
330
F1030D
100
AcDbEntity
8
Geo
100
AcDbLine
10
-60.1502572266335
20
19.0792048962165
30
0.00000000000000
11
-60.1492572266335
21
19.0786362486255
31
0.00000000000000
  0
LINE
  5
F1030E
330
F1030F
100
AcDbEntity
8
Geo
100
AcDbLine
10
-60.1492572266335
20
19.0786362486255
30
0.00000000000000
11
-60.1482572266335
21
19.0780670339644
31
0.00000000000000
  0
LINE
  5
F10310
330
F10311
100
AcDbEntity
8
Geo
100
AcDbLine
10
-60.1482572266335
20
19.0780670339644
30
0.00000000000000
11
-60.1472572266335
21
19.0774972712069
31
0.00000000000000
  0
LINE
  5
F10312
330
F10313
100
AcDbEntity
8
Geo
100
AcDbLine
10
-60.1472572266335
20
19.0774972712069
30
0.00000000000000
11
-60.1462572266335
21
19.0769269793450
31
0.00000000000000
  0
LINE
  5
F10314
330
F10315
100
AcDbEntity
8
Geo
100
AcDbLine
10
-60.1462572266335
20
19.0769269793450
30
0.00000000000000
11
-60.1452572266335
21
19.0763561773884
31
0.00000000000000
  0
LINE
  5
F10316
330
F10317
100
AcDbEntity
8
Geo
100
AcDbLine
10
-60.1452572266335
20
19.0763561773884
30
0.00000000000000
11
-60.1442572266335
21
19.0757848843639
31
0.00000000000000
  0
LINE
  5
F10318
330
F10319
100
AcDbEntity
8
Geo
100
AcDbLine
10
-60.1442572266335
20
19.0757848843639
30
0.00000000000000
11
-60.1432572266335
21
19.0752131193144
31
0.00000000000000
  0
LINE
  5
F1031A
330
F1031B
100
AcDbEntity
8
Geo
100
AcDbLine
10
-60.1432572266335
20
19.0752131193144
30
0.00000000000000
11
-60.1422572266335
21
19.0746409012987
31
0.00000000000000
  0
LINE
  5
F1031C
330
F1031D
100
AcDbEntity
8
Geo
100
AcDbLine
10
-60.1422572266335
20
19.0746409012987
30
0.00000000000000
11
-60.1412572266335
21
19.0740682493907
31
0.00000000000000
  0
LINE
  5
F1031E
330
F1031F
100
AcDbEntity
8
Geo
100
AcDbLine
10
-60.1412572266335
20
19.0740682493907
30
0.00000000000000
11
-60.1402572266335
21
19.0734951826788
31
0.00000000000000
  0
LINE
  5
F10320
330
F10321
100
AcDbEntity
8
Geo
100
AcDbLine
10
-60.1402572266335
20
19.0734951826788
30
0.00000000000000
11
-60.1392572266335
21
19.0729217202651
31
0.00000000000000
  0
LINE
  5
F10322
330
F10323
100
AcDbEntity
8
Geo
100
AcDbLine
10
-60.1392572266335
20
19.0729217202651
30
0.00000000000000
11
-60.1382572266335
21
19.0723478812651
31
0.00000000000000
  0
LINE
  5
F10324
330
F10325
100
AcDbEntity
8
Geo
100
AcDbLine
10
-60.1382572266335
20
19.0723478812651
30
0.00000000000000
11
-60.1372572266335
21
19.0717736848065
31
0.00000000000000
  0
LINE
  5
F10326
330
F10327
100
AcDbEntity
8
Geo
100
AcDbLine
10
-60.1372572266335
20
19.0717736848065
30
0.00000000000000
11
-60.1362572266335
21
19.0711991500292
31
0.00000000000000
  0
LINE
  5
F10328
330
F10329
100
AcDbEntity
8
Geo
100
AcDbLine
10
-60.1362572266335
20
19.0711991500292
30
0.00000000000000
11
-60.1352572266335
21
19.0706242960844
31
0.00000000000000
  0
LINE
  5
F1032A
330
F1032B
100
AcDbEntity
8
Geo
100
AcDbLine
10
-60.1352572266335
20
19.0706242960844
30
0.00000000000000
11
-60.1342572266335
21
19.0700491421337
31
0.00000000000000
  0
LINE
  5
F1032C
330
F1032D
100
AcDbEntity
8
Geo
100
AcDbLine
10
-60.1342572266335
20
19.0700491421337
30
0.00000000000000
11
-60.1332572266335
21
19.0694737073490
31
0.00000000000000
  0
LINE
  5
F1032E
330
F1032F
100
AcDbEntity
8
Geo
100
AcDbLine
10
-60.1332572266335
20
19.0694737073490
30
0.00000000000000
11
-60.1322572266335
21
19.0688980109113
31
0.00000000000000
  0
LINE
  5
F10330
330
F10331
100
AcDbEntity
8
Geo
100
AcDbLine
10
-60.1322572266335
20
19.1025707533900
30
0.00000000000000
11
-60.1302572266335
21
19.1015145847432
31
0.00000000000000
  0
LINE
  5
F10332
330
F10333
100
AcDbEntity
8
Geo
100
AcDbLine
10
-60.1302572266335
20
19.1015145847432
30
0.00000000000000
11
-60.1292572266335
21
19.1009844970883
31
0.00000000000000
  0
LINE
  5
F10334
330
F10335
100
AcDbEntity
8
Geo
100
AcDbLine
10
-60.1292572266335
20
19.1009844970883
30
0.00000000000000
11
-60.1282572266335
21
19.1004530974238
31
0.00000000000000
  0
LINE
  5
F10336
330
F10337
100
AcDbEntity
8
Geo
100
AcDbLine
10
-60.1282572266335
20
19.1004530974238
30
0.00000000000000
11
-60.1272572266335
21
19.0999204034627
31
0.00000000000000
  0
LINE
  5
F10338
330
F10339
100
AcDbEntity
8
Geo
100
AcDbLine
10
-60.1272572266335
20
19.0999204034627
30
0.00000000000000
11
-60.1262572266335
21
19.0993864329617
31
0.00000000000000
  0
LINE
  5
F1033A
330
F1033B
100
AcDbEntity
8
Geo
100
AcDbLine
10
-60.1262572266335
20
19.0993864329617
30
0.00000000000000
11
-60.1252572266335
21
19.0988512037196
31
0.00000000000000
  0
LINE
  5
F1033C
330
F1033D
100
AcDbEntity
8
Geo
100
AcDbLine
10
-60.1252572266335
20
19.0988512037196
30
0.00000000000000
11
-60.1242572266335
21
19.0983147335774
31
0.00000000000000
  0
LINE
  5
F1033E
330
F1033F
100
AcDbEntity
8
Geo
100
AcDbLine
10
-60.1242572266335
20
19.0983147335774
30
0.00000000000000
11
-60.1232572266335
21
19.0977770404174
31
0.00000000000000
  0
LINE
  5
F10340
330
F10341
100
AcDbEntity
8
Geo
100
AcDbLine
10
-60.1232572266335
20
19.0977770404174
30
0.00000000000000
11
-60.1222572266335
21
19.0972381421625
31
0.00000000000000
  0
LINE
  5
F10342
330
F10343
100
AcDbEntity
8
Geo
100
AcDbLine
10
-60.1222572266335
20
19.0972381421625
30
0.00000000000000
11
-60.1212572266335
21
19.0966980567762
31
0.00000000000000
  0
LINE
  5
F10344
330
F10345
100
AcDbEntity
8
Geo
100
AcDbLine
10
-60.1212572266335
20
19.0966980567762
30
0.00000000000000
11
-60.1202572266335
21
19.0961568022613
31
0.00000000000000
  0
LINE
  5
F10346
330
F10347
100
AcDbEntity
8
Geo
100
AcDbLine
10
-60.1202572266335
20
19.0961568022613
30
0.00000000000000
11
-60.1192572266335
21
19.0956143966597
31
0.00000000000000
  0
LINE
  5
F10348
330
F10349
100
AcDbEntity
8
Geo
100
AcDbLine
10
-60.1192572266335
20
19.0956143966597
30
0.00000000000000
11
-60.1182572266335
21
19.0950708580522
31
0.00000000000000
  0
LINE
  5
F1034A
330
F1034B
100
AcDbEntity
8
Geo
100
AcDbLine
10
-60.1182572266335
20
19.0950708580522
30
0.00000000000000
11
-60.1172572266335
21
19.0945262045577
31
0.00000000000000
  0
LINE
  5
F1034C
330
F1034D
100
AcDbEntity
8
Geo
100
AcDbLine
10
-60.1172572266335
20
19.0945262045577
30
0.00000000000000
11
-60.1162572266335
21
19.0939804543334
31
0.00000000000000
  0
LINE
  5
F1034E
330
F1034F
100
AcDbEntity
8
Geo
100
AcDbLine
10
-60.1162572266335
20
19.0939804543334
30
0.00000000000000
11
-60.1152572266335
21
19.0934336255750
31
0.00000000000000
  0
LINE
  5
F10350
330
F10351
100
AcDbEntity
8
Geo
100
AcDbLine
10
-60.1152572266335
20
19.0934336255750
30
0.00000000000000
11
-60.1142572266335
21
19.0928857365174
31
0.00000000000000
  0
LINE
  5
F10352
330
F10353
100
AcDbEntity
8
Geo
100
AcDbLine
10
-60.1142572266335
20
19.0928857365174
30
0.00000000000000
11
-60.1132572266335
21
19.0923368054364
31
0.00000000000000
  0
LINE
  5
F10354
330
F10355
100
AcDbEntity
8
Geo
100
AcDbLine
10
-60.1132572266335
20
19.0923368054364
30
0.00000000000000
11
-60.1122572266335
21
19.0917868506517
31
0.00000000000000
  0
LINE
  5
F10356
330
F10357
100
AcDbEntity
8
Geo
100
AcDbLine
10
-60.1122572266335
20
19.0917868506517
30
0.00000000000000
11
-60.1112572266335
21
19.0912358905309
31
0.00000000000000
  0
LINE
  5
F10358
330
F10359
100
AcDbEntity
8
Geo
100
AcDbLine
10
-60.1112572266335
20
19.0912358905309
30
0.00000000000000
11
-60.1102572266335
21
19.0906839434973
31
0.00000000000000
  0
LINE
  5
F1035A
330
F1035B
100
AcDbEntity
8
Geo
100
AcDbLine
10
-60.1102572266335
20
19.0906839434973
30
0.00000000000000
11
-60.1092572266335
21
19.0901310280398
31
0.00000000000000
  0
LINE
  5
F1035C
330
F1035D
100
AcDbEntity
8
Geo
100
AcDbLine
10
-60.1092572266335
20
19.0901310280398
30
0.00000000000000
11
-60.1082572266335
21
19.0895771627281
31
0.00000000000000
  0
LINE
  5
F1035E
330
F1035F
100
AcDbEntity
8
Geo
100
AcDbLine
10
-60.1082572266335
20
19.0895771627281
30
0.00000000000000
11
-60.1072572266335
21
19.0890223662343
31
0.00000000000000
  0
LINE
  5
F10360
330
F10361
100
AcDbEntity
8
Geo
100
AcDbLine
10
-60.1072572266335
20
19.0890223662343
30
0.00000000000000
11
-60.1062572266335
21
19.0884666573618
31
0.00000000000000
  0
LINE
  5
F10362
330
F10363
100
AcDbEntity
8
Geo
100
AcDbLine
10
-60.1062572266335
20
19.0884666573618
30
0.00000000000000
11
-60.1052572266335
21
19.0879100550863
31
0.00000000000000
  0
LINE
  5
F10364
330
F10365
100
AcDbEntity
8
Geo
100
AcDbLine
10
-60.1052572266335
20
19.0879100550863
30
0.00000000000000
11
-60.1042572266335
21
19.0873525786094
31
0.00000000000000
  0
LINE
  5
F10366
330
F10367
100
AcDbEntity
8
Geo
100
AcDbLine
10
-60.1042572266335
20
19.0873525786094
30
0.00000000000000
11
-60.1032572266335
21
19.0867942474306
31
0.00000000000000
  0
LINE
  5
F10368
330
F10369
100
AcDbEntity
8
Geo
100
AcDbLine
10
-60.1032572266335
20
19.0867942474306
30
0.00000000000000
11
-60.1022572266335
21
19.0862350814418
31
0.00000000000000
  0
LINE
  5
F1036A
330
F1036B
100
AcDbEntity
8
Geo
100
AcDbLine
10
-60.1022572266335
20
19.0862350814418
30
0.00000000000000
11
-60.1012572266335
21
19.0856751010498
31
0.00000000000000
  0
LINE
  5
F1036C
330
F1036D
100
AcDbEntity
8
Geo
100
AcDbLine
10
-60.1012572266335
20
19.0856751010498
30
0.00000000000000
11
-60.1002572266335
21
19.0851143273337
31
0.00000000000000
  0
LINE
  5
F1036E
330
F1036F
100
AcDbEntity
8
Geo
100
AcDbLine
10
-60.1002572266335
20
19.0851143273337
30
0.00000000000000
11
-60.0992572266335
21
19.0845527822466
31
0.00000000000000
  0
LINE
  5
F10370
330
F10371
100
AcDbEntity
8
Geo
100
AcDbLine
10
-60.0992572266335
20
19.0845527822466
30
0.00000000000000
11
-60.0982572266335
21
19.0839904888689
31
0.00000000000000
  0
LINE
  5
F10372
330
F10373
100
AcDbEntity
8
Geo
100
AcDbLine
10
-60.0982572266335
20
19.0839904888689
30
0.00000000000000
11
-60.0972572266335
21
19.0834274717281
31
0.00000000000000
  0
LINE
  5
F10374
330
F10375
100
AcDbEntity
8
Geo
100
AcDbLine
10
-60.0972572266335
20
19.0834274717281
30
0.00000000000000
11
-60.0962572266335
21
19.0828637571958
31
0.00000000000000
  0
LINE
  5
F10376
330
F10377
100
AcDbEntity
8
Geo
100
AcDbLine
10
-60.0962572266335
20
19.0828637571958
30
0.00000000000000
11
-60.0952572266335
21
19.0822993739797
31
0.00000000000000
  0
LINE
  5
F10378
330
F10379
100
AcDbEntity
8
Geo
100
AcDbLine
10
-60.0952572266335
20
19.0822993739797
30
0.00000000000000
11
-60.0942572266335
21
19.0817343537281
31
0.00000000000000
  0
LINE
  5
F1037A
330
F1037B
100
AcDbEntity
8
Geo
100
AcDbLine
10
-60.0942572266335
20
19.0817343537281
30
0.00000000000000
11
-60.0932572266335
21
19.0811687317696
31
0.00000000000000
  0
LINE
  5
F1037C
330
F1037D
100
AcDbEntity
8
Geo
100
AcDbLine
10
-60.0932572266335
20
19.0811687317696
30
0.00000000000000
11
-60.0922572266335
21
19.0806025480107
31
0.00000000000000
  0
LINE
  5
F1037E
330
F1037F
100
AcDbEntity
8
Geo
100
AcDbLine
10
-60.0922572266335
20
19.0806025480107
30
0.00000000000000
11
-60.0912572266335
21
19.0800358480229
31
0.00000000000000
  0
LINE
  5
F10380
330
F10381
100
AcDbEntity
8
Geo
100
AcDbLine
10
-60.0912572266335
20
19.0800358480229
30
0.00000000000000
11
-60.0902572266335
21
19.0794686843482
31
0.00000000000000
  0
LINE
  5
F10382
330
F10383
100
AcDbEntity
8
Geo
100
AcDbLine
10
-60.0902572266335
20
19.0794686843482
30
0.00000000000000
11
-60.0892572266335
21
19.0789011180637
31
0.00000000000000
  0
LINE
  5
F10384
330
F10385
100
AcDbEntity
8
Geo
100
AcDbLine
10
-60.0892572266335
20
19.0789011180637
30
0.00000000000000
11
-60.0882572266335
21
19.0783332206450
31
0.00000000000000
  0
LINE
  5
F10386
330
F10387
100
AcDbEntity
8
Geo
100
AcDbLine
10
-60.0882572266335
20
19.0783332206450
30
0.00000000000000
11
-60.0872572266335
21
19.0777650761769
31
0.00000000000000
  0
LINE
  5
F10388
330
F10389
100
AcDbEntity
8
Geo
100
AcDbLine
10
-60.0872572266335
20
19.0777650761769
30
0.00000000000000
11
-60.0862572266335
21
19.0771967839664
31
0.00000000000000
  0
LINE
  5
F1038A
330
F1038B
100
AcDbEntity
8
Geo
100
AcDbLine
10
-60.0862572266335
20
19.0771967839664
30
0.00000000000000
11
-60.0852572266335
21
19.0766284616168
31
0.00000000000000
  0
LINE
  5
F1038C
330
F1038D
100
AcDbEntity
8
Geo
100
AcDbLine
10
-60.0852572266335
20
19.0766284616168
30
0.00000000000000
11
-60.0842572266335
21
19.0760602486326
31
0.00000000000000
  0
LINE
  5
F1038E
330
F1038F
100
AcDbEntity
8
Geo
100
AcDbLine
10
-60.0842572266335
20
19.0760602486326
30
0.00000000000000
11
-60.0832572266335
21
19.0754923106303
31
0.00000000000000
  0
LINE
  5
F10390
330
F10391
100
AcDbEntity
8
Geo
100
AcDbLine
10
-60.0832572266335
20
19.0754923106303
30
0.00000000000000
11
-60.0822572266335
21
19.0749248442409
31
0.00000000000000
  0
LINE
  5
F10392
330
F10393
100
AcDbEntity
8
Geo
100
AcDbLine
10
-60.0822572266335
20
19.0749248442409
30
0.00000000000000
11
-60.0812572266335
21
19.0743580827979
31
0.00000000000000
  0
LINE
  5
F10394
330
F10395
100
AcDbEntity
8
Geo
100
AcDbLine
10
-60.0812572266335
20
19.0743580827979
30
0.00000000000000
11
-60.0802572266335
21
19.0737923029167
31
0.00000000000000
  0
LINE
  5
F10396
330
F10397
100
AcDbEntity
8
Geo
100
AcDbLine
10
-60.0802572266335
20
19.0737923029167
30
0.00000000000000
11
-60.0792572266335
21
19.0732278320805
31
0.00000000000000
  0
LINE
  5
F10398
330
F10399
100
AcDbEntity
8
Geo
100
AcDbLine
10
-60.0792572266335
20
19.0732278320805
30
0.00000000000000
11
-60.0782572266335
21
19.0726650573631
31
0.00000000000000
  0
LINE
  5
F1039A
330
F1039B
100
AcDbEntity
8
Geo
100
AcDbLine
10
-60.0782572266335
20
19.0726650573631
30
0.00000000000000
11
-60.0772572266335
21
19.0721044354280
31
0.00000000000000
  0
LINE
  5
F1039C
330
F1039D
100
AcDbEntity
8
Geo
100
AcDbLine
10
-60.0772572266335
20
19.0721044354280
30
0.00000000000000
11
-60.0762572266335
21
19.0715465039628
31
0.00000000000000
  0
LINE
  5
F1039E
330
F1039F
100
AcDbEntity
8
Geo
100
AcDbLine
10
-60.0762572266335
20
19.0715465039628
30
0.00000000000000
11
-60.0752572266335
21
19.0709918947178
31
0.00000000000000
  0
LINE
  5
F103A0
330
F103A1
100
AcDbEntity
8
Geo
100
AcDbLine
10
-60.0752572266335
20
19.0709918947178
30
0.00000000000000
11
-60.0742572266335
21
19.0704413483391
31
0.00000000000000
  0
LINE
  5
F103A2
330
F103A3
100
AcDbEntity
8
Geo
100
AcDbLine
10
-60.0742572266335
20
19.0704413483391
30
0.00000000000000
11
-60.0732572266335
21
19.0698957312013
31
0.00000000000000
  0
LINE
  5
F103A4
330
F103A5
100
AcDbEntity
8
Geo
100
AcDbLine
10
-60.0732572266335
20
19.0698957312013
30
0.00000000000000
11
-60.0722572266335
21
19.0693560544665
31
0.00000000000000
  0
LINE
  5
F103A6
330
F103A7
100
AcDbEntity
8
Geo
100
AcDbLine
10
-60.0722572266335
20
19.0693560544665
30
0.00000000000000
11
-60.0712572266335
21
19.0688234956152
31
0.00000000000000
  0
LINE
  5
F103A8
330
F103A9
100
AcDbEntity
8
Geo
100
AcDbLine
10
-60.0712572266335
20
19.0688234956152
30
0.00000000000000
11
-60.0702572266335
21
19.0682994227199
31
0.00000000000000
  0
LINE
  5
F103AA
330
F103AB
100
AcDbEntity
8
Geo
100
AcDbLine
10
-60.0702572266335
20
19.0682994227199
30
0.00000000000000
11
-60.0692572266335
21
19.0677854217547
31
0.00000000000000
  0
LINE
  5
F103AC
330
F103AD
100
AcDbEntity
8
Geo
100
AcDbLine
10
-60.0692572266335
20
19.0677854217547
30
0.00000000000000
11
-60.0682572266335
21
19.0672833272626
31
0.00000000000000
  0
LINE
  5
F103AE
330
F103AF
100
AcDbEntity
8
Geo
100
AcDbLine
10
-60.0682572266335
20
19.0672833272626
30
0.00000000000000
11
-60.0672572266335
21
19.0667952567293
31
0.00000000000000
  0
LINE
  5
F103B0
330
F103B1
100
AcDbEntity
8
Geo
100
AcDbLine
10
-60.0672572266335
20
19.0667952567293
30
0.00000000000000
11
-60.0662572266335
21
19.0663236490470
31
0.00000000000000
  0
LINE
  5
F103B2
330
F103B3
100
AcDbEntity
8
Geo
100
AcDbLine
10
-60.0662572266335
20
19.0663236490470
30
0.00000000000000
11
-60.0652572266335
21
19.0658713074839
31
0.00000000000000
  0
LINE
  5
F103B4
330
F103B5
100
AcDbEntity
8
Geo
100
AcDbLine
10
-60.0652572266335
20
19.0658713074839
30
0.00000000000000
11
-60.0642572266335
21
19.0654414476126
31
0.00000000000000
  0
LINE
  5
F103B6
330
F103B7
100
AcDbEntity
8
Geo
100
AcDbLine
10
-60.0642572266335
20
19.0654414476126
30
0.00000000000000
11
-60.0632572266335
21
19.0650377506937
31
0.00000000000000
  0
LINE
  5
F103B8
330
F103B9
100
AcDbEntity
8
Geo
100
AcDbLine
10
-60.0632572266335
20
19.0650377506937
30
0.00000000000000
11
-60.0622572266335
21
19.0646644230514
31
0.00000000000000
  0
LINE
  5
F103BA
330
F103BB
100
AcDbEntity
8
Geo
100
AcDbLine
10
-60.0622572266335
20
19.0646644230514
30
0.00000000000000
11
-60.0612572266335
21
19.0643262620253
31
0.00000000000000
  0
LINE
  5
F103BC
330
F103BD
100
AcDbEntity
8
Geo
100
AcDbLine
10
-60.0612572266335
20
19.0643262620253
30
0.00000000000000
11
-60.0602572266335
21
19.0640287291291
31
0.00000000000000
  0
LINE
  5
F103BE
330
F103BF
100
AcDbEntity
8
Geo
100
AcDbLine
10
-60.0602572266335
20
19.0640287291291
30
0.00000000000000
11
-60.0592572266335
21
19.0637780310911
31
0.00000000000000
  0
LINE
  5
F103C0
330
F103C1
100
AcDbEntity
8
Geo
100
AcDbLine
10
-60.0592572266335
20
19.0637780310911
30
0.00000000000000
11
-60.0582572266335
21
19.0635812094889
31
0.00000000000000
  0
LINE
  5
F103C2
330
F103C3
100
AcDbEntity
8
Geo
100
AcDbLine
10
-60.0582572266335
20
19.0635812094889
30
0.00000000000000
11
-60.0572572266335
21
19.0634462397169
31
0.00000000000000
  0
LINE
  5
F103C4
330
F103C5
100
AcDbEntity
8
Geo
100
AcDbLine
10
-60.0572572266335
20
19.0634462397169
30
0.00000000000000
11
-60.0562572266335
21
19.0633821400202
31
0.00000000000000
  0
LINE
  5
F103C6
330
F103C7
100
AcDbEntity
8
Geo
100
AcDbLine
10
-60.0562572266335
20
19.0633821400202
30
0.00000000000000
11
-60.0552572266335
21
19.0633990912845
31
0.00000000000000
  0
LINE
  5
F103C8
330
F103C9
100
AcDbEntity
8
Geo
100
AcDbLine
10
-60.0552572266335
20
19.0633990912845
30
0.00000000000000
11
-60.0542572266335
21
19.0635085681481
31
0.00000000000000
  0
LINE
  5
F103CA
330
F103CB
100
AcDbEntity
8
Geo
100
AcDbLine
10
-60.0542572266335
20
19.0635085681481
30
0.00000000000000
11
-60.0532572266335
21
19.0637234817664
31
0.00000000000000
  0
LINE
  5
F103CC
330
F103CD
100
AcDbEntity
8
Geo
100
AcDbLine
10
-60.0532572266335
20
19.0637234817664
30
0.00000000000000
11
-60.0522572266335
21
19.0640583341378
31
0.00000000000000
  0
LINE
  5
F103CE
330
F103CF
100
AcDbEntity
8
Geo
100
AcDbLine
10
-60.0522572266335
20
19.0640583341378
30
0.00000000000000
11
-60.0512572266335
21
19.0645293832080
31
0.00000000000000
  0
LINE
  5
F103D0
330
F103D1
100
AcDbEntity
8
Geo
100
AcDbLine
10
-60.0512572266335
20
19.0645293832080
30
0.00000000000000
11
-60.0502572266335
21
19.0651548168620
31
0.00000000000000
  0
LINE
  5
F103D2
330
F103D3
100
AcDbEntity
8
Geo
100
AcDbLine
10
-60.0502572266335
20
19.0651548168620
30
0.00000000000000
11
-60.0492572266335
21
19.0659549322027
31
0.00000000000000
  0
LINE
  5
F103D4
330
F103D5
100
AcDbEntity
8
Geo
100
AcDbLine
10
-60.0492572266335
20
19.0659549322027
30
0.00000000000000
11
-60.0482572266335
21
19.0669523139196
31
0.00000000000000
  0
LINE
  5
F103D6
330
F103D7
100
AcDbEntity
8
Geo
100
AcDbLine
10
-60.0482572266335
20
19.0669523139196
30
0.00000000000000
11
-60.0472572266335
21
19.0681720016841
31
0.00000000000000
  0
LINE
  5
F103D8
330
F103D9
100
AcDbEntity
8
Geo
100
AcDbLine
10
-60.0472572266335
20
19.0681720016841
30
0.00000000000000
11
-60.0462572266335
21
19.0696416308270
31
0.00000000000000
  0
LINE
  5
F103DA
330
F103DB
100
AcDbEntity
8
Geo
100
AcDbLine
10
-60.0462572266335
20
19.0696416308270
30
0.00000000000000
11
-60.0452572266335
21
19.0713915223170
31
0.00000000000000
  0
LINE
  5
F103DC
330
F103DD
100
AcDbEntity
8
Geo
100
AcDbLine
10
-60.0452572266335
20
19.0713915223170
30
0.00000000000000
11
-60.0442572266335
21
19.0734546862617
31
0.00000000000000
  0
LINE
  5
F103DE
330
F103DF
100
AcDbEntity
8
Geo
100
AcDbLine
10
-60.0442572266335
20
19.0734546862617
30
0.00000000000000
11
-60.0432572266335
21
19.0758666864455
31
0.00000000000000
  0
LINE
  5
F103E0
330
F103E1
100
AcDbEntity
8
Geo
100
AcDbLine
10
-60.0432572266335
20
19.0758666864455
30
0.00000000000000
11
-60.0422572266335
21
19.0786652900766
31
0.00000000000000
  0
LINE
  5
F103E2
330
F103E3
100
AcDbEntity
8
Geo
100
AcDbLine
10
-60.0422572266335
20
19.0786652900766
30
0.00000000000000
11
-60.0412572266335
21
19.0818897947135
31
0.00000000000000
  0
LINE
  5
F103E4
330
F103E5
100
AcDbEntity
8
Geo
100
AcDbLine
10
-60.0412572266335
20
19.0818897947135
30
0.00000000000000
11
-60.0402572266335
21
19.0855798806462
31
0.00000000000000
  0
LINE
  5
F103E6
330
F103E7
100
AcDbEntity
8
Geo
100
AcDbLine
10
-60.0402572266335
20
19.0855798806462
30
0.00000000000000
11
-60.0392572266335
21
19.0897737788248
31
0.00000000000000
  0
LINE
  5
F103E8
330
F103E9
100
AcDbEntity
8
Geo
100
AcDbLine
10
-60.0392572266335
20
19.0897737788248
30
0.00000000000000
11
-60.0382572266335
21
19.0945054688627
31
0.00000000000000
  0
LINE
  5
F103EA
330
F103EB
100
AcDbEntity
8
Geo
100
AcDbLine
10
-60.0382572266335
20
19.0945054688627
30
0.00000000000000
11
-60.0372572266335
21
19.0998005267437
31
0.00000000000000
  0
LINE
  5
F103EC
330
F103ED
100
AcDbEntity
8
Geo
100
AcDbLine
10
-60.0372572266335
20
19.0998005267437
30
0.00000000000000
11
-60.0362572266335
21
19.1056701284130
31
0.00000000000000
  0
LINE
  5
F103EE
330
F103EF
100
AcDbEntity
8
Geo
100
AcDbLine
10
-60.0362572266335
20
19.1056701284130
30
0.00000000000000
11
-60.0352572266335
21
19.1121025902004
31
0.00000000000000
  0
LINE
  5
F103F0
330
F103F1
100
AcDbEntity
8
Geo
100
AcDbLine
10
-60.0352572266335
20
19.1121025902004
30
0.00000000000000
11
-60.0342572266335
21
19.1190517084881
31
0.00000000000000
  0
LINE
  5
F103F2
330
F103F3
100
AcDbEntity
8
Geo
100
AcDbLine
10
-60.0342572266335
20
19.1190517084881
30
0.00000000000000
11
-60.0332572266335
21
19.1264210888184
31
0.00000000000000
  0
LINE
  5
F103F4
330
F103F5
100
AcDbEntity
8
Geo
100
AcDbLine
10
-60.0332572266335
20
19.1264210888184
30
0.00000000000000
11
-60.0322572266335
21
19.1340437044776
31
0.00000000000000
  0
LINE
  5
F103F6
330
F103F7
100
AcDbEntity
8
Geo
100
AcDbLine
10
-60.0322572266335
20
19.1340437044776
30
0.00000000000000
11
-60.0312572266335
21
19.1416562303059
31
0.00000000000000
  0
LINE
  5
F103F8
330
F103F9
100
AcDbEntity
8
Geo
100
AcDbLine
10
-60.0312572266335
20
19.1416562303059
30
0.00000000000000
11
-60.0312572266335
21
19.1448783386257
31
0.00000000000000
  0
LINE
  5
F103FA
330
F103FB
100
AcDbEntity
8
Geo
100
AcDbLine
10
-60.0312572266335
20
19.1448783386257
30
0.00000000000000
11
-60.0322572266335
21
19.1500951088479
31
0.00000000000000
  0
LINE
  5
F103FC
330
F103FD
100
AcDbEntity
8
Geo
100
AcDbLine
10
-60.0322572266335
20
19.1500951088479
30
0.00000000000000
11
-60.0332572266335
21
19.1542104116080
31
0.00000000000000
  0
LINE
  5
F103FE
330
F103FF
100
AcDbEntity
8
Geo
100
AcDbLine
10
-60.0332572266335
20
19.1542104116080
30
0.00000000000000
11
-60.0342572266335
21
19.1573159175979
31
0.00000000000000
  0
LINE
  5
F10400
330
F10401
100
AcDbEntity
8
Geo
100
AcDbLine
10
-60.0342572266335
20
19.1573159175979
30
0.00000000000000
11
-60.0352572266335
21
19.1595078551435
31
0.00000000000000
  0
LINE
  5
F10402
330
F10403
100
AcDbEntity
8
Geo
100
AcDbLine
10
-60.0352572266335
20
19.1595078551435
30
0.00000000000000
11
-60.0362572266335
21
19.1608834073581
31
0.00000000000000
  0
LINE
  5
F10404
330
F10405
100
AcDbEntity
8
Geo
100
AcDbLine
10
-60.0362572266335
20
19.1608834073581
30
0.00000000000000
11
-60.0372572266335
21
19.1615379710598
31
0.00000000000000
  0
LINE
  5
F10406
330
F10407
100
AcDbEntity
8
Geo
100
AcDbLine
10
-60.0372572266335
20
19.1615379710598
30
0.00000000000000
11
-60.0378003263093
21
19.1616240965206
31
0.00000000000000
  0
LINE
  5
F10408
330
F10409
100
AcDbEntity
8
Geo
100
AcDbLine
10
-60.0378003263093
20
18.9616240965206
30
0.00000000000000
11
-60.0382572266335
21
18.9616850446965
31
0.00000000000000
  0
LINE
  5
F1040A
330
F1040B
100
AcDbEntity
8
Geo
100
AcDbLine
10
-60.0382572266335
20
18.9616850446965
30
0.00000000000000
11
-60.0392572266335
21
18.9622028460581
31
0.00000000000000
  0
LINE
  5
F1040C
330
F1040D
100
AcDbEntity
8
Geo
100
AcDbLine
10
-60.0392572266335
20
18.9622028460581
30
0.00000000000000
11
-60.0402572266335
21
18.9631833172485
31
0.00000000000000
  0
LINE
  5
F1040E
330
F1040F
100
AcDbEntity
8
Geo
100
AcDbLine
10
-60.0402572266335
20
18.9631833172485
30
0.00000000000000
11
-60.0412572266335
21
18.9645527593892
31
0.00000000000000
  0
LINE
  5
F10410
330
F10411
100
AcDbEntity
8
Geo
100
AcDbLine
10
-60.0412572266335
20
18.9645527593892
30
0.00000000000000
11
-60.0422572266335
21
18.9662442887642
31
0.00000000000000
  0
LINE
  5
F10412
330
F10413
100
AcDbEntity
8
Geo
100
AcDbLine
10
-60.0422572266335
20
18.9662442887642
30
0.00000000000000
11
-60.0432572266335
21
18.9681978107868
31
0.00000000000000
  0
LINE
  5
F10414
330
F10415
100
AcDbEntity
8
Geo
100
AcDbLine
10
-60.0432572266335
20
18.9681978107868
30
0.00000000000000
11
-60.0442572266335
21
18.9703598246331
31
0.00000000000000
  0
LINE
  5
F10416
330
F10417
100
AcDbEntity
8
Geo
100
AcDbLine
10
-60.0442572266335
20
18.9703598246331
30
0.00000000000000
11
-60.0452572266335
21
18.9726831090364
31
0.00000000000000
  0
LINE
  5
F10418
330
F10419
100
AcDbEntity
8
Geo
100
AcDbLine
10
-60.0452572266335
20
18.9726831090364
30
0.00000000000000
11
-60.0462572266335
21
18.9751263296648
31
0.00000000000000
  0
LINE
  5
F1041A
330
F1041B
100
AcDbEntity
8
Geo
100
AcDbLine
10
-60.0462572266335
20
18.9751263296648
30
0.00000000000000
11
-60.0472572266335
21
18.9776535998238
31
0.00000000000000
  0
LINE
  5
F1041C
330
F1041D
100
AcDbEntity
8
Geo
100
AcDbLine
10
-60.0472572266335
20
18.9776535998238
30
0.00000000000000
11
-60.0482572266335
21
18.9802340188989
31
0.00000000000000
  0
LINE
  5
F1041E
330
F1041F
100
AcDbEntity
8
Geo
100
AcDbLine
10
-60.0482572266335
20
18.9802340188989
30
0.00000000000000
11
-60.0492572266335
21
18.9828412068724
31
0.00000000000000
  0
LINE
  5
F10420
330
F10421
100
AcDbEntity
8
Geo
100
AcDbLine
10
-60.0492572266335
20
18.9828412068724
30
0.00000000000000
11
-60.0502572266335
21
18.9854528482921
31
0.00000000000000
  0
LINE
  5
F10422
330
F10423
100
AcDbEntity
8
Geo
100
AcDbLine
10
-60.0502572266335
20
18.9854528482921
30
0.00000000000000
11
-60.0512572266335
21
18.9880502550845
31
0.00000000000000
  0
LINE
  5
F10424
330
F10425
100
AcDbEntity
8
Geo
100
AcDbLine
10
-60.0512572266335
20
18.9880502550845
30
0.00000000000000
11
-60.0522572266335
21
18.9906179544632
31
0.00000000000000
  0
LINE
  5
F10426
330
F10427
100
AcDbEntity
8
Geo
100
AcDbLine
10
-60.0522572266335
20
18.9906179544632
30
0.00000000000000
11
-60.0532572266335
21
18.9931433057358
31
0.00000000000000
  0
LINE
  5
F10428
330
F10429
100
AcDbEntity
8
Geo
100
AcDbLine
10
-60.0532572266335
20
18.9931433057358
30
0.00000000000000
11
-60.0542572266335
21
18.9956161479568
31
0.00000000000000
  0
LINE
  5
F1042A
330
F1042B
100
AcDbEntity
8
Geo
100
AcDbLine
10
-60.0542572266335
20
18.9956161479568
30
0.00000000000000
11
-60.0552572266335
21
18.9980284789796
31
0.00000000000000
  0
LINE
  5
F1042C
330
F1042D
100
AcDbEntity
8
Geo
100
AcDbLine
10
-60.0552572266335
20
18.9980284789796
30
0.00000000000000
11
-60.0562572266335
21
19.0003741654595
31
0.00000000000000
  0
LINE
  5
F1042E
330
F1042F
100
AcDbEntity
8
Geo
100
AcDbLine
10
-60.0562572266335
20
19.0003741654595
30
0.00000000000000
11
-60.0572572266335
21
19.0026486826492
31
0.00000000000000
  0
LINE
  5
F10430
330
F10431
100
AcDbEntity
8
Geo
100
AcDbLine
10
-60.0572572266335
20
19.0026486826492
30
0.00000000000000
11
-60.0582572266335
21
19.0048488823633
31
0.00000000000000
  0
LINE
  5
F10432
330
F10433
100
AcDbEntity
8
Geo
100
AcDbLine
10
-60.0582572266335
20
19.0048488823633
30
0.00000000000000
11
-60.0592572266335
21
19.0069727871954
31
0.00000000000000
  0
LINE
  5
F10434
330
F10435
100
AcDbEntity
8
Geo
100
AcDbLine
10
-60.0592572266335
20
19.0069727871954
30
0.00000000000000
11
-60.0602572266335
21
19.0090194089247
31
0.00000000000000
  0
LINE
  5
F10436
330
F10437
100
AcDbEntity
8
Geo
100
AcDbLine
10
-60.0602572266335
20
19.0090194089247
30
0.00000000000000
11
-60.0612572266335
21
19.0109885889951
31
0.00000000000000
  0
LINE
  5
F10438
330
F10439
100
AcDbEntity
8
Geo
100
AcDbLine
10
-60.0612572266335
20
19.0109885889951
30
0.00000000000000
11
-60.0622572266335
21
19.0128808589753
31
0.00000000000000
  0
LINE
  5
F1043A
330
F1043B
100
AcDbEntity
8
Geo
100
AcDbLine
10
-60.0622572266335
20
19.0128808589753
30
0.00000000000000
11
-60.0632572266335
21
19.0146973189834
31
0.00000000000000
  0
LINE
  5
F1043C
330
F1043D
100
AcDbEntity
8
Geo
100
AcDbLine
10
-60.0632572266335
20
19.0146973189834
30
0.00000000000000
11
-60.0642572266335
21
19.0164395321638
31
0.00000000000000
  0
LINE
  5
F1043E
330
F1043F
100
AcDbEntity
8
Geo
100
AcDbLine
10
-60.0642572266335
20
19.0164395321638
30
0.00000000000000
11
-60.0652572266335
21
19.0181094334385
31
0.00000000000000
  0
LINE
  5
F10440
330
F10441
100
AcDbEntity
8
Geo
100
AcDbLine
10
-60.0652572266335
20
19.0181094334385
30
0.00000000000000
11
-60.0662572266335
21
19.0197092508897
31
0.00000000000000
  0
LINE
  5
F10442
330
F10443
100
AcDbEntity
8
Geo
100
AcDbLine
10
-60.0662572266335
20
19.0197092508897
30
0.00000000000000
11
-60.0672572266335
21
19.0212414382762
31
0.00000000000000
  0
LINE
  5
F10444
330
F10445
100
AcDbEntity
8
Geo
100
AcDbLine
10
-60.0672572266335
20
19.0212414382762
30
0.00000000000000
11
-60.0682572266335
21
19.0227086173299
31
0.00000000000000
  0
LINE
  5
F10446
330
F10447
100
AcDbEntity
8
Geo
100
AcDbLine
10
-60.0682572266335
20
19.0227086173299
30
0.00000000000000
11
-60.0692572266335
21
19.0241135286110
31
0.00000000000000
  0
LINE
  5
F10448
330
F10449
100
AcDbEntity
8
Geo
100
AcDbLine
10
-60.0692572266335
20
19.0241135286110
30
0.00000000000000
11
-60.0702572266335
21
19.0254589898356
31
0.00000000000000
  0
LINE
  5
F1044A
330
F1044B
100
AcDbEntity
8
Geo
100
AcDbLine
10
-60.0702572266335
20
19.0254589898356
30
0.00000000000000
11
-60.0712572266335
21
19.0267478607055
31
0.00000000000000
  0
LINE
  5
F1044C
330
F1044D
100
AcDbEntity
8
Geo
100
AcDbLine
10
-60.0712572266335
20
19.0267478607055
30
0.00000000000000
11
-60.0722572266335
21
19.0279830133850
31
0.00000000000000
  0
LINE
  5
F1044E
330
F1044F
100
AcDbEntity
8
Geo
100
AcDbLine
10
-60.0722572266335
20
19.0279830133850
30
0.00000000000000
11
-60.0732572266335
21
19.0291673078675
31
0.00000000000000
  0
LINE
  5
F10450
330
F10451
100
AcDbEntity
8
Geo
100
AcDbLine
10
-60.0732572266335
20
19.0291673078675
30
0.00000000000000
11
-60.0742572266335
21
19.0303035715700
31
0.00000000000000
  0
LINE
  5
F10452
330
F10453
100
AcDbEntity
8
Geo
100
AcDbLine
10
-60.0742572266335
20
19.0303035715700
30
0.00000000000000
11
-60.0752572266335
21
19.0313945825721
31
0.00000000000000
  0
LINE
  5
F10454
330
F10455
100
AcDbEntity
8
Geo
100
AcDbLine
10
-60.0752572266335
20
19.0313945825721
30
0.00000000000000
11
-60.0762572266335
21
19.0324430559931
31
0.00000000000000
  0
LINE
  5
F10456
330
F10457
100
AcDbEntity
8
Geo
100
AcDbLine
10
-60.0762572266335
20
19.0324430559931
30
0.00000000000000
11
-60.0772572266335
21
19.0334516330636
31
0.00000000000000
  0
LINE
  5
F10458
330
F10459
100
AcDbEntity
8
Geo
100
AcDbLine
10
-60.0772572266335
20
19.0334516330636
30
0.00000000000000
11
-60.0782572266335
21
19.0344228725072
31
0.00000000000000
  0
LINE
  5
F1045A
330
F1045B
100
AcDbEntity
8
Geo
100
AcDbLine
10
-60.0782572266335
20
19.0344228725072
30
0.00000000000000
11
-60.0792572266335
21
19.0353592438980
31
0.00000000000000
  0
LINE
  5
F1045C
330
F1045D
100
AcDbEntity
8
Geo
100
AcDbLine
10
-60.0792572266335
20
19.0353592438980
30
0.00000000000000
11
-60.0802572266335
21
19.0362631227043
31
0.00000000000000
  0
LINE
  5
F1045E
330
F1045F
100
AcDbEntity
8
Geo
100
AcDbLine
10
-60.0802572266335
20
19.0362631227043
30
0.00000000000000
11
-60.0812572266335
21
19.0371367867685
31
0.00000000000000
  0
LINE
  5
F10460
330
F10461
100
AcDbEntity
8
Geo
100
AcDbLine
10
-60.0812572266335
20
19.0371367867685
30
0.00000000000000
11
-60.0822572266335
21
19.0379824140062
31
0.00000000000000
  0
LINE
  5
F10462
330
F10463
100
AcDbEntity
8
Geo
100
AcDbLine
10
-60.0822572266335
20
19.0379824140062
30
0.00000000000000
11
-60.0832572266335
21
19.0388020811387
31
0.00000000000000
  0
LINE
  5
F10464
330
F10465
100
AcDbEntity
8
Geo
100
AcDbLine
10
-60.0832572266335
20
19.0388020811387
30
0.00000000000000
11
-60.0842572266335
21
19.0395977632975
31
0.00000000000000
  0
LINE
  5
F10466
330
F10467
100
AcDbEntity
8
Geo
100
AcDbLine
10
-60.0842572266335
20
19.0395977632975
30
0.00000000000000
11
-60.0852572266335
21
19.0403713343615
31
0.00000000000000
  0
LINE
  5
F10468
330
F10469
100
AcDbEntity
8
Geo
100
AcDbLine
10
-60.0852572266335
20
19.0403713343615
30
0.00000000000000
11
-60.0862572266335
21
19.0411245679100
31
0.00000000000000
  0
LINE
  5
F1046A
330
F1046B
100
AcDbEntity
8
Geo
100
AcDbLine
10
-60.0862572266335
20
19.0411245679100
30
0.00000000000000
11
-60.0872572266335
21
19.0418591386864
31
0.00000000000000
  0
LINE
  5
F1046C
330
F1046D
100
AcDbEntity
8
Geo
100
AcDbLine
10
-60.0872572266335
20
19.0418591386864
30
0.00000000000000
11
-60.0882572266335
21
19.0425766244863
31
0.00000000000000
  0
LINE
  5
F1046E
330
F1046F
100
AcDbEntity
8
Geo
100
AcDbLine
10
-60.0882572266335
20
19.0425766244863
30
0.00000000000000
11
-60.0892572266335
21
19.0432785083937
31
0.00000000000000
  0
LINE
  5
F10470
330
F10471
100
AcDbEntity
8
Geo
100
AcDbLine
10
-60.0892572266335
20
19.0432785083937
30
0.00000000000000
11
-60.0902572266335
21
19.0439661813017
31
0.00000000000000
  0
LINE
  5
F10472
330
F10473
100
AcDbEntity
8
Geo
100
AcDbLine
10
-60.0902572266335
20
19.0439661813017
30
0.00000000000000
11
-60.0912572266335
21
19.0446409446594
31
0.00000000000000
  0
LINE
  5
F10474
330
F10475
100
AcDbEntity
8
Geo
100
AcDbLine
10
-60.0912572266335
20
19.0446409446594
30
0.00000000000000
11
-60.0922572266335
21
19.0453040134010
31
0.00000000000000
  0
LINE
  5
F10476
330
F10477
100
AcDbEntity
8
Geo
100
AcDbLine
10
-60.0922572266335
20
19.0453040134010
30
0.00000000000000
11
-60.0932572266335
21
19.0459565190132
31
0.00000000000000
  0
LINE
  5
F10478
330
F10479
100
AcDbEntity
8
Geo
100
AcDbLine
10
-60.0932572266335
20
19.0459565190132
30
0.00000000000000
11
-60.0942572266335
21
19.0465995127072
31
0.00000000000000
  0
LINE
  5
F1047A
330
F1047B
100
AcDbEntity
8
Geo
100
AcDbLine
10
-60.0942572266335
20
19.0465995127072
30
0.00000000000000
11
-60.0952572266335
21
19.0472339686657
31
0.00000000000000
  0
LINE
  5
F1047C
330
F1047D
100
AcDbEntity
8
Geo
100
AcDbLine
10
-60.0952572266335
20
19.0472339686657
30
0.00000000000000
11
-60.0962572266335
21
19.0478607873381
31
0.00000000000000
  0
LINE
  5
F1047E
330
F1047F
100
AcDbEntity
8
Geo
100
AcDbLine
10
-60.0962572266335
20
19.0478607873381
30
0.00000000000000
11
-60.0972572266335
21
19.0484807987627
31
0.00000000000000
  0
LINE
  5
F10480
330
F10481
100
AcDbEntity
8
Geo
100
AcDbLine
10
-60.0972572266335
20
19.0484807987627
30
0.00000000000000
11
-60.0982572266335
21
19.0490947658968
31
0.00000000000000
  0
LINE
  5
F10482
330
F10483
100
AcDbEntity
8
Geo
100
AcDbLine
10
-60.0982572266335
20
19.0490947658968
30
0.00000000000000
11
-60.0992572266335
21
19.0497033879387
31
0.00000000000000
  0
LINE
  5
F10484
330
F10485
100
AcDbEntity
8
Geo
100
AcDbLine
10
-60.0992572266335
20
19.0497033879387
30
0.00000000000000
11
-60.1002572266335
21
19.0503073036262
31
0.00000000000000
  0
LINE
  5
F10486
330
F10487
100
AcDbEntity
8
Geo
100
AcDbLine
10
-60.1002572266335
20
19.0503073036262
30
0.00000000000000
11
-60.1012572266335
21
19.0509070945027
31
0.00000000000000
  0
LINE
  5
F10488
330
F10489
100
AcDbEntity
8
Geo
100
AcDbLine
10
-60.1012572266335
20
19.0509070945027
30
0.00000000000000
11
-60.1022572266335
21
19.0515032881372
31
0.00000000000000
  0
LINE
  5
F1048A
330
F1048B
100
AcDbEntity
8
Geo
100
AcDbLine
10
-60.1022572266335
20
19.0515032881372
30
0.00000000000000
11
-60.1032572266335
21
19.0520963612913
31
0.00000000000000
  0
LINE
  5
F1048C
330
F1048D
100
AcDbEntity
8
Geo
100
AcDbLine
10
-60.1032572266335
20
19.0520963612913
30
0.00000000000000
11
-60.1042572266335
21
19.0526867430251
31
0.00000000000000
  0
LINE
  5
F1048E
330
F1048F
100
AcDbEntity
8
Geo
100
AcDbLine
10
-60.1042572266335
20
19.0526867430251
30
0.00000000000000
11
-60.1052572266335
21
19.0532748177349
31
0.00000000000000
  0
LINE
  5
F10490
330
F10491
100
AcDbEntity
8
Geo
100
AcDbLine
10
-60.1052572266335
20
19.0532748177349
30
0.00000000000000
11
-60.1062572266335
21
19.0538609281175
31
0.00000000000000
  0
LINE
  5
F10492
330
F10493
100
AcDbEntity
8
Geo
100
AcDbLine
10
-60.1062572266335
20
19.0538609281175
30
0.00000000000000
11
-60.1072572266335
21
19.0544453780548
31
0.00000000000000
  0
LINE
  5
F10494
330
F10495
100
AcDbEntity
8
Geo
100
AcDbLine
10
-60.1072572266335
20
19.0544453780548
30
0.00000000000000
11
-60.1082572266335
21
19.0550284354159
31
0.00000000000000
  0
LINE
  5
F10496
330
F10497
100
AcDbEntity
8
Geo
100
AcDbLine
10
-60.1082572266335
20
19.0550284354159
30
0.00000000000000
11
-60.1092572266335
21
19.0556103347712
31
0.00000000000000
  0
LINE
  5
F10498
330
F10499
100
AcDbEntity
8
Geo
100
AcDbLine
10
-60.1092572266335
20
19.0556103347712
30
0.00000000000000
11
-60.1102572266335
21
19.0561912800157
31
0.00000000000000
  0
LINE
  5
F1049A
330
F1049B
100
AcDbEntity
8
Geo
100
AcDbLine
10
-60.1102572266335
20
19.0561912800157
30
0.00000000000000
11
-60.1112572266335
21
19.0567714468983
31
0.00000000000000
  0
LINE
  5
F1049C
330
F1049D
100
AcDbEntity
8
Geo
100
AcDbLine
10
-60.1112572266335
20
19.0567714468983
30
0.00000000000000
11
-60.1122572266335
21
19.0573509854542
31
0.00000000000000
  0
LINE
  5
F1049E
330
F1049F
100
AcDbEntity
8
Geo
100
AcDbLine
10
-60.1122572266335
20
19.0573509854542
30
0.00000000000000
11
-60.1132572266335
21
19.0579300223374
31
0.00000000000000
  0
LINE
  5
F104A0
330
F104A1
100
AcDbEntity
8
Geo
100
AcDbLine
10
-60.1132572266335
20
19.0579300223374
30
0.00000000000000
11
-60.1142572266335
21
19.0585086630520
31
0.00000000000000
  0
LINE
  5
F104A2
330
F104A3
100
AcDbEntity
8
Geo
100
AcDbLine
10
-60.1142572266335
20
19.0585086630520
30
0.00000000000000
11
-60.1152572266335
21
19.0590869940795
31
0.00000000000000
  0
LINE
  5
F104A4
330
F104A5
100
AcDbEntity
8
Geo
100
AcDbLine
10
-60.1152572266335
20
19.0590869940795
30
0.00000000000000
11
-60.1162572266335
21
19.0596650848997
31
0.00000000000000
  0
LINE
  5
F104A6
330
F104A7
100
AcDbEntity
8
Geo
100
AcDbLine
10
-60.1162572266335
20
19.0596650848997
30
0.00000000000000
11
-60.1172572266335
21
19.0602429899046
31
0.00000000000000
  0
LINE
  5
F104A8
330
F104A9
100
AcDbEntity
8
Geo
100
AcDbLine
10
-60.1172572266335
20
19.0602429899046
30
0.00000000000000
11
-60.1182572266335
21
19.0608207502033
31
0.00000000000000
  0
LINE
  5
F104AA
330
F104AB
100
AcDbEntity
8
Geo
100
AcDbLine
10
-60.1182572266335
20
19.0608207502033
30
0.00000000000000
11
-60.1192572266335
21
19.0613983953156
31
0.00000000000000
  0
LINE
  5
F104AC
330
F104AD
100
AcDbEntity
8
Geo
100
AcDbLine
10
-60.1192572266335
20
19.0613983953156
30
0.00000000000000
11
-60.1202572266335
21
19.0619759447545
31
0.00000000000000
  0
LINE
  5
F104AE
330
F104AF
100
AcDbEntity
8
Geo
100
AcDbLine
10
-60.1202572266335
20
19.0619759447545
30
0.00000000000000
11
-60.1212572266335
21
19.0625534094945
31
0.00000000000000
  0
LINE
  5
F104B0
330
F104B1
100
AcDbEntity
8
Geo
100
AcDbLine
10
-60.1212572266335
20
19.0625534094945
30
0.00000000000000
11
-60.1222572266335
21
19.0631307933273
31
0.00000000000000
  0
LINE
  5
F104B2
330
F104B3
100
AcDbEntity
8
Geo
100
AcDbLine
10
-60.1222572266335
20
19.0631307933273
30
0.00000000000000
11
-60.1232572266335
21
19.0637080941004
31
0.00000000000000
  0
LINE
  5
F104B4
330
F104B5
100
AcDbEntity
8
Geo
100
AcDbLine
10
-60.1232572266335
20
19.0637080941004
30
0.00000000000000
11
-60.1242572266335
21
19.0642853048415
31
0.00000000000000
  0
LINE
  5
F104B6
330
F104B7
100
AcDbEntity
8
Geo
100
AcDbLine
10
-60.1242572266335
20
19.0642853048415
30
0.00000000000000
11
-60.1252572266335
21
19.0648624147647
31
0.00000000000000
  0
LINE
  5
F104B8
330
F104B9
100
AcDbEntity
8
Geo
100
AcDbLine
10
-60.1252572266335
20
19.0648624147647
30
0.00000000000000
11
-60.1262572266335
21
19.0654394101607
31
0.00000000000000
  0
LINE
  5
F104BA
330
F104BB
100
AcDbEntity
8
Geo
100
AcDbLine
10
-60.1262572266335
20
19.0654394101607
30
0.00000000000000
11
-60.1272572266335
21
19.0660162751676
31
0.00000000000000
  0
LINE
  5
F104BC
330
F104BD
100
AcDbEntity
8
Geo
100
AcDbLine
10
-60.1272572266335
20
19.0660162751676
30
0.00000000000000
11
-60.1282572266335
21
19.0665929924249
31
0.00000000000000
  0
LINE
  5
F104BE
330
F104BF
100
AcDbEntity
8
Geo
100
AcDbLine
10
-60.1282572266335
20
19.0665929924249
30
0.00000000000000
11
-60.1292572266335
21
19.0671695436080
31
0.00000000000000
  0
LINE
  5
F104C0
330
F104C1
100
AcDbEntity
8
Geo
100
AcDbLine
10
-60.1292572266335
20
19.0671695436080
30
0.00000000000000
11
-60.1302572266335
21
19.0677459098443
31
0.00000000000000
  0
LINE
  5
F104C2
330
F104C3
100
AcDbEntity
8
Geo
100
AcDbLine
10
-60.1302572266335
20
19.0677459098443
30
0.00000000000000
11
-60.1322572266335
21
19.0688980109113
31
0.00000000000000
  0
LINE
  5
F104C4
330
F104C5
100
AcDbEntity
8
Geo
100
AcDbLine
10
-60.3312572266335
20
19.0123819060038
30
0.00000000000000
11
-60.3312535627321
21
19.0122293871239
31
0.00000000000000
  0
LINE
  5
F104C6
330
F104C7
100
AcDbEntity
8
Geo
100
AcDbLine
10
-60.3312535627321
20
19.0122293871239
30
0.00000000000000
11
-60.3311668271227
21
19.0086188046869
31
0.00000000000000
  0
LINE
  5
F104C8
330
F104C9
100
AcDbEntity
8
Geo
100
AcDbLine
10
-60.3311668271227
20
19.1146293883543
30
0.00000000000000
11
-60.3302572266335
21
19.1193128772926
31
0.00000000000000
  0
LINE
  5
F104CA
330
F104CB
100
AcDbEntity
8
Geo
100
AcDbLine
10
-60.3302572266335
20
19.1193128772926
30
0.00000000000000
11
-60.3292572266335
21
19.1230336895258
31
0.00000000000000
  0
LINE
  5
F104CC
330
F104CD
100
AcDbEntity
8
Geo
100
AcDbLine
10
-60.3292572266335
20
19.1230336895258
30
0.00000000000000
11
-60.3282572266335
21
19.1259440036209
31
0.00000000000000
  0
LINE
  5
F104CE
330
F104CF
100
AcDbEntity
8
Geo
100
AcDbLine
10
-60.3282572266335
20
19.1259440036209
30
0.00000000000000
11
-60.3272572266335
21
19.1284194664220
31
0.00000000000000
  0
LINE
  5
F104D0
330
F104D1
100
AcDbEntity
8
Geo
100
AcDbLine
10
-60.3272572266335
20
19.1284194664220
30
0.00000000000000
11
-60.3262572266335
21
19.1306037128423
31
0.00000000000000
  0
LINE
  5
F104D2
330
F104D3
100
AcDbEntity
8
Geo
100
AcDbLine
10
-60.3262572266335
20
19.1306037128423
30
0.00000000000000
11
-60.3252572266335
21
19.1325423697640
31
0.00000000000000
  0
LINE
  5
F104D4
330
F104D5
100
AcDbEntity
8
Geo
100
AcDbLine
10
-60.3252572266335
20
19.1325423697640
30
0.00000000000000
11
-60.3242572266335
21
19.1342813848601
31
0.00000000000000
  0
LINE
  5
F104D6
330
F104D7
100
AcDbEntity
8
Geo
100
AcDbLine
10
-60.3242572266335
20
19.1342813848601
30
0.00000000000000
11
-60.3232572266335
21
19.1358597431759
31
0.00000000000000
  0
LINE
  5
F104D8
330
F104D9
100
AcDbEntity
8
Geo
100
AcDbLine
10
-60.3232572266335
20
19.1358597431759
30
0.00000000000000
11
-60.3222572266335
21
19.1373045282714
31
0.00000000000000
  0
LINE
  5
F104DA
330
F104DB
100
AcDbEntity
8
Geo
100
AcDbLine
10
-60.3222572266335
20
19.1373045282714
30
0.00000000000000
11
-60.3212572266335
21
19.1386354586372
31
0.00000000000000
  0
LINE
  5
F104DC
330
F104DD
100
AcDbEntity
8
Geo
100
AcDbLine
10
-60.3212572266335
20
19.1386354586372
30
0.00000000000000
11
-60.3202572266335
21
19.1398674161530
31
0.00000000000000
  0
LINE
  5
F104DE
330
F104DF
100
AcDbEntity
8
Geo
100
AcDbLine
10
-60.3202572266335
20
19.1398674161530
30
0.00000000000000
11
-60.3192572266335
21
19.1410119567287
31
0.00000000000000
  0
LINE
  5
F104E0
330
F104E1
100
AcDbEntity
8
Geo
100
AcDbLine
10
-60.3192572266335
20
19.1410119567287
30
0.00000000000000
11
-60.3182572266335
21
19.1420782632439
31
0.00000000000000
  0
LINE
  5
F104E2
330
F104E3
100
AcDbEntity
8
Geo
100
AcDbLine
10
-60.3182572266335
20
19.1420782632439
30
0.00000000000000
11
-60.3172572266335
21
19.1430737735652
31
0.00000000000000
  0
LINE
  5
F104E4
330
F104E5
100
AcDbEntity
8
Geo
100
AcDbLine
10
-60.3172572266335
20
19.1430737735652
30
0.00000000000000
11
-60.3162572266335
21
19.1440046096151
31
0.00000000000000
  0
LINE
  5
F104E6
330
F104E7
100
AcDbEntity
8
Geo
100
AcDbLine
10
-60.3162572266335
20
19.1440046096151
30
0.00000000000000
11
-60.3152572266335
21
19.1448758795101
31
0.00000000000000
  0
LINE
  5
F104E8
330
F104E9
100
AcDbEntity
8
Geo
100
AcDbLine
10
-60.3152572266335
20
19.1448758795101
30
0.00000000000000
11
-60.3142572266335
21
19.1456918958583
31
0.00000000000000
  0
LINE
  5
F104EA
330
F104EB
100
AcDbEntity
8
Geo
100
AcDbLine
10
-60.3142572266335
20
19.1456918958583
30
0.00000000000000
11
-60.3132572266335
21
19.1464563370127
31
0.00000000000000
  0
LINE
  5
F104EC
330
F104ED
100
AcDbEntity
8
Geo
100
AcDbLine
10
-60.3132572266335
20
19.1464563370127
30
0.00000000000000
11
-60.3122572266335
21
19.1471723685065
31
0.00000000000000
  0
LINE
  5
F104EE
330
F104EF
100
AcDbEntity
8
Geo
100
AcDbLine
10
-60.3122572266335
20
19.1471723685065
30
0.00000000000000
11
-60.3112572266335
21
19.1478427360643
31
0.00000000000000
  0
LINE
  5
F104F0
330
F104F1
100
AcDbEntity
8
Geo
100
AcDbLine
10
-60.3112572266335
20
19.1478427360643
30
0.00000000000000
11
-60.3102572266335
21
19.1484698379164
31
0.00000000000000
  0
LINE
  5
F104F2
330
F104F3
100
AcDbEntity
8
Geo
100
AcDbLine
10
-60.3102572266335
20
19.1484698379164
30
0.00000000000000
11
-60.3092572266335
21
19.1490557817792
31
0.00000000000000
  0
LINE
  5
F104F4
330
F104F5
100
AcDbEntity
8
Geo
100
AcDbLine
10
-60.3092572266335
20
19.1490557817792
30
0.00000000000000
11
-60.3082572266335
21
19.1496024302915
31
0.00000000000000
  0
LINE
  5
F104F6
330
F104F7
100
AcDbEntity
8
Geo
100
AcDbLine
10
-60.3082572266335
20
19.1496024302915
30
0.00000000000000
11
-60.3072572266335
21
19.1501114376390
31
0.00000000000000
  0
LINE
  5
F104F8
330
F104F9
100
AcDbEntity
8
Geo
100
AcDbLine
10
-60.3072572266335
20
19.1501114376390
30
0.00000000000000
11
-60.3062572266335
21
19.1505842793630
31
0.00000000000000
  0
LINE
  5
F104FA
330
F104FB
100
AcDbEntity
8
Geo
100
AcDbLine
10
-60.3062572266335
20
19.1505842793630
30
0.00000000000000
11
-60.3052572266335
21
19.1510222768381
31
0.00000000000000
  0
LINE
  5
F104FC
330
F104FD
100
AcDbEntity
8
Geo
100
AcDbLine
10
-60.3052572266335
20
19.1510222768381
30
0.00000000000000
11
-60.3042572266335
21
19.1514266175327
31
0.00000000000000
  0
LINE
  5
F104FE
330
F104FF
100
AcDbEntity
8
Geo
100
AcDbLine
10
-60.3042572266335
20
19.1514266175327
30
0.00000000000000
11
-60.3032572266335
21
19.1517983719023
31
0.00000000000000
  0
LINE
  5
F10500
330
F10501
100
AcDbEntity
8
Geo
100
AcDbLine
10
-60.3032572266335
20
19.1517983719023
30
0.00000000000000
11
-60.3022572266335
21
19.1521385075692
31
0.00000000000000
  0
LINE
  5
F10502
330
F10503
100
AcDbEntity
8
Geo
100
AcDbLine
10
-60.3022572266335
20
19.1521385075692
30
0.00000000000000
11
-60.3012572266335
21
19.1524479012955
31
0.00000000000000
  0
LINE
  5
F10504
330
F10505
100
AcDbEntity
8
Geo
100
AcDbLine
10
-60.3012572266335
20
19.1524479012955
30
0.00000000000000
11
-60.3002572266335
21
19.1527273491500
31
0.00000000000000
  0
LINE
  5
F10506
330
F10507
100
AcDbEntity
8
Geo
100
AcDbLine
10
-60.3002572266335
20
19.1527273491500
30
0.00000000000000
11
-60.2992572266335
21
19.1529775751825
31
0.00000000000000
  0
LINE
  5
F10508
330
F10509
100
AcDbEntity
8
Geo
100
AcDbLine
10
-60.2992572266335
20
19.1529775751825
30
0.00000000000000
11
-60.2982572266335
21
19.1531992388596
31
0.00000000000000
  0
LINE
  5
F1050A
330
F1050B
100
AcDbEntity
8
Geo
100
AcDbLine
10
-60.2982572266335
20
19.1531992388596
30
0.00000000000000
11
-60.2972572266335
21
19.1533929414622
31
0.00000000000000
  0
LINE
  5
F1050C
330
F1050D
100
AcDbEntity
8
Geo
100
AcDbLine
10
-60.2972572266335
20
19.1533929414622
30
0.00000000000000
11
-60.2962572266335
21
19.1535592316097
31
0.00000000000000
  0
LINE
  5
F1050E
330
F1050F
100
AcDbEntity
8
Geo
100
AcDbLine
10
-60.2962572266335
20
19.1535592316097
30
0.00000000000000
11
-60.2952572266335
21
19.1536986100443
31
0.00000000000000
  0
LINE
  5
F10510
330
F10511
100
AcDbEntity
8
Geo
100
AcDbLine
10
-60.2952572266335
20
19.1536986100443
30
0.00000000000000
11
-60.2942572266335
21
19.1538115337841
31
0.00000000000000
  0
LINE
  5
F10512
330
F10513
100
AcDbEntity
8
Geo
100
AcDbLine
10
-60.2942572266335
20
19.1538115337841
30
0.00000000000000
11
-60.2932572266335
21
19.1538984197339
31
0.00000000000000
  0
LINE
  5
F10514
330
F10515
100
AcDbEntity
8
Geo
100
AcDbLine
10
-60.2932572266335
20
19.1538984197339
30
0.00000000000000
11
-60.2922572266335
21
19.1539596478303
31
0.00000000000000
  0
LINE
  5
F10516
330
F10517
100
AcDbEntity
8
Geo
100
AcDbLine
10
-60.2922572266335
20
19.1539596478303
30
0.00000000000000
11
-60.2912572266335
21
19.1539955637805
31
0.00000000000000
  0
LINE
  5
F10518
330
F10519
100
AcDbEntity
8
Geo
100
AcDbLine
10
-60.2912572266335
20
19.1539955637805
30
0.00000000000000
11
-60.2902572266335
21
19.1540064814463
31
0.00000000000000
  0
LINE
  5
F1051A
330
F1051B
100
AcDbEntity
8
Geo
100
AcDbLine
10
-60.2902572266335
20
19.1540064814463
30
0.00000000000000
11
-60.2892572266335
21
19.1539926849175
31
0.00000000000000
  0
LINE
  5
F1051C
330
F1051D
100
AcDbEntity
8
Geo
100
AcDbLine
10
-60.2892572266335
20
19.1539926849175
30
0.00000000000000
11
-60.2882572266335
21
19.1539544303079
31
0.00000000000000
  0
LINE
  5
F1051E
330
F1051F
100
AcDbEntity
8
Geo
100
AcDbLine
10
-60.2882572266335
20
19.1539544303079
30
0.00000000000000
11
-60.2872572266335
21
19.1538919473069
31
0.00000000000000
  0
LINE
  5
F10520
330
F10521
100
AcDbEntity
8
Geo
100
AcDbLine
10
-60.2872572266335
20
19.1538919473069
30
0.00000000000000
11
-60.2862572266335
21
19.1538054405073
31
0.00000000000000
  0
LINE
  5
F10522
330
F10523
100
AcDbEntity
8
Geo
100
AcDbLine
10
-60.2862572266335
20
19.1538054405073
30
0.00000000000000
11
-60.2852572266335
21
19.1536950905343
31
0.00000000000000
  0
LINE
  5
F10524
330
F10525
100
AcDbEntity
8
Geo
100
AcDbLine
10
-60.2852572266335
20
19.1536950905343
30
0.00000000000000
11
-60.2842572266335
21
19.1535610549889
31
0.00000000000000
  0
LINE
  5
F10526
330
F10527
100
AcDbEntity
8
Geo
100
AcDbLine
10
-60.2842572266335
20
19.1535610549889
30
0.00000000000000
11
-60.2832572266335
21
19.1534034692217
31
0.00000000000000
  0
LINE
  5
F10528
330
F10529
100
AcDbEntity
8
Geo
100
AcDbLine
10
-60.2832572266335
20
19.1534034692217
30
0.00000000000000
11
-60.2822572266335
21
19.1532224469473
31
0.00000000000000
  0
LINE
  5
F1052A
330
F1052B
100
AcDbEntity
8
Geo
100
AcDbLine
10
-60.2822572266335
20
19.1532224469473
30
0.00000000000000
11
-60.2812572266335
21
19.1530180807076
31
0.00000000000000
  0
LINE
  5
F1052C
330
F1052D
100
AcDbEntity
8
Geo
100
AcDbLine
10
-60.2812572266335
20
19.1530180807076
30
0.00000000000000
11
-60.2802572266335
21
19.1528005460790
31
0.00000000000000
  0
LINE
  5
F1052E
330
F1052F
100
AcDbEntity
8
Geo
100
AcDbLine
10
-60.2802572266335
20
19.1528005460790
30
0.00000000000000
11
-60.2792572266335
21
19.1525799722438
31
0.00000000000000
  0
LINE
  5
F10530
330
F10531
100
AcDbEntity
8
Geo
100
AcDbLine
10
-60.2792572266335
20
19.1525799722438
30
0.00000000000000
11
-60.2782572266335
21
19.1523563665545
31
0.00000000000000
  0
LINE
  5
F10532
330
F10533
100
AcDbEntity
8
Geo
100
AcDbLine
10
-60.2782572266335
20
19.1523563665545
30
0.00000000000000
11
-60.2772572266335
21
19.1521297364646
31
0.00000000000000
  0
LINE
  5
F10534
330
F10535
100
AcDbEntity
8
Geo
100
AcDbLine
10
-60.2772572266335
20
19.1521297364646
30
0.00000000000000
11
-60.2762572266335
21
19.1519000895284
31
0.00000000000000
  0
LINE
  5
F10536
330
F10537
100
AcDbEntity
8
Geo
100
AcDbLine
10
-60.2762572266335
20
19.1519000895284
30
0.00000000000000
11
-60.2752572266335
21
19.1516674334009
31
0.00000000000000
  0
LINE
  5
F10538
330
F10539
100
AcDbEntity
8
Geo
100
AcDbLine
10
-60.2752572266335
20
19.1516674334009
30
0.00000000000000
11
-60.2742572266335
21
19.1514317758371
31
0.00000000000000
  0
LINE
  5
F1053A
330
F1053B
100
AcDbEntity
8
Geo
100
AcDbLine
10
-60.2742572266335
20
19.1514317758371
30
0.00000000000000
11
-60.2732572266335
21
19.1511931246923
31
0.00000000000000
  0
LINE
  5
F1053C
330
F1053D
100
AcDbEntity
8
Geo
100
AcDbLine
10
-60.2732572266335
20
19.1511931246923
30
0.00000000000000
11
-60.2722572266335
21
19.1509514879215
31
0.00000000000000
  0
LINE
  5
F1053E
330
F1053F
100
AcDbEntity
8
Geo
100
AcDbLine
10
-60.2722572266335
20
19.1509514879215
30
0.00000000000000
11
-60.2712572266335
21
19.1507068735793
31
0.00000000000000
  0
LINE
  5
F10540
330
F10541
100
AcDbEntity
8
Geo
100
AcDbLine
10
-60.2712572266335
20
19.1507068735793
30
0.00000000000000
11
-60.2702572266335
21
19.1504592898194
31
0.00000000000000
  0
LINE
  5
F10542
330
F10543
100
AcDbEntity
8
Geo
100
AcDbLine
10
-60.2702572266335
20
19.1504592898194
30
0.00000000000000
11
-60.2692572266335
21
19.1502087448946
31
0.00000000000000
  0
LINE
  5
F10544
330
F10545
100
AcDbEntity
8
Geo
100
AcDbLine
10
-60.2692572266335
20
19.1502087448946
30
0.00000000000000
11
-60.2682572266335
21
19.1499552471565
31
0.00000000000000
  0
LINE
  5
F10546
330
F10547
100
AcDbEntity
8
Geo
100
AcDbLine
10
-60.2682572266335
20
19.1499552471565
30
0.00000000000000
11
-60.2672572266335
21
19.1496988050548
31
0.00000000000000
  0
LINE
  5
F10548
330
F10549
100
AcDbEntity
8
Geo
100
AcDbLine
10
-60.2672572266335
20
19.1496988050548
30
0.00000000000000
11
-60.2662572266335
21
19.1494394271376
31
0.00000000000000
  0
LINE
  5
F1054A
330
F1054B
100
AcDbEntity
8
Geo
100
AcDbLine
10
-60.2662572266335
20
19.1494394271376
30
0.00000000000000
11
-60.2652572266335
21
19.1491771220509
31
0.00000000000000
  0
LINE
  5
F1054C
330
F1054D
100
AcDbEntity
8
Geo
100
AcDbLine
10
-60.2652572266335
20
19.1491771220509
30
0.00000000000000
11
-60.2642572266335
21
19.1489118985382
31
0.00000000000000
  0
LINE
  5
F1054E
330
F1054F
100
AcDbEntity
8
Geo
100
AcDbLine
10
-60.2642572266335
20
19.1489118985382
30
0.00000000000000
11
-60.2632572266335
21
19.1486437654401
31
0.00000000000000
  0
LINE
  5
F10550
330
F10551
100
AcDbEntity
8
Geo
100
AcDbLine
10
-60.2632572266335
20
19.1486437654401
30
0.00000000000000
11
-60.2622572266335
21
19.1483727316944
31
0.00000000000000
  0
LINE
  5
F10552
330
F10553
100
AcDbEntity
8
Geo
100
AcDbLine
10
-60.2622572266335
20
19.1483727316944
30
0.00000000000000
11
-60.2612572266335
21
19.1480988063356
31
0.00000000000000
  0
LINE
  5
F10554
330
F10555
100
AcDbEntity
8
Geo
100
AcDbLine
10
-60.2612572266335
20
19.1480988063356
30
0.00000000000000
11
-60.2602572266335
21
19.1478219984945
31
0.00000000000000
  0
LINE
  5
F10556
330
F10557
100
AcDbEntity
8
Geo
100
AcDbLine
10
-60.2602572266335
20
19.1478219984945
30
0.00000000000000
11
-60.2592572266335
21
19.1475423173979
31
0.00000000000000
  0
LINE
  5
F10558
330
F10559
100
AcDbEntity
8
Geo
100
AcDbLine
10
-60.2592572266335
20
19.1475423173979
30
0.00000000000000
11
-60.2582572266335
21
19.1472597723686
31
0.00000000000000
  0
LINE
  5
F1055A
330
F1055B
100
AcDbEntity
8
Geo
100
AcDbLine
10
-60.2582572266335
20
19.1472597723686
30
0.00000000000000
11
-60.2572572266335
21
19.1469743728248
31
0.00000000000000
  0
LINE
  5
F1055C
330
F1055D
100
AcDbEntity
8
Geo
100
AcDbLine
10
-60.2572572266335
20
19.1469743728248
30
0.00000000000000
11
-60.2562572266335
21
19.1466861282796
31
0.00000000000000
  0
LINE
  5
F1055E
330
F1055F
100
AcDbEntity
8
Geo
100
AcDbLine
10
-60.2562572266335
20
19.1466861282796
30
0.00000000000000
11
-60.2552572266335
21
19.1463950483412
31
0.00000000000000
  0
LINE
  5
F10560
330
F10561
100
AcDbEntity
8
Geo
100
AcDbLine
10
-60.2552572266335
20
19.1463950483412
30
0.00000000000000
11
-60.2542572266335
21
19.1461011427123
31
0.00000000000000
  0
LINE
  5
F10562
330
F10563
100
AcDbEntity
8
Geo
100
AcDbLine
10
-60.2542572266335
20
19.1461011427123
30
0.00000000000000
11
-60.2532572266335
21
19.1458044211896
31
0.00000000000000
  0
LINE
  5
F10564
330
F10565
100
AcDbEntity
8
Geo
100
AcDbLine
10
-60.2532572266335
20
19.1458044211896
30
0.00000000000000
11
-60.2522572266335
21
19.1455048936640
31
0.00000000000000
  0
LINE
  5
F10566
330
F10567
100
AcDbEntity
8
Geo
100
AcDbLine
10
-60.2522572266335
20
19.1455048936640
30
0.00000000000000
11
-60.2512572266335
21
19.1452025701195
31
0.00000000000000
  0
LINE
  5
F10568
330
F10569
100
AcDbEntity
8
Geo
100
AcDbLine
10
-60.2512572266335
20
19.1452025701195
30
0.00000000000000
11
-60.2502572266335
21
19.1448974606336
31
0.00000000000000
  0
LINE
  5
F1056A
330
F1056B
100
AcDbEntity
8
Geo
100
AcDbLine
10
-60.2502572266335
20
19.1448974606336
30
0.00000000000000
11
-60.2492572266335
21
19.1445895753767
31
0.00000000000000
  0
LINE
  5
F1056C
330
F1056D
100
AcDbEntity
8
Geo
100
AcDbLine
10
-60.2492572266335
20
19.1445895753767
30
0.00000000000000
11
-60.2482572266335
21
19.1442789246115
31
0.00000000000000
  0
LINE
  5
F1056E
330
F1056F
100
AcDbEntity
8
Geo
100
AcDbLine
10
-60.2482572266335
20
19.1442789246115
30
0.00000000000000
11
-60.2472572266335
21
19.1439655186930
31
0.00000000000000
  0
LINE
  5
F10570
330
F10571
100
AcDbEntity
8
Geo
100
AcDbLine
10
-60.2472572266335
20
19.1439655186930
30
0.00000000000000
11
-60.2462572266335
21
19.1436493680680
31
0.00000000000000
  0
LINE
  5
F10572
330
F10573
100
AcDbEntity
8
Geo
100
AcDbLine
10
-60.2462572266335
20
19.1436493680680
30
0.00000000000000
11
-60.2452572266335
21
19.1433304832749
31
0.00000000000000
  0
LINE
  5
F10574
330
F10575
100
AcDbEntity
8
Geo
100
AcDbLine
10
-60.2452572266335
20
19.1433304832749
30
0.00000000000000
11
-60.2442572266335
21
19.1430088749432
31
0.00000000000000
  0
LINE
  5
F10576
330
F10577
100
AcDbEntity
8
Geo
100
AcDbLine
10
-60.2442572266335
20
19.1430088749432
30
0.00000000000000
11
-60.2432572266335
21
19.1426845537930
31
0.00000000000000
  0
LINE
  5
F10578
330
F10579
100
AcDbEntity
8
Geo
100
AcDbLine
10
-60.2432572266335
20
19.1426845537930
30
0.00000000000000
11
-60.2422572266335
21
19.1423575306352
31
0.00000000000000
  0
LINE
  5
F1057A
330
F1057B
100
AcDbEntity
8
Geo
100
AcDbLine
10
-60.2422572266335
20
19.1423575306352
30
0.00000000000000
11
-60.2412572266335
21
19.1420278163703
31
0.00000000000000
  0
LINE
  5
F1057C
330
F1057D
100
AcDbEntity
8
Geo
100
AcDbLine
10
-60.2412572266335
20
19.1420278163703
30
0.00000000000000
11
-60.2402572266335
21
19.1416954219888
31
0.00000000000000
  0
LINE
  5
F1057E
330
F1057F
100
AcDbEntity
8
Geo
100
AcDbLine
10
-60.2402572266335
20
19.1416954219888
30
0.00000000000000
11
-60.2392572266335
21
19.1413603585706
31
0.00000000000000
  0
LINE
  5
F10580
330
F10581
100
AcDbEntity
8
Geo
100
AcDbLine
10
-60.2392572266335
20
19.1413603585706
30
0.00000000000000
11
-60.2382572266335
21
19.1410226372844
31
0.00000000000000
  0
LINE
  5
F10582
330
F10583
100
AcDbEntity
8
Geo
100
AcDbLine
10
-60.2382572266335
20
19.1410226372844
30
0.00000000000000
11
-60.2372572266335
21
19.1406822693875
31
0.00000000000000
  0
LINE
  5
F10584
330
F10585
100
AcDbEntity
8
Geo
100
AcDbLine
10
-60.2372572266335
20
19.1406822693875
30
0.00000000000000
11
-60.2362572266335
21
19.1403392662255
31
0.00000000000000
  0
LINE
  5
F10586
330
F10587
100
AcDbEntity
8
Geo
100
AcDbLine
10
-60.2362572266335
20
19.1403392662255
30
0.00000000000000
11
-60.2352572266335
21
19.1399936392318
31
0.00000000000000
  0
LINE
  5
F10588
330
F10589
100
AcDbEntity
8
Geo
100
AcDbLine
10
-60.2352572266335
20
19.1399936392318
30
0.00000000000000
11
-60.2342572266335
21
19.1396453999273
31
0.00000000000000
  0
LINE
  5
F1058A
330
F1058B
100
AcDbEntity
8
Geo
100
AcDbLine
10
-60.2342572266335
20
19.1396453999273
30
0.00000000000000
11
-60.2332572266335
21
19.1392945599199
31
0.00000000000000
  0
LINE
  5
F1058C
330
F1058D
100
AcDbEntity
8
Geo
100
AcDbLine
10
-60.2332572266335
20
19.1392945599199
30
0.00000000000000
11
-60.2322572266335
21
19.1389411309042
31
0.00000000000000
  0
LINE
  5
F1058E
330
F1058F
100
AcDbEntity
8
Geo
100
AcDbLine
10
-60.2322572266335
20
19.1389411309042
30
0.00000000000000
11
-60.2312572266335
21
19.1385851246612
31
0.00000000000000
  0
LINE
  5
F10590
330
F10591
100
AcDbEntity
8
Geo
100
AcDbLine
10
-60.2312572266335
20
19.1385851246612
30
0.00000000000000
11
-60.2302572266335
21
19.1382265530577
31
0.00000000000000
  0
LINE
  5
F10592
330
F10593
100
AcDbEntity
8
Geo
100
AcDbLine
10
-60.2302572266335
20
19.1382265530577
30
0.00000000000000
11
-60.2292572266335
21
19.1378654280461
31
0.00000000000000
  0
LINE
  5
F10594
330
F10595
100
AcDbEntity
8
Geo
100
AcDbLine
10
-60.2292572266335
20
19.1378654280461
30
0.00000000000000
11
-60.2282572266335
21
19.1375017616638
31
0.00000000000000
  0
LINE
  5
F10596
330
F10597
100
AcDbEntity
8
Geo
100
AcDbLine
10
-60.2282572266335
20
19.1375017616638
30
0.00000000000000
11
-60.2272572266335
21
19.1371355660331
31
0.00000000000000
  0
LINE
  5
F10598
330
F10599
100
AcDbEntity
8
Geo
100
AcDbLine
10
-60.2272572266335
20
19.1371355660331
30
0.00000000000000
11
-60.2262572266335
21
19.1367668533603
31
0.00000000000000
  0
LINE
  5
F1059A
330
F1059B
100
AcDbEntity
8
Geo
100
AcDbLine
10
-60.2262572266335
20
19.1367668533603
30
0.00000000000000
11
-60.2252572266335
21
19.1363956359360
31
0.00000000000000
  0
LINE
  5
F1059C
330
F1059D
100
AcDbEntity
8
Geo
100
AcDbLine
10
-60.2252572266335
20
19.1363956359360
30
0.00000000000000
11
-60.2242572266335
21
19.1360219261339
31
0.00000000000000
  0
LINE
  5
F1059E
330
F1059F
100
AcDbEntity
8
Geo
100
AcDbLine
10
-60.2242572266335
20
19.1360219261339
30
0.00000000000000
11
-60.2232572266335
21
19.1356457364111
31
0.00000000000000
  0
LINE
  5
F105A0
330
F105A1
100
AcDbEntity
8
Geo
100
AcDbLine
10
-60.2232572266335
20
19.1356457364111
30
0.00000000000000
11
-60.2222572266335
21
19.1352670793071
31
0.00000000000000
  0
LINE
  5
F105A2
330
F105A3
100
AcDbEntity
8
Geo
100
AcDbLine
10
-60.2222572266335
20
19.1352670793071
30
0.00000000000000
11
-60.2212572266335
21
19.1348859674439
31
0.00000000000000
  0
LINE
  5
F105A4
330
F105A5
100
AcDbEntity
8
Geo
100
AcDbLine
10
-60.2212572266335
20
19.1348859674439
30
0.00000000000000
11
-60.2202572266335
21
19.1345024135251
31
0.00000000000000
  0
LINE
  5
F105A6
330
F105A7
100
AcDbEntity
8
Geo
100
AcDbLine
10
-60.2202572266335
20
19.1345024135251
30
0.00000000000000
11
-60.2192572266335
21
19.1341164303358
31
0.00000000000000
  0
LINE
  5
F105A8
330
F105A9
100
AcDbEntity
8
Geo
100
AcDbLine
10
-60.2192572266335
20
19.1341164303358
30
0.00000000000000
11
-60.2182572266335
21
19.1337280307420
31
0.00000000000000
  0
LINE
  5
F105AA
330
F105AB
100
AcDbEntity
8
Geo
100
AcDbLine
10
-60.2182572266335
20
19.1337280307420
30
0.00000000000000
11
-60.2172572266335
21
19.1333372276905
31
0.00000000000000
  0
LINE
  5
F105AC
330
F105AD
100
AcDbEntity
8
Geo
100
AcDbLine
10
-60.2172572266335
20
19.1333372276905
30
0.00000000000000
11
-60.2162572266335
21
19.1329440342079
31
0.00000000000000
  0
LINE
  5
F105AE
330
F105AF
100
AcDbEntity
8
Geo
100
AcDbLine
10
-60.2162572266335
20
19.1329440342079
30
0.00000000000000
11
-60.2152572266335
21
19.1325484634007
31
0.00000000000000
  0
LINE
  5
F105B0
330
F105B1
100
AcDbEntity
8
Geo
100
AcDbLine
10
-60.2152572266335
20
19.1325484634007
30
0.00000000000000
11
-60.2142572266335
21
19.1321505284544
31
0.00000000000000
  0
LINE
  5
F105B2
330
F105B3
100
AcDbEntity
8
Geo
100
AcDbLine
10
-60.2142572266335
20
19.1321505284544
30
0.00000000000000
11
-60.2132572266335
21
19.1317502426337
31
0.00000000000000
  0
LINE
  5
F105B4
330
F105B5
100
AcDbEntity
8
Geo
100
AcDbLine
10
-60.2132572266335
20
19.1317502426337
30
0.00000000000000
11
-60.2122572266335
21
19.1313476192812
31
0.00000000000000
  0
LINE
  5
F105B6
330
F105B7
100
AcDbEntity
8
Geo
100
AcDbLine
10
-60.2122572266335
20
19.1313476192812
30
0.00000000000000
11
-60.2112572266335
21
19.1309426718177
31
0.00000000000000
  0
LINE
  5
F105B8
330
F105B9
100
AcDbEntity
8
Geo
100
AcDbLine
10
-60.2112572266335
20
19.1309426718177
30
0.00000000000000
11
-60.2102572266335
21
19.1305354137415
31
0.00000000000000
  0
LINE
  5
F105BA
330
F105BB
100
AcDbEntity
8
Geo
100
AcDbLine
10
-60.2102572266335
20
19.1305354137415
30
0.00000000000000
11
-60.2092572266335
21
19.1301258586278
31
0.00000000000000
  0
LINE
  5
F105BC
330
F105BD
100
AcDbEntity
8
Geo
100
AcDbLine
10
-60.2092572266335
20
19.1301258586278
30
0.00000000000000
11
-60.2082572266335
21
19.1297140201283
31
0.00000000000000
  0
LINE
  5
F105BE
330
F105BF
100
AcDbEntity
8
Geo
100
AcDbLine
10
-60.2082572266335
20
19.1297140201283
30
0.00000000000000
11
-60.2072572266335
21
19.1292999119711
31
0.00000000000000
  0
LINE
  5
F105C0
330
F105C1
100
AcDbEntity
8
Geo
100
AcDbLine
10
-60.2072572266335
20
19.1292999119711
30
0.00000000000000
11
-60.2062572266335
21
19.1288835479595
31
0.00000000000000
  0
LINE
  5
F105C2
330
F105C3
100
AcDbEntity
8
Geo
100
AcDbLine
10
-60.2062572266335
20
19.1288835479595
30
0.00000000000000
11
-60.2052572266335
21
19.1284649419725
31
0.00000000000000
  0
LINE
  5
F105C4
330
F105C5
100
AcDbEntity
8
Geo
100
AcDbLine
10
-60.2052572266335
20
19.1284649419725
30
0.00000000000000
11
-60.2042572266335
21
19.1280441079635
31
0.00000000000000
  0
LINE
  5
F105C6
330
F105C7
100
AcDbEntity
8
Geo
100
AcDbLine
10
-60.2042572266335
20
19.1280441079635
30
0.00000000000000
11
-60.2032572266335
21
19.1276210599603
31
0.00000000000000
  0
LINE
  5
F105C8
330
F105C9
100
AcDbEntity
8
Geo
100
AcDbLine
10
-60.2032572266335
20
19.1276210599603
30
0.00000000000000
11
-60.2022572266335
21
19.1271958120644
31
0.00000000000000
  0
LINE
  5
F105CA
330
F105CB
100
AcDbEntity
8
Geo
100
AcDbLine
10
-60.2022572266335
20
19.1271958120644
30
0.00000000000000
11
-60.2012572266335
21
19.1267683784507
31
0.00000000000000
  0
LINE
  5
F105CC
330
F105CD
100
AcDbEntity
8
Geo
100
AcDbLine
10
-60.2012572266335
20
19.1267683784507
30
0.00000000000000
11
-60.2002572266335
21
19.1263387733669
31
0.00000000000000
  0
LINE
  5
F105CE
330
F105CF
100
AcDbEntity
8
Geo
100
AcDbLine
10
-60.2002572266335
20
19.1263387733669
30
0.00000000000000
11
-60.1992572266335
21
19.1259070111333
31
0.00000000000000
  0
LINE
  5
F105D0
330
F105D1
100
AcDbEntity
8
Geo
100
AcDbLine
10
-60.1992572266335
20
19.1259070111333
30
0.00000000000000
11
-60.1982572266335
21
19.1254731061418
31
0.00000000000000
  0
LINE
  5
F105D2
330
F105D3
100
AcDbEntity
8
Geo
100
AcDbLine
10
-60.1982572266335
20
19.1254731061418
30
0.00000000000000
11
-60.1972572266335
21
19.1250370728559
31
0.00000000000000
  0
LINE
  5
F105D4
330
F105D5
100
AcDbEntity
8
Geo
100
AcDbLine
10
-60.1972572266335
20
19.1250370728559
30
0.00000000000000
11
-60.1962572266335
21
19.1245989258100
31
0.00000000000000
  0
LINE
  5
F105D6
330
F105D7
100
AcDbEntity
8
Geo
100
AcDbLine
10
-60.1962572266335
20
19.1245989258100
30
0.00000000000000
11
-60.1952572266335
21
19.1241586796090
31
0.00000000000000
  0
LINE
  5
F105D8
330
F105D9
100
AcDbEntity
8
Geo
100
AcDbLine
10
-60.1952572266335
20
19.1241586796090
30
0.00000000000000
11
-60.1942572266335
21
19.1237163489276
31
0.00000000000000
  0
LINE
  5
F105DA
330
F105DB
100
AcDbEntity
8
Geo
100
AcDbLine
10
-60.1942572266335
20
19.1237163489276
30
0.00000000000000
11
-60.1932572266335
21
19.1232719485102
31
0.00000000000000
  0
LINE
  5
F105DC
330
F105DD
100
AcDbEntity
8
Geo
100
AcDbLine
10
-60.1932572266335
20
19.1232719485102
30
0.00000000000000
11
-60.1922572266335
21
19.1228254931702
31
0.00000000000000
  0
LINE
  5
F105DE
330
F105DF
100
AcDbEntity
8
Geo
100
AcDbLine
10
-60.1922572266335
20
19.1228254931702
30
0.00000000000000
11
-60.1912572266335
21
19.1223769977892
31
0.00000000000000
  0
LINE
  5
F105E0
330
F105E1
100
AcDbEntity
8
Geo
100
AcDbLine
10
-60.1912572266335
20
19.1223769977892
30
0.00000000000000
11
-60.1902572266335
21
19.1219264773172
31
0.00000000000000
  0
LINE
  5
F105E2
330
F105E3
100
AcDbEntity
8
Geo
100
AcDbLine
10
-60.1902572266335
20
19.1219264773172
30
0.00000000000000
11
-60.1892572266335
21
19.1214739467714
31
0.00000000000000
  0
LINE
  5
F105E4
330
F105E5
100
AcDbEntity
8
Geo
100
AcDbLine
10
-60.1892572266335
20
19.1214739467714
30
0.00000000000000
11
-60.1882572266335
21
19.1210194212361
31
0.00000000000000
  0
LINE
  5
F105E6
330
F105E7
100
AcDbEntity
8
Geo
100
AcDbLine
10
-60.1882572266335
20
19.1210194212361
30
0.00000000000000
11
-60.1872572266335
21
19.1205629158622
31
0.00000000000000
  0
LINE
  5
F105E8
330
F105E9
100
AcDbEntity
8
Geo
100
AcDbLine
10
-60.1872572266335
20
19.1205629158622
30
0.00000000000000
11
-60.1862572266335
21
19.1201044458664
31
0.00000000000000
  0
LINE
  5
F105EA
330
F105EB
100
AcDbEntity
8
Geo
100
AcDbLine
10
-60.1862572266335
20
19.1201044458664
30
0.00000000000000
11
-60.1852572266335
21
19.1196440265311
31
0.00000000000000
  0
LINE
  5
F105EC
330
F105ED
100
AcDbEntity
8
Geo
100
AcDbLine
10
-60.1852572266335
20
19.1196440265311
30
0.00000000000000
11
-60.1842572266335
21
19.1191816732034
31
0.00000000000000
  0
LINE
  5
F105EE
330
F105EF
100
AcDbEntity
8
Geo
100
AcDbLine
10
-60.1842572266335
20
19.1191816732034
30
0.00000000000000
11
-60.1832572266335
21
19.1187174012952
31
0.00000000000000
  0
LINE
  5
F105F0
330
F105F1
100
AcDbEntity
8
Geo
100
AcDbLine
10
-60.1832572266335
20
19.1187174012952
30
0.00000000000000
11
-60.1822572266335
21
19.1182512262822
31
0.00000000000000
  0
LINE
  5
F105F2
330
F105F3
100
AcDbEntity
8
Geo
100
AcDbLine
10
-60.1822572266335
20
19.1182512262822
30
0.00000000000000
11
-60.1812572266335
21
19.1177831637033
31
0.00000000000000
  0
LINE
  5
F105F4
330
F105F5
100
AcDbEntity
8
Geo
100
AcDbLine
10
-60.1812572266335
20
19.1177831637033
30
0.00000000000000
11
-60.1802572266335
21
19.1173132291608
31
0.00000000000000
  0
LINE
  5
F105F6
330
F105F7
100
AcDbEntity
8
Geo
100
AcDbLine
10
-60.1802572266335
20
19.1173132291608
30
0.00000000000000
11
-60.1792572266335
21
19.1168414383190
31
0.00000000000000
  0
LINE
  5
F105F8
330
F105F9
100
AcDbEntity
8
Geo
100
AcDbLine
10
-60.1792572266335
20
19.1168414383190
30
0.00000000000000
11
-60.1782572266335
21
19.1163678069043
31
0.00000000000000
  0
LINE
  5
F105FA
330
F105FB
100
AcDbEntity
8
Geo
100
AcDbLine
10
-60.1782572266335
20
19.1163678069043
30
0.00000000000000
11
-60.1772572266335
21
19.1158923507043
31
0.00000000000000
  0
LINE
  5
F105FC
330
F105FD
100
AcDbEntity
8
Geo
100
AcDbLine
10
-60.1772572266335
20
19.1158923507043
30
0.00000000000000
11
-60.1762572266335
21
19.1154150855675
31
0.00000000000000
  0
LINE
  5
F105FE
330
F105FF
100
AcDbEntity
8
Geo
100
AcDbLine
10
-60.1762572266335
20
19.1154150855675
30
0.00000000000000
11
-60.1752572266335
21
19.1149360274027
31
0.00000000000000
  0
LINE
  5
F10600
330
F10601
100
AcDbEntity
8
Geo
100
AcDbLine
10
-60.1752572266335
20
19.1149360274027
30
0.00000000000000
11
-60.1742572266335
21
19.1144551921785
31
0.00000000000000
  0
LINE
  5
F10602
330
F10603
100
AcDbEntity
8
Geo
100
AcDbLine
10
-60.1742572266335
20
19.1144551921785
30
0.00000000000000
11
-60.1732572266335
21
19.1139725959226
31
0.00000000000000
  0
LINE
  5
F10604
330
F10605
100
AcDbEntity
8
Geo
100
AcDbLine
10
-60.1732572266335
20
19.1139725959226
30
0.00000000000000
11
-60.1722572266335
21
19.1134882547216
31
0.00000000000000
  0
LINE
  5
F10606
330
F10607
100
AcDbEntity
8
Geo
100
AcDbLine
10
-60.1722572266335
20
19.1134882547216
30
0.00000000000000
11
-60.1712572266335
21
19.1130021847202
31
0.00000000000000
  0
LINE
  5
F10608
330
F10609
100
AcDbEntity
8
Geo
100
AcDbLine
10
-60.1712572266335
20
19.1130021847202
30
0.00000000000000
11
-60.1702572266335
21
19.1125144021206
31
0.00000000000000
  0
LINE
  5
F1060A
330
F1060B
100
AcDbEntity
8
Geo
100
AcDbLine
10
-60.1702572266335
20
19.1125144021206
30
0.00000000000000
11
-60.1692572266335
21
19.1120249231821
31
0.00000000000000
  0
LINE
  5
F1060C
330
F1060D
100
AcDbEntity
8
Geo
100
AcDbLine
10
-60.1692572266335
20
19.1120249231821
30
0.00000000000000
11
-60.1682572266335
21
19.1115337642208
31
0.00000000000000
  0
LINE
  5
F1060E
330
F1060F
100
AcDbEntity
8
Geo
100
AcDbLine
10
-60.1682572266335
20
19.1115337642208
30
0.00000000000000
11
-60.1672572266335
21
19.1110409416085
31
0.00000000000000
  0
LINE
  5
F10610
330
F10611
100
AcDbEntity
8
Geo
100
AcDbLine
10
-60.1672572266335
20
19.1110409416085
30
0.00000000000000
11
-60.1662572266335
21
19.1105464717726
31
0.00000000000000
  0
LINE
  5
F10612
330
F10613
100
AcDbEntity
8
Geo
100
AcDbLine
10
-60.1662572266335
20
19.1105464717726
30
0.00000000000000
11
-60.1652572266335
21
19.1100503711954
31
0.00000000000000
  0
LINE
  5
F10614
330
F10615
100
AcDbEntity
8
Geo
100
AcDbLine
10
-60.1652572266335
20
19.1100503711954
30
0.00000000000000
11
-60.1642572266335
21
19.1095526564135
31
0.00000000000000
  0
LINE
  5
F10616
330
F10617
100
AcDbEntity
8
Geo
100
AcDbLine
10
-60.1642572266335
20
19.1095526564135
30
0.00000000000000
11
-60.1632572266335
21
19.1090533440174
31
0.00000000000000
  0
LINE
  5
F10618
330
F10619
100
AcDbEntity
8
Geo
100
AcDbLine
10
-60.1632572266335
20
19.1090533440174
30
0.00000000000000
11
-60.1622572266335
21
19.1085524506508
31
0.00000000000000
  0
LINE
  5
F1061A
330
F1061B
100
AcDbEntity
8
Geo
100
AcDbLine
10
-60.1622572266335
20
19.1085524506508
30
0.00000000000000
11
-60.1612572266335
21
19.1080499930101
31
0.00000000000000
  0
LINE
  5
F1061C
330
F1061D
100
AcDbEntity
8
Geo
100
AcDbLine
10
-60.1612572266335
20
19.1080499930101
30
0.00000000000000
11
-60.1602572266335
21
19.1075459878437
31
0.00000000000000
  0
LINE
  5
F1061E
330
F1061F
100
AcDbEntity
8
Geo
100
AcDbLine
10
-60.1602572266335
20
19.1075459878437
30
0.00000000000000
11
-60.1592572266335
21
19.1070404519519
31
0.00000000000000
  0
LINE
  5
F10620
330
F10621
100
AcDbEntity
8
Geo
100
AcDbLine
10
-60.1592572266335
20
19.1070404519519
30
0.00000000000000
11
-60.1582572266335
21
19.1065334021858
31
0.00000000000000
  0
LINE
  5
F10622
330
F10623
100
AcDbEntity
8
Geo
100
AcDbLine
10
-60.1582572266335
20
19.1065334021858
30
0.00000000000000
11
-60.1572572266335
21
19.1060248554470
31
0.00000000000000
  0
LINE
  5
F10624
330
F10625
100
AcDbEntity
8
Geo
100
AcDbLine
10
-60.1572572266335
20
19.1060248554470
30
0.00000000000000
11
-60.1562572266335
21
19.1055148286871
31
0.00000000000000
  0
LINE
  5
F10626
330
F10627
100
AcDbEntity
8
Geo
100
AcDbLine
10
-60.1562572266335
20
19.1055148286871
30
0.00000000000000
11
-60.1552572266335
21
19.1050033389067
31
0.00000000000000
  0
LINE
  5
F10628
330
F10629
100
AcDbEntity
8
Geo
100
AcDbLine
10
-60.1552572266335
20
19.1050033389067
30
0.00000000000000
11
-60.1542572266335
21
19.1044904031557
31
0.00000000000000
  0
LINE
  5
F1062A
330
F1062B
100
AcDbEntity
8
Geo
100
AcDbLine
10
-60.1542572266335
20
19.1044904031557
30
0.00000000000000
11
-60.1532572266335
21
19.1039760385317
31
0.00000000000000
  0
LINE
  5
F1062C
330
F1062D
100
AcDbEntity
8
Geo
100
AcDbLine
10
-60.1532572266335
20
19.1039760385317
30
0.00000000000000
11
-60.1522572266335
21
19.1034602621802
31
0.00000000000000
  0
LINE
  5
F1062E
330
F1062F
100
AcDbEntity
8
Geo
100
AcDbLine
10
-60.1522572266335
20
19.1034602621802
30
0.00000000000000
11
-60.1512572266335
21
19.1029430912938
31
0.00000000000000
  0
LINE
  5
F10630
330
F10631
100
AcDbEntity
8
Geo
100
AcDbLine
10
-60.1512572266335
20
19.1029430912938
30
0.00000000000000
11
-60.1502572266335
21
19.1024245431114
31
0.00000000000000
  0
LINE
  5
F10632
330
F10633
100
AcDbEntity
8
Geo
100
AcDbLine
10
-60.1502572266335
20
19.1024245431114
30
0.00000000000000
11
-60.1492572266335
21
19.1019046349178
31
0.00000000000000
  0
LINE
  5
F10634
330
F10635
100
AcDbEntity
8
Geo
100
AcDbLine
10
-60.1492572266335
20
19.1019046349178
30
0.00000000000000
11
-60.1482572266335
21
19.1013833840434
31
0.00000000000000
  0
LINE
  5
F10636
330
F10637
100
AcDbEntity
8
Geo
100
AcDbLine
10
-60.1482572266335
20
19.1013833840434
30
0.00000000000000
11
-60.1472572266335
21
19.1008608078631
31
0.00000000000000
  0
LINE
  5
F10638
330
F10639
100
AcDbEntity
8
Geo
100
AcDbLine
10
-60.1472572266335
20
19.1008608078631
30
0.00000000000000
11
-60.1462572266335
21
19.1003369237960
31
0.00000000000000
  0
LINE
  5
F1063A
330
F1063B
100
AcDbEntity
8
Geo
100
AcDbLine
10
-60.1462572266335
20
19.1003369237960
30
0.00000000000000
11
-60.1452572266335
21
19.0998117493049
31
0.00000000000000
  0
LINE
  5
F1063C
330
F1063D
100
AcDbEntity
8
Geo
100
AcDbLine
10
-60.1452572266335
20
19.0998117493049
30
0.00000000000000
11
-60.1442572266335
21
19.0992853018956
31
0.00000000000000
  0
LINE
  5
F1063E
330
F1063F
100
AcDbEntity
8
Geo
100
AcDbLine
10
-60.1442572266335
20
19.0992853018956
30
0.00000000000000
11
-60.1432572266335
21
19.0987575991163
31
0.00000000000000
  0
LINE
  5
F10640
330
F10641
100
AcDbEntity
8
Geo
100
AcDbLine
10
-60.1432572266335
20
19.0987575991163
30
0.00000000000000
11
-60.1422572266335
21
19.0982286585570
31
0.00000000000000
  0
LINE
  5
F10642
330
F10643
100
AcDbEntity
8
Geo
100
AcDbLine
10
-60.1422572266335
20
19.0982286585570
30
0.00000000000000
11
-60.1412572266335
21
19.0976984978491
31
0.00000000000000
  0
LINE
  5
F10644
330
F10645
100
AcDbEntity
8
Geo
100
AcDbLine
10
-60.1412572266335
20
19.0976984978491
30
0.00000000000000
11
-60.1402572266335
21
19.0971671346644
31
0.00000000000000
  0
LINE
  5
F10646
330
F10647
100
AcDbEntity
8
Geo
100
AcDbLine
10
-60.1402572266335
20
19.0971671346644
30
0.00000000000000
11
-60.1392572266335
21
19.0966345867150
31
0.00000000000000
  0
LINE
  5
F10648
330
F10649
100
AcDbEntity
8
Geo
100
AcDbLine
10
-60.1392572266335
20
19.0966345867150
30
0.00000000000000
11
-60.1382572266335
21
19.0961008717526
31
0.00000000000000
  0
LINE
  5
F1064A
330
F1064B
100
AcDbEntity
8
Geo
100
AcDbLine
10
-60.1382572266335
20
19.0961008717526
30
0.00000000000000
11
-60.1372572266335
21
19.0955660075675
31
0.00000000000000
  0
LINE
  5
F1064C
330
F1064D
100
AcDbEntity
8
Geo
100
AcDbLine
10
-60.1372572266335
20
19.0955660075675
30
0.00000000000000
11
-60.1362572266335
21
19.0950300119886
31
0.00000000000000
  0
LINE
  5
F1064E
330
F1064F
100
AcDbEntity
8
Geo
100
AcDbLine
10
-60.1362572266335
20
19.0950300119886
30
0.00000000000000
11
-60.1352572266335
21
19.0944929028822
31
0.00000000000000
  0
LINE
  5
F10650
330
F10651
100
AcDbEntity
8
Geo
100
AcDbLine
10
-60.1352572266335
20
19.0944929028822
30
0.00000000000000
11
-60.1342572266335
21
19.0939546981520
31
0.00000000000000
  0
LINE
  5
F10652
330
F10653
100
AcDbEntity
8
Geo
100
AcDbLine
10
-60.1342572266335
20
19.0939546981520
30
0.00000000000000
11
-60.1332572266335
21
19.0934154157380
31
0.00000000000000
  0
LINE
  5
F10654
330
F10655
100
AcDbEntity
8
Geo
100
AcDbLine
10
-60.1332572266335
20
19.0934154157380
30
0.00000000000000
11
-60.1322572266335
21
19.0928750736164
31
0.00000000000000
  0
LINE
  5
F10656
330
F10657
100
AcDbEntity
8
Geo
100
AcDbLine
10
-20.3312572266335
20
20.4616240965206
30
0.00000000000000
11
-20.3312572266335
21
19.0616240965206
31
0.00000000000000
  0
LINE
  5
F10658
330
F10659
100
AcDbEntity
8
Geo
100
AcDbLine
10
-60.3312572266335
20
19.0616240965206
30
0.00000000000000
11
-60.3312572266335
21
19.0116240965206
31
0.00000000000000
  0
ARC
  5
F1065A
330
F1065B
100
AcDbEntity
8
Geo
100
AcDbCircle
10
-60.2812572266335
20
19.0116240965206
30
0.00000000000000
 40
0.0500000000000007
100
AcDbArc
 50
180.000000000000
 51
270.000000000000
  0
LINE
  5
F1065C
330
F1065D
100
AcDbEntity
8
Geo
100
AcDbLine
10
-60.2812572266335
20
18.9616240965206
30
0.00000000000000
11
-60.1312572266335
21
18.9616240965206
31
0.00000000000000
  0
LINE
  5
F1065E
330
F1065F
100
AcDbEntity
8
Geo
100
AcDbLine
10
-60.1312572266335
20
18.9616240965206
30
0.00000000000000
11
-58.3311537610144
21
18.9616240965206
31
0.00000000000000
  0
LINE
  5
F10660
330
F10661
100
AcDbEntity
8
Geo
100
AcDbLine
10
-58.3311537610144
20
18.9616240965206
30
0.00000000000000
11
-51.2402572266335
21
17.0616240965206
31
0.00000000000000
  0
LINE
  5
F10662
330
F10663
100
AcDbEntity
8
Geo
100
AcDbLine
10
-51.2402572266335
20
17.0616240965206
30
0.00000000000000
11
-20.9312572266335
21
17.0616240965206
31
0.00000000000000
  0
LINE
  5
F10664
330
F10665
100
AcDbEntity
8
Geo
100
AcDbLine
10
-20.9312572266335
20
17.0616240965206
30
0.00000000000000
11
-20.3312572266335
21
17.6616240965206
31
0.00000000000000
  0
LINE
  5
F10666
330
F10667
100
AcDbEntity
8
Geo
100
AcDbLine
10
-60.2812572266335
20
19.1616240965206
30
0.00000000000000
11
-60.2812572266335
21
18.9616240965206
31
0.00000000000000
  0
LINE
  5
F10668
330
F10669
100
AcDbEntity
8
Geo
100
AcDbLine
10
-60.2812572266335
20
19.1616240965206
30
0.00000000000000
11
-60.2812572266335
21
18.9616240965206
31
0.00000000000000
  0
LINE
  5
F1066A
330
F1066B
100
AcDbEntity
8
Geo
100
AcDbLine
10
-60.1312572266335
20
19.1616240965206
30
0.00000000000000
11
-60.1312572266335
21
18.9616240965206
31
0.00000000000000
  0
LINE
  5
F1066C
330
F1066D
100
AcDbEntity
8
Geo
100
AcDbLine
10
-60.1312572266335
20
19.1616240965206
30
0.00000000000000
11
-60.1312572266335
21
18.9616240965206
31
0.00000000000000
  0
LINE
  5
F1066E
330
F1066F
100
AcDbEntity
8
Geo
100
AcDbLine
10
-58.3311537610144
20
19.1616240965206
30
0.00000000000000
11
-58.3311537610144
21
18.9616240965206
31
0.00000000000000
  0
LINE
  5
F10670
330
F10671
100
AcDbEntity
8
Geo
100
AcDbLine
10
-51.2402572266335
20
21.0616240965206
30
0.00000000000000
11
-51.2402572266335
21
17.0616240965206
31
0.00000000000000
  0
LINE
  5
F10672
330
F10673
100
AcDbEntity
8
Geo
100
AcDbLine
10
-51.2402572266335
20
21.0616240965206
30
0.00000000000000
11
-51.2402572266335
21
17.0616240965206
31
0.00000000000000
  0
LINE
  5
F10674
330
F10675
100
AcDbEntity
8
Geo
100
AcDbLine
10
-20.9312572266335
20
21.0616240965206
30
0.00000000000000
11
-20.9312572266335
21
17.0616240965206
31
0.00000000000000
  0
LINE
  5
F10676
330
F10677
100
AcDbEntity
8
Geo
100
AcDbLine
10
-20.3312572266335
20
20.4616240965206
30
0.00000000000000
11
-20.3312572266335
21
17.6616240965206
31
0.00000000000000
  0
LINE
  5
F10678
330
F10679
100
AcDbEntity
8
Geo
 6
Dashdot
100
AcDbLine
10
-60.3312572266335
20
19.0616240965206
30
0.00000000000000
11
-20.3312572266335
21
19.0616240965206
31
0.00000000000000
0
VIEWPORT
5
294
102
{ACAD_XDICTIONARY
360
58A
102
}
330
25D
100
AcDbEntity
67
1
8
0
60
1
100
AcDbViewport
10
0.0
20
0.0
30
0.0
40
10.0
41
10.0
68
-1
69
1
12
0.0
22
0.0
13
0.0
23
0.0
14
1.0
24
1.0
15
0.0
25
0.0
16
0.0
26
0.0
36
1.0
17
0.0
27
0.0
37
0.0
42
0.0
43
0.0
44
0.0
45
10.0
50
0.0
51
0.0000000000007958
72
100
90
32800
1

281
0
71
0
74
0
110
0.0
120
0.0
130
0.0
111
1.0
121
0.0
131
0.0
112
0.0
122
1.0
132
0.0
79
0
146
0.0
1001
VD_INVISIBLE_NOT_FOR_READ
1000
VD_INVISIBLE_NOT_FOR_READ
0
VIEWPORT
5
295
102
{ACAD_XDICTIONARY
360
58C
102
}
330
25D
100
AcDbEntity
67
1
8
0
60
1
100
AcDbViewport
10
0.0
20
0.0
30
0.0
40
10.0
41
10.0
68
0
69
2
12
0.0
22
0.0
13
0.0
23
0.0
14
1.0
24
1.0
15
0.0
25
0.0
16
0.0
26
0.0
36
1.0
17
0.0
27
0.0
37
0.0
42
0.0
43
0.0
44
0.0
45
10.0
50
0.0
51
0.0000000000007958
72
100
90
163872
1

281
0
71
0
74
0
110
0.0
120
0.0
130
0.0
111
1.0
121
0.0
131
0.0
112
0.0
122
1.0
132
0.0
79
0
146
0.0
1001
VD_INVISIBLE_NOT_FOR_READ
1000
VD_INVISIBLE_NOT_FOR_READ
0
ENDSEC
0
SECTION
2
OBJECTS
0
DICTIONARY
5
13
330
0
100
AcDbDictionary
281
1
3
ACAD_COLOR
350
FA7
3
ACAD_GROUP
350
14
3
ACAD_LAYOUT
350
FCF
3
ACAD_MATERIAL
350
F7A
3
ACAD_MLEADERSTYLE
350
FCD
3
ACAD_MLINESTYLE
350
16
3
ACAD_PLOTSETTINGS
350
17
3
ACAD_PLOTSTYLENAME
350
18
3
ACAD_SCALELIST
350
FAB
3
ACAD_TABLESTYLE
350
FA8
3
ACAD_VISUALSTYLE
350
F93
3
ACDB_RECOMPOSE_DATA
350
107E
3
AcDbVariableDictionary
350
FF0
3
DWGPROPS
350
107F
0
DICTIONARY
5
FA7
102
{ACAD_REACTORS
330
13
102
}
330
13
100
AcDbDictionary
281
1
0
DICTIONARY
5
14
330
13
100
AcDbDictionary
281
1
0
DICTIONARY
5
FCF
102
{ACAD_REACTORS
330
13
102
}
330
13
100
AcDbDictionary
281
1
3
Layout1
350
FD1
3
Model
350
FD0
0
DICTIONARY
5
F7A
102
{ACAD_REACTORS
330
13
102
}
330
13
100
AcDbDictionary
281
1
3
ByBlock
350
F83
3
ByLayer
350
F7B
3
Global
350
F8B
0
DICTIONARY
5
FCD
102
{ACAD_REACTORS
330
13
102
}
330
13
100
AcDbDictionary
281
1
3
Standard
350
FCE
0
DICTIONARY
5
16
330
13
100
AcDbDictionary
281
1
3
Standard
350
FAA
0
DICTIONARY
5
17
102
{ACAD_REACTORS
330
13
102
}
330
13
100
AcDbDictionary
281
1
0
ACDBDICTIONARYWDFLT
5
18
102
{ACAD_REACTORS
330
13
102
}
330
13
100
AcDbDictionary
281
1
3
Normal
350
19
100
AcDbDictionaryWithDefault
340
19
0
DICTIONARY
5
FAB
102
{ACAD_REACTORS
330
13
102
}
330
13
100
AcDbDictionary
281
1
3
A0
350
FAC
3
A1
350
FAD
3
A2
350
FAE
3
A3
350
FAF
3
A4
350
FB0
3
A5
350
FB1
3
A6
350
FB2
3
A7
350
FB3
3
A8
350
FB4
3
A9
350
FB5
3
B0
350
FB6
3
B1
350
FB7
3
B2
350
FB8
3
B3
350
FB9
3
B4
350
FBA
3
B5
350
FBB
3
B6
350
FBC
3
B7
350
FBD
3
B8
350
FBE
3
B9
350
FBF
3
C0
350
FC0
3
C1
350
FC1
3
C2
350
FC2
3
C3
350
FC3
3
C4
350
FC4
3
C5
350
FC5
3
C6
350
FC6
3
C7
350
FC7
3
C8
350
FC8
3
C9
350
FC9
3
D0
350
FCA
3
D1
350
FCB
3
D2
350
FCC
0
DICTIONARY
5
FA8
102
{ACAD_REACTORS
330
13
102
}
330
13
100
AcDbDictionary
281
1
3
Standard
350
FA9
0
DICTIONARY
5
F93
102
{ACAD_REACTORS
330
13
102
}
330
13
100
AcDbDictionary
281
1
3
2dWireframe
350
F99
3
3D Hidden
350
F9B
3
3dWireframe
350
F9A
3
Basic
350
F98
3
Brighten
350
F9F
3
ColorChange
350
FA3
3
Conceptual
350
F9C
3
Dim
350
F9E
3
EdgeColorOff
350
FA6
3
Facepattern
350
FA2
3
Flat
350
F94
3
FlatWithEdges
350
F95
3
Gouraud
350
F96
3
GouraudWithEdges
350
F97
3
JitterOff
350
FA4
3
Linepattern
350
FA1
3
OverhangOff
350
FA5
3
Realistic
350
F9D
3
Thicken
350
FA0
0
XRECORD
5
107E
102
{ACAD_REACTORS
330
13
102
}
330
13
100
AcDbXrecord
280
1
90
1
330
FA9
0
DICTIONARY
5
FF0
102
{ACAD_REACTORS
330
13
102
}
330
13
100
AcDbDictionary
281
1
3
CANNOSCALE
350
FF3
3
CMLEADERSTYLE
350
FF2
3
CTABLESTYLE
350
FF1
3
DIMASSOC
350
FF6
3
INDEXCTL
350
FF5
3
SORTENTS
350
FF4
3
XCLIPFRAME
350
1078
0
XRECORD
5
107F
102
{ACAD_REACTORS
330
13
102
}
330
13
100
AcDbXrecord
280
1
1
DWGPROPS COOKIE
2

3

4

6

7

8

9

300
=
301
=
302
=
303
=
304
=
305
=
306
=
307
=
308
=
309
=
40
0.0
41
0.0
42
0.0
1

90
0
0
LAYOUT
5
FD1
102
{ACAD_XDICTIONARY
360
10A9
102
}
102
{ACAD_REACTORS
330
FCF
102
}
330
FCF
100
AcDbPlotSettings
1

2
Microsoft XPS Document Writer
4

6

40
0.0
41
0.0
42
0.0
43
0.0
44
0.0
45
0.0
46
0.0
47
0.0
48
0.0
49
0.0
140
0.0
141
0.0
142
1.0
143
1.0
70
688
72
0
73
0
74
5
7

75
16
147
1.0
148
0.0
149
0.0
100
AcDbLayout
1
Layout1
70
1
71
1
10
0.0
20
0.0
11
12.0
21
9.0
12
0.0
22
0.0
32
0.0
14
1.000000000000000E+20
24
1.000000000000000E+20
34
1.000000000000000E+20
15
-1.000000000000000E+20
25
-1.000000000000000E+20
35
-1.000000000000000E+20
146
0.0
13
0.0
23
0.0
33
0.0
16
1.0
26
0.0
36
0.0
17
0.0
27
1.0
37
0.0
76
0
330
25D
0
LAYOUT
5
FD0
102
{ACAD_XDICTIONARY
360
10A7
102
}
102
{ACAD_REACTORS
330
FCF
102
}
330
FCF
100
AcDbPlotSettings
1

2
Microsoft XPS Document Writer
4

6

40
0.0
41
0.0
42
0.0
43
0.0
44
0.0
45
0.0
46
0.0
47
0.0
48
0.0
49
0.0
140
0.0
141
0.0
142
1.0
143
1.0
70
1712
72
0
73
0
74
0
7

75
0
147
1.0
148
0.0
149
0.0
100
AcDbLayout
1
Model
70
1
71
0
10
0.0
20
0.0
11
12.0
21
9.0
12
0.0
22
0.0
32
0.0
14
0.0
24
0.0
34
0.0
15
0.0
25
0.0
35
0.0
146
0.0
13
0.0
23
0.0
33
0.0
16
1.0
26
0.0
36
0.0
17
0.0
27
1.0
37
0.0
76
0
330
261
331
26B
0
MATERIAL
5
F83
102
{ACAD_XDICTIONARY
360
F84
102
}
102
{ACAD_REACTORS
330
F7A
102
}
330
F7A
100
AcDbMaterial
1
ByBlock
72
0
43
0.0208333333333333
43
0.0
43
0.0
43
0.0
43
0.0
43
0.0208333333333333
43
0.0
43
0.0
43
0.0
43
0.0
43
1.0
43
0.0
43
0.0
43
0.0
43
0.0
43
1.0
77
0
47
0.0208333333333333
47
0.0
47
0.0
47
0.0
47
0.0
47
0.0208333333333333
47
0.0
47
0.0
47
0.0
47
0.0
47
1.0
47
0.0
47
0.0
47
0.0
47
0.0
47
1.0
171
0
49
0.0208333333333333
49
0.0
49
0.0
49
0.0
49
0.0
49
0.0208333333333333
49
0.0
49
0.0
49
0.0
49
0.0
49
1.0
49
0.0
49
0.0
49
0.0
49
0.0
49
1.0
175
0
142
0.0208333333333333
142
0.0
142
0.0
142
0.0
142
0.0
142
0.0208333333333333
142
0.0
142
0.0
142
0.0
142
0.0
142
1.0
142
0.0
142
0.0
142
0.0
142
0.0
142
1.0
179
0
144
0.0208333333333333
144
0.0
144
0.0
144
0.0
144
0.0
144
0.0208333333333333
144
0.0
144
0.0
144
0.0
144
0.0
144
1.0
144
0.0
144
0.0
144
0.0
144
0.0
144
1.0
147
0.0208333333333333
147
0.0
147
0.0
147
0.0
147
0.0
147
0.0208333333333333
147
0.0
147
0.0
147
0.0
147
0.0
147
1.0
147
0.0
147
0.0
147
0.0
147
0.0
147
1.0
0
MATERIAL
5
F7B
102
{ACAD_XDICTIONARY
360
F7C
102
}
102
{ACAD_REACTORS
330
F7A
102
}
330
F7A
100
AcDbMaterial
1
ByLayer
72
0
43
0.0208333333333333
43
0.0
43
0.0
43
0.0
43
0.0
43
0.0208333333333333
43
0.0
43
0.0
43
0.0
43
0.0
43
1.0
43
0.0
43
0.0
43
0.0
43
0.0
43
1.0
77
0
47
0.0208333333333333
47
0.0
47
0.0
47
0.0
47
0.0
47
0.0208333333333333
47
0.0
47
0.0
47
0.0
47
0.0
47
1.0
47
0.0
47
0.0
47
0.0
47
0.0
47
1.0
171
0
49
0.0208333333333333
49
0.0
49
0.0
49
0.0
49
0.0
49
0.0208333333333333
49
0.0
49
0.0
49
0.0
49
0.0
49
1.0
49
0.0
49
0.0
49
0.0
49
0.0
49
1.0
175
0
142
0.0208333333333333
142
0.0
142
0.0
142
0.0
142
0.0
142
0.0208333333333333
142
0.0
142
0.0
142
0.0
142
0.0
142
1.0
142
0.0
142
0.0
142
0.0
142
0.0
142
1.0
179
0
144
0.0208333333333333
144
0.0
144
0.0
144
0.0
144
0.0
144
0.0208333333333333
144
0.0
144
0.0
144
0.0
144
0.0
144
1.0
144
0.0
144
0.0
144
0.0
144
0.0
144
1.0
147
0.0208333333333333
147
0.0
147
0.0
147
0.0
147
0.0
147
0.0208333333333333
147
0.0
147
0.0
147
0.0
147
0.0
147
1.0
147
0.0
147
0.0
147
0.0
147
0.0
147
1.0
0
MATERIAL
5
F8B
102
{ACAD_XDICTIONARY
360
F8C
102
}
102
{ACAD_REACTORS
330
F7A
102
}
330
F7A
100
AcDbMaterial
1
Global
72
0
43
0.0208333333333333
43
0.0
43
0.0
43
0.0
43
0.0
43
0.0208333333333333
43
0.0
43
0.0
43
0.0
43
0.0
43
1.0
43
0.0
43
0.0
43
0.0
43
0.0
43
1.0
77
0
47
0.0208333333333333
47
0.0
47
0.0
47
0.0
47
0.0
47
0.0208333333333333
47
0.0
47
0.0
47
0.0
47
0.0
47
1.0
47
0.0
47
0.0
47
0.0
47
0.0
47
1.0
171
0
49
0.0208333333333333
49
0.0
49
0.0
49
0.0
49
0.0
49
0.0208333333333333
49
0.0
49
0.0
49
0.0
49
0.0
49
1.0
49
0.0
49
0.0
49
0.0
49
0.0
49
1.0
175
0
142
0.0208333333333333
142
0.0
142
0.0
142
0.0
142
0.0
142
0.0208333333333333
142
0.0
142
0.0
142
0.0
142
0.0
142
1.0
142
0.0
142
0.0
142
0.0
142
0.0
142
1.0
179
0
144
0.0208333333333333
144
0.0
144
0.0
144
0.0
144
0.0
144
0.0208333333333333
144
0.0
144
0.0
144
0.0
144
0.0
144
1.0
144
0.0
144
0.0
144
0.0
144
0.0
144
1.0
147
0.0208333333333333
147
0.0
147
0.0
147
0.0
147
0.0
147
0.0208333333333333
147
0.0
147
0.0
147
0.0
147
0.0
147
1.0
147
0.0
147
0.0
147
0.0
147
0.0
147
1.0
0
MLEADERSTYLE
5
FCE
102
{ACAD_REACTORS
330
FCD
102
}
330
FCD
100
AcDbMLeaderStyle
170
2
171
1
172
0
90
2
40
0.0
41
0.0
173
1
91
-1056964608
340
256
92
-2
290
1
42
0.09
291
1
43
0.36
3
Standard
44
0.18
300

342
253
174
1
178
6
175
1
176
0
93
-1056964608
45
0.18
292
0
297
0
46
0.18
94
-1056964608
47
1.0
49
1.0
140
1.0
293
1
141
0.0
294
1
177
0
142
1.0
295
0
296
0
143
0.125
1001
ACAD_MLEADERVER
1070
2
0
MLINESTYLE
5
FAA
102
{ACAD_REACTORS
330
16
102
}
330
16
100
AcDbMlineStyle
2
STANDARD
70
0
3

62
256
51
90.0
52
90.0
71
2
49
0.5
62
256
6
BYLAYER
49
-0.5
62
256
6
BYLAYER
0
ACDBPLACEHOLDER
5
19
102
{ACAD_REACTORS
330
18
102
}
330
18
0
SCALE
5
FAC
102
{ACAD_REACTORS
330
FAB
102
}
330
FAB
100
AcDbScale
70
0
300
1:1
140
1.0
141
1.0
290
1
0
SCALE
5
FAD
102
{ACAD_REACTORS
330
FAB
102
}
330
FAB
100
AcDbScale
70
0
300
1:2
140
1.0
141
2.0
290
0
0
SCALE
5
FAE
102
{ACAD_REACTORS
330
FAB
102
}
330
FAB
100
AcDbScale
70
0
300
1:4
140
1.0
141
4.0
290
0
0
SCALE
5
FAF
102
{ACAD_REACTORS
330
FAB
102
}
330
FAB
100
AcDbScale
70
0
300
1:5
140
1.0
141
5.0
290
0
0
SCALE
5
FB0
102
{ACAD_REACTORS
330
FAB
102
}
330
FAB
100
AcDbScale
70
0
300
1:8
140
1.0
141
8.0
290
0
0
SCALE
5
FB1
102
{ACAD_REACTORS
330
FAB
102
}
330
FAB
100
AcDbScale
70
0
300
1:10
140
1.0
141
10.0
290
0
0
SCALE
5
FB2
102
{ACAD_REACTORS
330
FAB
102
}
330
FAB
100
AcDbScale
70
0
300
1:16
140
1.0
141
16.0
290
0
0
SCALE
5
FB3
102
{ACAD_REACTORS
330
FAB
102
}
330
FAB
100
AcDbScale
70
0
300
1:20
140
1.0
141
20.0
290
0
0
SCALE
5
FB4
102
{ACAD_REACTORS
330
FAB
102
}
330
FAB
100
AcDbScale
70
0
300
1:30
140
1.0
141
30.0
290
0
0
SCALE
5
FB5
102
{ACAD_REACTORS
330
FAB
102
}
330
FAB
100
AcDbScale
70
0
300
1:40
140
1.0
141
40.0
290
0
0
SCALE
5
FB6
102
{ACAD_REACTORS
330
FAB
102
}
330
FAB
100
AcDbScale
70
0
300
1:50
140
1.0
141
50.0
290
0
0
SCALE
5
FB7
102
{ACAD_REACTORS
330
FAB
102
}
330
FAB
100
AcDbScale
70
0
300
1:100
140
1.0
141
100.0
290
0
0
SCALE
5
FB8
102
{ACAD_REACTORS
330
FAB
102
}
330
FAB
100
AcDbScale
70
0
300
2:1
140
2.0
141
1.0
290
0
0
SCALE
5
FB9
102
{ACAD_REACTORS
330
FAB
102
}
330
FAB
100
AcDbScale
70
0
300
4:1
140
4.0
141
1.0
290
0
0
SCALE
5
FBA
102
{ACAD_REACTORS
330
FAB
102
}
330
FAB
100
AcDbScale
70
0
300
8:1
140
8.0
141
1.0
290
0
0
SCALE
5
FBB
102
{ACAD_REACTORS
330
FAB
102
}
330
FAB
100
AcDbScale
70
0
300
10:1
140
10.0
141
1.0
290
0
0
SCALE
5
FBC
102
{ACAD_REACTORS
330
FAB
102
}
330
FAB
100
AcDbScale
70
0
300
100:1
140
100.0
141
1.0
290
0
0
SCALE
5
FBD
102
{ACAD_REACTORS
330
FAB
102
}
330
FAB
100
AcDbScale
70
0
300
1/128" = 1'-0"
140
0.0078125
141
12.0
290
0
0
SCALE
5
FBE
102
{ACAD_REACTORS
330
FAB
102
}
330
FAB
100
AcDbScale
70
0
300
1/64" = 1'-0"
140
0.015625
141
12.0
290
0
0
SCALE
5
FBF
102
{ACAD_REACTORS
330
FAB
102
}
330
FAB
100
AcDbScale
70
0
300
1/32" = 1'-0"
140
0.03125
141
12.0
290
0
0
SCALE
5
FC0
102
{ACAD_REACTORS
330
FAB
102
}
330
FAB
100
AcDbScale
70
0
300
1/16" = 1'-0"
140
0.0625
141
12.0
290
0
0
SCALE
5
FC1
102
{ACAD_REACTORS
330
FAB
102
}
330
FAB
100
AcDbScale
70
0
300
3/32" = 1'-0"
140
0.09375
141
12.0
290
0
0
SCALE
5
FC2
102
{ACAD_REACTORS
330
FAB
102
}
330
FAB
100
AcDbScale
70
0
300
1/8" = 1'-0"
140
0.125
141
12.0
290
0
0
SCALE
5
FC3
102
{ACAD_REACTORS
330
FAB
102
}
330
FAB
100
AcDbScale
70
0
300
3/16" = 1'-0"
140
0.1875
141
12.0
290
0
0
SCALE
5
FC4
102
{ACAD_REACTORS
330
FAB
102
}
330
FAB
100
AcDbScale
70
0
300
1/4" = 1'-0"
140
0.25
141
12.0
290
0
0
SCALE
5
FC5
102
{ACAD_REACTORS
330
FAB
102
}
330
FAB
100
AcDbScale
70
0
300
3/8" = 1'-0"
140
0.375
141
12.0
290
0
0
SCALE
5
FC6
102
{ACAD_REACTORS
330
FAB
102
}
330
FAB
100
AcDbScale
70
0
300
1/2" = 1'-0"
140
0.5
141
12.0
290
0
0
SCALE
5
FC7
102
{ACAD_REACTORS
330
FAB
102
}
330
FAB
100
AcDbScale
70
0
300
3/4" = 1'-0"
140
0.75
141
12.0
290
0
0
SCALE
5
FC8
102
{ACAD_REACTORS
330
FAB
102
}
330
FAB
100
AcDbScale
70
0
300
1" = 1'-0"
140
1.0
141
12.0
290
0
0
SCALE
5
FC9
102
{ACAD_REACTORS
330
FAB
102
}
330
FAB
100
AcDbScale
70
0
300
1-1/2" = 1'-0"
140
1.5
141
12.0
290
0
0
SCALE
5
FCA
102
{ACAD_REACTORS
330
FAB
102
}
330
FAB
100
AcDbScale
70
0
300
3" = 1'-0"
140
3.0
141
12.0
290
0
0
SCALE
5
FCB
102
{ACAD_REACTORS
330
FAB
102
}
330
FAB
100
AcDbScale
70
0
300
6" = 1'-0"
140
6.0
141
12.0
290
0
0
SCALE
5
FCC
102
{ACAD_REACTORS
330
FAB
102
}
330
FAB
100
AcDbScale
70
0
300
1'-0" = 1'-0"
140
12.0
141
12.0
290
0
0
TABLESTYLE
5
FA9
102
{ACAD_XDICTIONARY
360
FF8
102
}
102
{ACAD_REACTORS
330
FA8
102
}
330
FA8
100
AcDbTableStyle
3
Standard
70
0
71
0
40
0.06
41
0.06
280
0
281
0
7
Standard
140
0.18
170
2
62
0
63
7
283
0
274
-2
284
1
64
0
275
-2
285
1
65
0
276
-2
286
1
66
0
277
-2
287
1
67
0
278
-2
288
1
68
0
279
-2
289
1
69
0
7
Standard
140
0.25
170
5
62
0
63
7
283
0
274
-2
284
1
64
0
275
-2
285
1
65
0
276
-2
286
1
66
0
277
-2
287
1
67
0
278
-2
288
1
68
0
279
-2
289
1
69
0
7
Standard
140
0.18
170
5
62
0
63
7
283
0
274
-2
284
1
64
0
275
-2
285
1
65
0
276
-2
286
1
66
0
277
-2
287
1
67
0
278
-2
288
1
68
0
279
-2
289
1
69
0
0
VISUALSTYLE
5
F99
102
{ACAD_XDICTIONARY
360
108A
102
}
102
{ACAD_REACTORS
330
F93
102
}
330
F93
100
AcDbVisualStyle
2

70
4
71
0
72
2
73
0
90
0
40
-0.6
41
-30.0
62
5
63
7
74
1
91
4
64
7
65
257
75
1
175
1
42
1.0
92
0
66
257
43
1.0
76
1
77
6
78
2
67
7
79
5
170
0
171
0
290
0
174
0
93
1
44
0.0
173
0
291
0
45
0.0
1001
ACAD
1000
AcDbSavedByObjectVersion
1070
0
0
VISUALSTYLE
5
F9B
102
{ACAD_XDICTIONARY
360
108E
102
}
102
{ACAD_REACTORS
330
F93
102
}
330
F93
100
AcDbVisualStyle
2

70
6
71
1
72
2
73
2
90
0
40
-0.6
41
-30.0
62
5
63
7
74
2
91
2
64
7
65
257
75
2
175
1
42
179.0
92
0
66
257
43
1.0
76
1
77
6
78
2
67
7
79
3
170
0
171
0
290
0
174
0
93
1
44
0.0
173
0
291
0
45
0.0
1001
ACAD
1000
AcDbSavedByObjectVersion
1070
0
0
VISUALSTYLE
5
F9A
102
{ACAD_XDICTIONARY
360
108C
102
}
102
{ACAD_REACTORS
330
F93
102
}
330
F93
100
AcDbVisualStyle
2

70
5
71
0
72
2
73
0
90
0
40
-0.6
41
-30.0
62
5
63
7
74
1
91
4
64
7
65
257
75
1
175
1
42
1.0
92
0
66
257
43
1.0
76
1
77
6
78
2
67
7
79
5
170
0
171
0
290
0
174
0
93
1
44
0.0
173
0
291
0
45
0.0
1001
ACAD
1000
AcDbSavedByObjectVersion
1070
0
0
VISUALSTYLE
5
F98
102
{ACAD_XDICTIONARY
360
1088
102
}
102
{ACAD_REACTORS
330
F93
102
}
330
F93
100
AcDbVisualStyle
2

70
7
71
1
72
0
73
1
90
0
40
-0.6
41
-30.0
62
5
63
7
74
0
91
4
64
7
65
257
75
1
175
1
42
1.0
92
8
66
7
43
1.0
76
1
77
6
78
2
67
7
79
5
170
0
171
0
290
0
174
0
93
1
44
0.0
173
0
291
1
45
0.0
1001
ACAD
1000
AcDbSavedByObjectVersion
1070
0
0
VISUALSTYLE
5
F9F
102
{ACAD_XDICTIONARY
360
1096
102
}
102
{ACAD_REACTORS
330
F93
102
}
330
F93
100
AcDbVisualStyle
2

70
12
71
2
72
2
73
0
90
0
40
-0.6
41
-30.0
62
5
63
7
74
1
91
4
64
7
65
257
75
1
175
1
42
1.0
92
8
66
7
43
1.0
76
1
77
6
78
2
67
7
79
5
170
0
171
0
290
0
174
0
93
1
44
50.0
173
0
291
1
45
0.0
1001
ACAD
1000
AcDbSavedByObjectVersion
1070
0
0
VISUALSTYLE
5
FA3
102
{ACAD_XDICTIONARY
360
109E
102
}
102
{ACAD_REACTORS
330
F93
102
}
330
F93
100
AcDbVisualStyle
2

70
16
71
2
72
2
73
3
90
0
40
-0.6
41
-30.0
62
5
63
8
74
1
91
4
64
7
65
257
75
1
175
1
42
1.0
92
8
66
8
43
1.0
76
1
77
6
78
2
67
7
79
5
170
0
171
0
290
0
174
0
93
1
44
0.0
173
0
291
1
45
0.0
1001
ACAD
1000
AcDbSavedByObjectVersion
1070
0
0
VISUALSTYLE
5
F9C
102
{ACAD_XDICTIONARY
360
1090
102
}
102
{ACAD_REACTORS
330
F93
102
}
330
F93
100
AcDbVisualStyle
2

70
9
71
3
72
2
73
0
90
0
40
-0.6
41
-30.0
62
5
63
7
74
2
91
2
64
7
65
257
75
1
175
1
42
179.0
92
8
66
7
43
1.0
76
1
77
6
78
2
67
7
79
3
170
0
171
0
290
0
174
0
93
1
44
0.0
173
0
291
0
45
0.0
1001
ACAD
1000
AcDbSavedByObjectVersion
1070
0
0
VISUALSTYLE
5
F9E
102
{ACAD_XDICTIONARY
360
1094
102
}
102
{ACAD_REACTORS
330
F93
102
}
330
F93
100
AcDbVisualStyle
2

70
11
71
2
72
2
73
0
90
0
40
-0.6
41
-30.0
62
5
63
7
74
1
91
4
64
7
65
257
75
1
175
1
42
1.0
92
8
66
7
43
1.0
76
1
77
6
78
2
67
7
79
5
170
0
171
0
290
0
174
0
93
1
44
-50.0
173
0
291
1
45
0.0
1001
ACAD
1000
AcDbSavedByObjectVersion
1070
0
0
VISUALSTYLE
5
FA6
102
{ACAD_XDICTIONARY
360
10A4
102
}
102
{ACAD_REACTORS
330
F93
102
}
330
F93
100
AcDbVisualStyle
2

70
22
71
2
72
2
73
0
90
0
40
-0.6
41
-30.0
62
5
63
7
74
1
91
4
64
7
65
257
75
1
175
1
42
1.0
92
8
66
7
43
1.0
76
1
77
6
78
2
67
7
79
5
170
0
171
0
290
0
174
0
93
1
44
0.0
173
0
291
1
45
0.0
1001
ACAD
1000
AcDbSavedByObjectVersion
1070
0
0
VISUALSTYLE
5
FA2
102
{ACAD_XDICTIONARY
360
109C
102
}
102
{ACAD_REACTORS
330
F93
102
}
330
F93
100
AcDbVisualStyle
2

70
15
71
2
72
2
73
0
90
0
40
-0.6
41
-30.0
62
5
63
7
74
1
91
4
64
7
65
257
75
1
175
1
42
1.0
92
8
66
7
43
1.0
76
1
77
6
78
2
67
7
79
5
170
0
171
0
290
0
174
0
93
1
44
0.0
173
0
291
1
45
0.0
1001
ACAD
1000
AcDbSavedByObjectVersion
1070
0
0
VISUALSTYLE
5
F94
102
{ACAD_XDICTIONARY
360
1080
102
}
102
{ACAD_REACTORS
330
F93
102
}
330
F93
100
AcDbVisualStyle
2

70
0
71
2
72
1
73
1
90
2
40
-0.6
41
30.0
62
5
63
7
74
0
91
4
64
7
65
257
75
1
175
1
42
1.0
92
8
66
7
43
1.0
76
1
77
6
78
2
67
7
79
5
170
0
171
0
290
0
174
0
93
13
44
0.0
173
0
291
1
45
0.0
1001
ACAD
1000
AcDbSavedByObjectVersion
1070
0
0
VISUALSTYLE
5
F95
102
{ACAD_XDICTIONARY
360
1082
102
}
102
{ACAD_REACTORS
330
F93
102
}
330
F93
100
AcDbVisualStyle
2

70
1
71
2
72
1
73
1
90
2
40
-0.6
41
30.0
62
5
63
7
74
1
91
4
64
7
65
257
75
1
175
1
42
1.0
92
0
66
257
43
1.0
76
1
77
6
78
2
67
7
79
5
170
0
171
0
290
0
174
0
93
13
44
0.0
173
0
291
1
45
0.0
1001
ACAD
1000
AcDbSavedByObjectVersion
1070
0
0
VISUALSTYLE
5
F96
102
{ACAD_XDICTIONARY
360
1084
102
}
102
{ACAD_REACTORS
330
F93
102
}
330
F93
100
AcDbVisualStyle
2

70
2
71
2
72
2
73
1
90
2
40
-0.6
41
30.0
62
5
63
7
74
0
91
4
64
7
65
257
75
1
175
1
42
1.0
92
0
66
7
43
1.0
76
1
77
6
78
2
67
7
79
5
170
0
171
0
290
0
174
0
93
13
44
0.0
173
0
291
1
45
0.0
1001
ACAD
1000
AcDbSavedByObjectVersion
1070
0
0
VISUALSTYLE
5
F97
102
{ACAD_XDICTIONARY
360
1086
102
}
102
{ACAD_REACTORS
330
F93
102
}
330
F93
100
AcDbVisualStyle
2

70
3
71
2
72
2
73
1
90
2
40
-0.6
41
30.0
62
5
63
7
74
1
91
4
64
7
65
257
75
1
175
1
42
1.0
92
0
66
257
43
1.0
76
1
77
6
78
2
67
7
79
5
170
0
171
0
290
0
174
0
93
13
44
0.0
173
0
291
1
45
0.0
1001
ACAD
1000
AcDbSavedByObjectVersion
1070
0
0
VISUALSTYLE
5
FA4
102
{ACAD_XDICTIONARY
360
10A0
102
}
102
{ACAD_REACTORS
330
F93
102
}
330
F93
100
AcDbVisualStyle
2

70
20
71
2
72
2
73
0
90
0
40
-0.6
41
-30.0
62
5
63
7
74
1
91
4
64
7
65
257
75
1
175
1
42
1.0
92
10
66
7
43
1.0
76
1
77
6
78
2
67
7
79
5
170
0
171
0
290
0
174
0
93
1
44
0.0
173
0
291
1
45
0.0
1001
ACAD
1000
AcDbSavedByObjectVersion
1070
0
0
VISUALSTYLE
5
FA1
102
{ACAD_XDICTIONARY
360
109A
102
}
102
{ACAD_REACTORS
330
F93
102
}
330
F93
100
AcDbVisualStyle
2

70
14
71
2
72
2
73
0
90
0
40
-0.6
41
-30.0
62
5
63
7
74
1
91
4
64
7
65
257
75
7
175
7
42
1.0
92
8
66
7
43
1.0
76
1
77
6
78
2
67
7
79
5
170
0
171
0
290
0
174
0
93
1
44
0.0
173
0
291
1
45
0.0
1001
ACAD
1000
AcDbSavedByObjectVersion
1070
0
0
VISUALSTYLE
5
FA5
102
{ACAD_XDICTIONARY
360
10A2
102
}
102
{ACAD_REACTORS
330
F93
102
}
330
F93
100
AcDbVisualStyle
2

70
21
71
2
72
2
73
0
90
0
40
-0.6
41
-30.0
62
5
63
7
74
1
91
4
64
7
65
257
75
1
175
1
42
1.0
92
9
66
7
43
1.0
76
1
77
6
78
2
67
7
79
5
170
0
171
0
290
0
174
0
93
1
44
0.0
173
0
291
1
45
0.0
1001
ACAD
1000
AcDbSavedByObjectVersion
1070
0
0
VISUALSTYLE
5
F9D
102
{ACAD_XDICTIONARY
360
1092
102
}
102
{ACAD_REACTORS
330
F93
102
}
330
F93
100
AcDbVisualStyle
2

70
8
71
2
72
2
73
0
90
0
40
-0.6
41
-30.0
62
5
63
7
74
1
91
0
64
7
65
257
75
1
175
1
42
1.0
92
8
66
8
43
1.0
76
1
77
6
78
2
67
7
79
5
170
0
171
0
290
0
174
0
93
13
44
0.0
173
0
291
0
45
0.0
1001
ACAD
1000
AcDbSavedByObjectVersion
1070
0
0
VISUALSTYLE
5
FA0
102
{ACAD_XDICTIONARY
360
1098
102
}
102
{ACAD_REACTORS
330
F93
102
}
330
F93
100
AcDbVisualStyle
2

70
13
71
2
72
2
73
0
90
0
40
-0.6
41
-30.0
62
5
63
7
74
1
91
4
64
7
65
257
75
1
175
1
42
1.0
92
12
66
7
43
1.0
76
1
77
6
78
2
67
7
79
5
170
0
171
0
290
0
174
0
93
1
44
0.0
173
0
291
1
45
0.0
1001
ACAD
1000
AcDbSavedByObjectVersion
1070
0
0
DICTIONARYVAR
5
FF3
102
{ACAD_REACTORS
330
FF0
102
}
330
FF0
100
DictionaryVariables
280
0
1
1:1
0
DICTIONARYVAR
5
FF2
102
{ACAD_REACTORS
330
FF0
102
}
330
FF0
100
DictionaryVariables
280
0
1
STANDARD
0
DICTIONARYVAR
5
FF1
102
{ACAD_REACTORS
330
FF0
102
}
330
FF0
100
DictionaryVariables
280
0
1
STANDARD
0
DICTIONARYVAR
5
FF6
102
{ACAD_REACTORS
330
FF0
102
}
330
FF0
100
DictionaryVariables
280
0
1
1
0
DICTIONARYVAR
5
FF5
102
{ACAD_REACTORS
330
FF0
102
}
330
FF0
100
DictionaryVariables
280
0
1
0
0
DICTIONARYVAR
5
FF4
102
{ACAD_REACTORS
330
FF0
102
}
330
FF0
100
DictionaryVariables
280
0
1
127
0
DICTIONARYVAR
5
1078
102
{ACAD_REACTORS
330
FF0
102
}
330
FF0
100
DictionaryVariables
280
0
1
2
0
DICTIONARY
5
10A9
330
FD1
100
AcDbDictionary
280
1
281
1
3
ACAD_XREC_ROUNDTRIP
360
10AA
0
DICTIONARY
5
10A7
330
FD0
100
AcDbDictionary
280
1
281
1
3
ACAD_XREC_ROUNDTRIP
360
10A8
0
DICTIONARY
5
F84
330
F83
100
AcDbDictionary
280
1
281
1
3
ACAD_XREC_ROUNDTRIP
360
FFF
3
BUMPTILE
360
F86
3
DIFFUSETILE
360
F85
3
OPACITYTILE
360
F89
3
REFLECTIONTILE
360
F88
3
REFRACTIONTILE
360
F8A
3
SPECULARTILE
360
F87
0
DICTIONARY
5
F7C
330
F7B
100
AcDbDictionary
280
1
281
1
3
ACAD_XREC_ROUNDTRIP
360
FFE
3
BUMPTILE
360
F7E
3
DIFFUSETILE
360
F7D
3
OPACITYTILE
360
F81
3
REFLECTIONTILE
360
F80
3
REFRACTIONTILE
360
F82
3
SPECULARTILE
360
F7F
0
DICTIONARY
5
F8C
330
F8B
100
AcDbDictionary
280
1
281
1
3
ACAD_XREC_ROUNDTRIP
360
1000
3
BUMPTILE
360
F8E
3
DIFFUSETILE
360
F8D
3
OPACITYTILE
360
F91
3
REFLECTIONTILE
360
F90
3
REFRACTIONTILE
360
F92
3
SPECULARTILE
360
F8F
0
DICTIONARY
5
FF8
330
FA9
100
AcDbDictionary
280
1
281
1
3
ACAD_ROUNDTRIP_2008_TABLESTYLE_CELLSTYLEMAP
360
1079
3
ACAD_XREC_ROUNDTRIP
360
10A6
0
DICTIONARY
5
108A
330
F99
100
AcDbDictionary
280
1
281
1
3
ACAD_XREC_ROUNDTRIP
360
108B
0
DICTIONARY
5
108E
330
F9B
100
AcDbDictionary
280
1
281
1
3
ACAD_XREC_ROUNDTRIP
360
108F
0
DICTIONARY
5
108C
330
F9A
100
AcDbDictionary
280
1
281
1
3
ACAD_XREC_ROUNDTRIP
360
108D
0
DICTIONARY
5
1088
330
F98
100
AcDbDictionary
280
1
281
1
3
ACAD_XREC_ROUNDTRIP
360
1089
0
DICTIONARY
5
1096
330
F9F
100
AcDbDictionary
280
1
281
1
3
ACAD_XREC_ROUNDTRIP
360
1097
0
DICTIONARY
5
109E
330
FA3
100
AcDbDictionary
280
1
281
1
3
ACAD_XREC_ROUNDTRIP
360
109F
0
DICTIONARY
5
1090
330
F9C
100
AcDbDictionary
280
1
281
1
3
ACAD_XREC_ROUNDTRIP
360
1091
0
DICTIONARY
5
1094
330
F9E
100
AcDbDictionary
280
1
281
1
3
ACAD_XREC_ROUNDTRIP
360
1095
0
DICTIONARY
5
10A4
330
FA6
100
AcDbDictionary
280
1
281
1
3
ACAD_XREC_ROUNDTRIP
360
10A5
0
DICTIONARY
5
109C
330
FA2
100
AcDbDictionary
280
1
281
1
3
ACAD_XREC_ROUNDTRIP
360
109D
0
DICTIONARY
5
1080
330
F94
100
AcDbDictionary
280
1
281
1
3
ACAD_XREC_ROUNDTRIP
360
1081
0
DICTIONARY
5
1082
330
F95
100
AcDbDictionary
280
1
281
1
3
ACAD_XREC_ROUNDTRIP
360
1083
0
DICTIONARY
5
1084
330
F96
100
AcDbDictionary
280
1
281
1
3
ACAD_XREC_ROUNDTRIP
360
1085
0
DICTIONARY
5
1086
330
F97
100
AcDbDictionary
280
1
281
1
3
ACAD_XREC_ROUNDTRIP
360
1087
0
DICTIONARY
5
10A0
330
FA4
100
AcDbDictionary
280
1
281
1
3
ACAD_XREC_ROUNDTRIP
360
10A1
0
DICTIONARY
5
109A
330
FA1
100
AcDbDictionary
280
1
281
1
3
ACAD_XREC_ROUNDTRIP
360
109B
0
DICTIONARY
5
10A2
330
FA5
100
AcDbDictionary
280
1
281
1
3
ACAD_XREC_ROUNDTRIP
360
10A3
0
DICTIONARY
5
1092
330
F9D
100
AcDbDictionary
280
1
281
1
3
ACAD_XREC_ROUNDTRIP
360
1093
0
DICTIONARY
5
1098
330
FA0
100
AcDbDictionary
280
1
281
1
3
ACAD_XREC_ROUNDTRIP
360
1099
0
XRECORD
5
10AA
102
{ACAD_REACTORS
330
10A9
102
}
330
10A9
100
AcDbXrecord
280
1
102
SHADEPLOT
70
0
102
SHADEPLOTRESLEVEL
70
2
102
SHADEPLOTCUSTOMDPI
70
300
0
XRECORD
5
10A8
102
{ACAD_REACTORS
330
10A7
102
}
330
10A7
100
AcDbXrecord
280
1
102
SHADEPLOT
70
0
102
SHADEPLOTRESLEVEL
70
2
102
SHADEPLOTCUSTOMDPI
70
300
0
XRECORD
5
FFF
102
{ACAD_REACTORS
330
F84
102
}
330
F84
100
AcDbXrecord
280
1
102
MATERIAL
148
0.0
149
0.0
149
0.0
93
0
94
127
282
0
72
0
77
0
171
0
175
0
179
0
273
0
0
XRECORD
5
F86
102
{ACAD_REACTORS
330
F84
102
}
330
F84
100
AcDbXrecord
280
1
270
1
271
1
0
XRECORD
5
F85
102
{ACAD_REACTORS
330
F84
102
}
330
F84
100
AcDbXrecord
280
1
270
1
271
1
0
XRECORD
5
F89
102
{ACAD_REACTORS
330
F84
102
}
330
F84
100
AcDbXrecord
280
1
270
1
271
1
0
XRECORD
5
F88
102
{ACAD_REACTORS
330
F84
102
}
330
F84
100
AcDbXrecord
280
1
270
1
271
1
0
XRECORD
5
F8A
102
{ACAD_REACTORS
330
F84
102
}
330
F84
100
AcDbXrecord
280
1
270
1
271
1
0
XRECORD
5
F87
102
{ACAD_REACTORS
330
F84
102
}
330
F84
100
AcDbXrecord
280
1
270
1
271
1
0
XRECORD
5
FFE
102
{ACAD_REACTORS
330
F7C
102
}
330
F7C
100
AcDbXrecord
280
1
102
MATERIAL
148
0.0
149
0.0
149
0.0
93
0
94
127
282
0
72
0
77
0
171
0
175
0
179
0
273
0
0
XRECORD
5
F7E
102
{ACAD_REACTORS
330
F7C
102
}
330
F7C
100
AcDbXrecord
280
1
270
1
271
1
0
XRECORD
5
F7D
102
{ACAD_REACTORS
330
F7C
102
}
330
F7C
100
AcDbXrecord
280
1
270
1
271
1
0
XRECORD
5
F81
102
{ACAD_REACTORS
330
F7C
102
}
330
F7C
100
AcDbXrecord
280
1
270
1
271
1
0
XRECORD
5
F80
102
{ACAD_REACTORS
330
F7C
102
}
330
F7C
100
AcDbXrecord
280
1
270
1
271
1
0
XRECORD
5
F82
102
{ACAD_REACTORS
330
F7C
102
}
330
F7C
100
AcDbXrecord
280
1
270
1
271
1
0
XRECORD
5
F7F
102
{ACAD_REACTORS
330
F7C
102
}
330
F7C
100
AcDbXrecord
280
1
270
1
271
1
0
XRECORD
5
1000
102
{ACAD_REACTORS
330
F8C
102
}
330
F8C
100
AcDbXrecord
280
1
102
MATERIAL
148
0.0
149
0.0
149
0.0
93
0
94
127
282
0
72
0
77
0
171
0
175
0
179
0
273
0
0
XRECORD
5
F8E
102
{ACAD_REACTORS
330
F8C
102
}
330
F8C
100
AcDbXrecord
280
1
270
1
271
1
0
XRECORD
5
F8D
102
{ACAD_REACTORS
330
F8C
102
}
330
F8C
100
AcDbXrecord
280
1
270
1
271
1
0
XRECORD
5
F91
102
{ACAD_REACTORS
330
F8C
102
}
330
F8C
100
AcDbXrecord
280
1
270
1
271
1
0
XRECORD
5
F90
102
{ACAD_REACTORS
330
F8C
102
}
330
F8C
100
AcDbXrecord
280
1
270
1
271
1
0
XRECORD
5
F92
102
{ACAD_REACTORS
330
F8C
102
}
330
F8C
100
AcDbXrecord
280
1
270
1
271
1
0
XRECORD
5
F8F
102
{ACAD_REACTORS
330
F8C
102
}
330
F8C
100
AcDbXrecord
280
1
270
1
271
1
0
CELLSTYLEMAP
5
1079
102
{ACAD_REACTORS
330
FF8
102
}
330
FF8
100
AcDbCellStyleMap
90
3
300
CELLSTYLE
1
TABLEFORMAT_BEGIN
90
5
170
1
91
0
92
32768
62
257
93
1
300
CONTENTFORMAT
1
CONTENTFORMAT_BEGIN
90
0
91
0
92
512
93
0
300

40
0.0
140
1.0
94
5
62
0
340
253
144
0.25
309
CONTENTFORMAT_END
171
1
301
MARGIN
1
CELLMARGIN_BEGIN
40
0.06
40
0.06
40
0.06
40
0.06
40
0.18
40
0.18
309
CELLMARGIN_END
94
6
95
1
302
GRIDFORMAT
1
GRIDFORMAT_BEGIN
90
0
91
1
62
0
92
-2
340
0
93
0
40
0.045
309
GRIDFORMAT_END
95
2
302
GRIDFORMAT
1
GRIDFORMAT_BEGIN
90
0
91
1
62
0
92
-2
340
0
93
0
40
0.045
309
GRIDFORMAT_END
95
4
302
GRIDFORMAT
1
GRIDFORMAT_BEGIN
90
0
91
1
62
0
92
-2
340
0
93
0
40
0.045
309
GRIDFORMAT_END
95
8
302
GRIDFORMAT
1
GRIDFORMAT_BEGIN
90
0
91
1
62
0
92
-2
340
0
93
0
40
0.045
309
GRIDFORMAT_END
95
16
302
GRIDFORMAT
1
GRIDFORMAT_BEGIN
90
0
91
1
62
0
92
-2
340
0
93
0
40
0.045
309
GRIDFORMAT_END
95
32
302
GRIDFORMAT
1
GRIDFORMAT_BEGIN
90
0
91
1
62
0
92
-2
340
0
93
0
40
0.045
309
GRIDFORMAT_END
309
TABLEFORMAT_END
1
CELLSTYLE_BEGIN
90
1
91
1
300
_TITLE
309
CELLSTYLE_END
300
CELLSTYLE
1
TABLEFORMAT_BEGIN
90
5
170
1
91
0
92
0
62
257
93
1
300
CONTENTFORMAT
1
CONTENTFORMAT_BEGIN
90
0
91
0
92
512
93
0
300

40
0.0
140
1.0
94
5
62
0
340
253
144
0.18
309
CONTENTFORMAT_END
171
1
301
MARGIN
1
CELLMARGIN_BEGIN
40
0.06
40
0.06
40
0.06
40
0.06
40
0.18
40
0.18
309
CELLMARGIN_END
94
6
95
1
302
GRIDFORMAT
1
GRIDFORMAT_BEGIN
90
0
91
1
62
0
92
-2
340
0
93
0
40
0.045
309
GRIDFORMAT_END
95
2
302
GRIDFORMAT
1
GRIDFORMAT_BEGIN
90
0
91
1
62
0
92
-2
340
0
93
0
40
0.045
309
GRIDFORMAT_END
95
4
302
GRIDFORMAT
1
GRIDFORMAT_BEGIN
90
0
91
1
62
0
92
-2
340
0
93
0
40
0.045
309
GRIDFORMAT_END
95
8
302
GRIDFORMAT
1
GRIDFORMAT_BEGIN
90
0
91
1
62
0
92
-2
340
0
93
0
40
0.045
309
GRIDFORMAT_END
95
16
302
GRIDFORMAT
1
GRIDFORMAT_BEGIN
90
0
91
1
62
0
92
-2
340
0
93
0
40
0.045
309
GRIDFORMAT_END
95
32
302
GRIDFORMAT
1
GRIDFORMAT_BEGIN
90
0
91
1
62
0
92
-2
340
0
93
0
40
0.045
309
GRIDFORMAT_END
309
TABLEFORMAT_END
1
CELLSTYLE_BEGIN
90
2
91
1
300
_HEADER
309
CELLSTYLE_END
300
CELLSTYLE
1
TABLEFORMAT_BEGIN
90
5
170
1
91
0
92
0
62
257
93
1
300
CONTENTFORMAT
1
CONTENTFORMAT_BEGIN
90
0
91
0
92
512
93
0
300

40
0.0
140
1.0
94
2
62
0
340
253
144
0.18
309
CONTENTFORMAT_END
171
1
301
MARGIN
1
CELLMARGIN_BEGIN
40
0.06
40
0.06
40
0.06
40
0.06
40
0.18
40
0.18
309
CELLMARGIN_END
94
6
95
1
302
GRIDFORMAT
1
GRIDFORMAT_BEGIN
90
0
91
1
62
0
92
-2
340
0
93
0
40
0.045
309
GRIDFORMAT_END
95
2
302
GRIDFORMAT
1
GRIDFORMAT_BEGIN
90
0
91
1
62
0
92
-2
340
0
93
0
40
0.045
309
GRIDFORMAT_END
95
4
302
GRIDFORMAT
1
GRIDFORMAT_BEGIN
90
0
91
1
62
0
92
-2
340
0
93
0
40
0.045
309
GRIDFORMAT_END
95
8
302
GRIDFORMAT
1
GRIDFORMAT_BEGIN
90
0
91
1
62
0
92
-2
340
0
93
0
40
0.045
309
GRIDFORMAT_END
95
16
302
GRIDFORMAT
1
GRIDFORMAT_BEGIN
90
0
91
1
62
0
92
-2
340
0
93
0
40
0.045
309
GRIDFORMAT_END
95
32
302
GRIDFORMAT
1
GRIDFORMAT_BEGIN
90
0
91
1
62
0
92
-2
340
0
93
0
40
0.045
309
GRIDFORMAT_END
309
TABLEFORMAT_END
1
CELLSTYLE_BEGIN
90
3
91
2
300
_DATA
309
CELLSTYLE_END
0
XRECORD
5
10A6
102
{ACAD_REACTORS
330
FF8
102
}
330
FF8
100
AcDbXrecord
280
1
102
ACAD_ROUNDTRIP_PRE2007_TABLESTYLE
90
512
91
0
1

92
512
93
0
2

94
512
95
0
3

0
XRECORD
5
108B
102
{ACAD_REACTORS
330
108A
102
}
330
108A
100
AcDbXrecord
280
1
102
RTVSPropertyOp0
70
1
102
RTVSPropertyOp1
70
1
102
RTVSPropertyOp2
70
1
102
RTVSPropertyOp3
70
1
102
RTVSPropertyOp4
70
1
102
RTVSPropertyOp5
70
1
102
RTVSPropertyOp6
70
1
102
RTVSPropertyOp7
70
1
102
RTVSPropertyOp8
70
1
102
RTVSPropertyOp9
70
1
102
RTVSPropertyOp10
70
1
102
RTVSPropertyOp11
70
1
102
RTVSPropertyOp12
70
1
102
RTVSPropertyOp13
70
1
102
RTVSPropertyOp14
70
1
102
RTVSPropertyOp15
70
1
102
RTVSPropertyOp16
70
1
102
RTVSPropertyOp17
70
1
102
RTVSPropertyOp18
70
1
102
RTVSPropertyOp19
70
1
102
RTVSPropertyOp20
70
1
102
RTVSPropertyOp21
70
1
102
RTVSPropertyOp22
70
1
102
RTVSPropertyOp23
70
1
102
RTVSPropertyOp24
70
1
102
RTVSPropertyOp25
70
1
102
RTVSPropertyOp26
70
1
102
RTVSPropertyOp27
70
1
0
XRECORD
5
108F
102
{ACAD_REACTORS
330
108E
102
}
330
108E
100
AcDbXrecord
280
1
102
RTVSPropertyOp0
70
1
102
RTVSPropertyOp1
70
1
102
RTVSPropertyOp2
70
1
102
RTVSPropertyOp3
70
1
102
RTVSPropertyOp4
70
1
102
RTVSPropertyOp5
70
1
102
RTVSPropertyOp6
70
1
102
RTVSPropertyOp7
70
1
102
RTVSPropertyOp8
70
1
102
RTVSPropertyOp9
70
1
102
RTVSPropertyOp10
70
1
102
RTVSPropertyOp11
70
1
102
RTVSPropertyOp12
70
1
102
RTVSPropertyOp13
70
1
102
RTVSPropertyOp14
70
1
102
RTVSPropertyOp15
70
1
102
RTVSPropertyOp16
70
1
102
RTVSPropertyOp17
70
1
102
RTVSPropertyOp18
70
1
102
RTVSPropertyOp19
70
1
102
RTVSPropertyOp20
70
1
102
RTVSPropertyOp21
70
1
102
RTVSPropertyOp22
70
1
102
RTVSPropertyOp23
70
1
102
RTVSPropertyOp24
70
1
102
RTVSPropertyOp25
70
1
102
RTVSPropertyOp26
70
1
102
RTVSPropertyOp27
70
1
0
XRECORD
5
108D
102
{ACAD_REACTORS
330
108C
102
}
330
108C
100
AcDbXrecord
280
1
102
RTVSPropertyOp0
70
1
102
RTVSPropertyOp1
70
1
102
RTVSPropertyOp2
70
1
102
RTVSPropertyOp3
70
1
102
RTVSPropertyOp4
70
1
102
RTVSPropertyOp5
70
1
102
RTVSPropertyOp6
70
1
102
RTVSPropertyOp7
70
1
102
RTVSPropertyOp8
70
1
102
RTVSPropertyOp9
70
1
102
RTVSPropertyOp10
70
1
102
RTVSPropertyOp11
70
1
102
RTVSPropertyOp12
70
1
102
RTVSPropertyOp13
70
1
102
RTVSPropertyOp14
70
1
102
RTVSPropertyOp15
70
1
102
RTVSPropertyOp16
70
1
102
RTVSPropertyOp17
70
1
102
RTVSPropertyOp18
70
1
102
RTVSPropertyOp19
70
1
102
RTVSPropertyOp20
70
1
102
RTVSPropertyOp21
70
1
102
RTVSPropertyOp22
70
1
102
RTVSPropertyOp23
70
1
102
RTVSPropertyOp24
70
1
102
RTVSPropertyOp25
70
1
102
RTVSPropertyOp26
70
1
102
RTVSPropertyOp27
70
1
0
XRECORD
5
1089
102
{ACAD_REACTORS
330
1088
102
}
330
1088
100
AcDbXrecord
280
1
102
RTVSPropertyOp0
70
1
102
RTVSPropertyOp1
70
1
102
RTVSPropertyOp2
70
1
102
RTVSPropertyOp3
70
1
102
RTVSPropertyOp4
70
1
102
RTVSPropertyOp5
70
1
102
RTVSPropertyOp6
70
1
102
RTVSPropertyOp7
70
1
102
RTVSPropertyOp8
70
1
102
RTVSPropertyOp9
70
1
102
RTVSPropertyOp10
70
1
102
RTVSPropertyOp11
70
1
102
RTVSPropertyOp12
70
1
102
RTVSPropertyOp13
70
1
102
RTVSPropertyOp14
70
1
102
RTVSPropertyOp15
70
1
102
RTVSPropertyOp16
70
1
102
RTVSPropertyOp17
70
1
102
RTVSPropertyOp18
70
1
102
RTVSPropertyOp19
70
1
102
RTVSPropertyOp20
70
1
102
RTVSPropertyOp21
70
1
102
RTVSPropertyOp22
70
1
102
RTVSPropertyOp23
70
1
102
RTVSPropertyOp24
70
1
102
RTVSPropertyOp25
70
1
102
RTVSPropertyOp26
70
1
102
RTVSPropertyOp27
70
1
0
XRECORD
5
1097
102
{ACAD_REACTORS
330
1096
102
}
330
1096
100
AcDbXrecord
280
1
102
RTVSPropertyOp0
70
1
102
RTVSPropertyOp1
70
1
102
RTVSPropertyOp2
70
1
102
RTVSPropertyOp3
70
1
102
RTVSPropertyOp4
70
1
102
RTVSPropertyOp5
70
1
102
RTVSPropertyOp6
70
1
102
RTVSPropertyOp7
70
1
102
RTVSPropertyOp8
70
1
102
RTVSPropertyOp9
70
1
102
RTVSPropertyOp10
70
1
102
RTVSPropertyOp11
70
1
102
RTVSPropertyOp12
70
1
102
RTVSPropertyOp13
70
1
102
RTVSPropertyOp14
70
1
102
RTVSPropertyOp15
70
1
102
RTVSPropertyOp16
70
1
102
RTVSPropertyOp17
70
1
102
RTVSPropertyOp18
70
1
102
RTVSPropertyOp19
70
1
102
RTVSPropertyOp20
70
1
102
RTVSPropertyOp21
70
1
102
RTVSPropertyOp22
70
1
102
RTVSPropertyOp23
70
1
102
RTVSPropertyOp24
70
1
102
RTVSPropertyOp25
70
1
102
RTVSPropertyOp26
70
1
102
RTVSPropertyOp27
70
1
0
XRECORD
5
109F
102
{ACAD_REACTORS
330
109E
102
}
330
109E
100
AcDbXrecord
280
1
102
RTVSPropertyOp0
70
1
102
RTVSPropertyOp1
70
1
102
RTVSPropertyOp2
70
1
102
RTVSPropertyOp3
70
1
102
RTVSPropertyOp4
70
1
102
RTVSPropertyOp5
70
1
102
RTVSPropertyOp6
70
1
102
RTVSPropertyOp7
70
1
102
RTVSPropertyOp8
70
1
102
RTVSPropertyOp9
70
1
102
RTVSPropertyOp10
70
1
102
RTVSPropertyOp11
70
1
102
RTVSPropertyOp12
70
1
102
RTVSPropertyOp13
70
1
102
RTVSPropertyOp14
70
1
102
RTVSPropertyOp15
70
1
102
RTVSPropertyOp16
70
1
102
RTVSPropertyOp17
70
1
102
RTVSPropertyOp18
70
1
102
RTVSPropertyOp19
70
1
102
RTVSPropertyOp20
70
1
102
RTVSPropertyOp21
70
1
102
RTVSPropertyOp22
70
1
102
RTVSPropertyOp23
70
1
102
RTVSPropertyOp24
70
1
102
RTVSPropertyOp25
70
1
102
RTVSPropertyOp26
70
1
102
RTVSPropertyOp27
70
1
0
XRECORD
5
1091
102
{ACAD_REACTORS
330
1090
102
}
330
1090
100
AcDbXrecord
280
1
102
RTVSPropertyOp0
70
1
102
RTVSPropertyOp1
70
1
102
RTVSPropertyOp2
70
1
102
RTVSPropertyOp3
70
1
102
RTVSPropertyOp4
70
1
102
RTVSPropertyOp5
70
1
102
RTVSPropertyOp6
70
1
102
RTVSPropertyOp7
70
1
102
RTVSPropertyOp8
70
1
102
RTVSPropertyOp9
70
1
102
RTVSPropertyOp10
70
1
102
RTVSPropertyOp11
70
1
102
RTVSPropertyOp12
70
1
102
RTVSPropertyOp13
70
1
102
RTVSPropertyOp14
70
1
102
RTVSPropertyOp15
70
1
102
RTVSPropertyOp16
70
1
102
RTVSPropertyOp17
70
1
102
RTVSPropertyOp18
70
1
102
RTVSPropertyOp19
70
1
102
RTVSPropertyOp20
70
1
102
RTVSPropertyOp21
70
1
102
RTVSPropertyOp22
70
1
102
RTVSPropertyOp23
70
1
102
RTVSPropertyOp24
70
1
102
RTVSPropertyOp25
70
1
102
RTVSPropertyOp26
70
1
102
RTVSPropertyOp27
70
1
0
XRECORD
5
1095
102
{ACAD_REACTORS
330
1094
102
}
330
1094
100
AcDbXrecord
280
1
102
RTVSPropertyOp0
70
1
102
RTVSPropertyOp1
70
1
102
RTVSPropertyOp2
70
1
102
RTVSPropertyOp3
70
1
102
RTVSPropertyOp4
70
1
102
RTVSPropertyOp5
70
1
102
RTVSPropertyOp6
70
1
102
RTVSPropertyOp7
70
1
102
RTVSPropertyOp8
70
1
102
RTVSPropertyOp9
70
1
102
RTVSPropertyOp10
70
1
102
RTVSPropertyOp11
70
1
102
RTVSPropertyOp12
70
1
102
RTVSPropertyOp13
70
1
102
RTVSPropertyOp14
70
1
102
RTVSPropertyOp15
70
1
102
RTVSPropertyOp16
70
1
102
RTVSPropertyOp17
70
1
102
RTVSPropertyOp18
70
1
102
RTVSPropertyOp19
70
1
102
RTVSPropertyOp20
70
1
102
RTVSPropertyOp21
70
1
102
RTVSPropertyOp22
70
1
102
RTVSPropertyOp23
70
1
102
RTVSPropertyOp24
70
1
102
RTVSPropertyOp25
70
1
102
RTVSPropertyOp26
70
1
102
RTVSPropertyOp27
70
1
0
XRECORD
5
10A5
102
{ACAD_REACTORS
330
10A4
102
}
330
10A4
100
AcDbXrecord
280
1
102
RTVSPropertyOp0
70
0
102
RTVSPropertyOp1
70
0
102
RTVSPropertyOp2
70
0
102
RTVSPropertyOp3
70
0
102
RTVSPropertyOp4
70
0
102
RTVSPropertyOp5
70
0
102
RTVSPropertyOp6
70
0
102
RTVSPropertyOp7
70
0
102
RTVSPropertyOp8
70
0
102
RTVSPropertyOp9
70
0
102
RTVSPropertyOp10
70
0
102
RTVSPropertyOp11
70
0
102
RTVSPropertyOp12
70
0
102
RTVSPropertyOp13
70
0
102
RTVSPropertyOp14
70
2
102
RTVSPropertyOp15
70
0
102
RTVSPropertyOp16
70
0
102
RTVSPropertyOp17
70
0
102
RTVSPropertyOp18
70
0
102
RTVSPropertyOp19
70
0
102
RTVSPropertyOp20
70
0
102
RTVSPropertyOp21
70
0
102
RTVSPropertyOp22
70
0
102
RTVSPropertyOp23
70
0
102
RTVSPropertyOp24
70
0
102
RTVSPropertyOp25
70
0
102
RTVSPropertyOp26
70
0
102
RTVSPropertyOp27
70
0
0
XRECORD
5
109D
102
{ACAD_REACTORS
330
109C
102
}
330
109C
100
AcDbXrecord
280
1
102
RTVSPropertyOp0
70
1
102
RTVSPropertyOp1
70
1
102
RTVSPropertyOp2
70
1
102
RTVSPropertyOp3
70
1
102
RTVSPropertyOp4
70
1
102
RTVSPropertyOp5
70
1
102
RTVSPropertyOp6
70
1
102
RTVSPropertyOp7
70
1
102
RTVSPropertyOp8
70
1
102
RTVSPropertyOp9
70
1
102
RTVSPropertyOp10
70
1
102
RTVSPropertyOp11
70
1
102
RTVSPropertyOp12
70
1
102
RTVSPropertyOp13
70
1
102
RTVSPropertyOp14
70
1
102
RTVSPropertyOp15
70
1
102
RTVSPropertyOp16
70
1
102
RTVSPropertyOp17
70
1
102
RTVSPropertyOp18
70
1
102
RTVSPropertyOp19
70
1
102
RTVSPropertyOp20
70
1
102
RTVSPropertyOp21
70
1
102
RTVSPropertyOp22
70
1
102
RTVSPropertyOp23
70
1
102
RTVSPropertyOp24
70
1
102
RTVSPropertyOp25
70
1
102
RTVSPropertyOp26
70
1
102
RTVSPropertyOp27
70
1
0
XRECORD
5
1081
102
{ACAD_REACTORS
330
1080
102
}
330
1080
100
AcDbXrecord
280
1
102
RTVSPropertyOp0
70
1
102
RTVSPropertyOp1
70
1
102
RTVSPropertyOp2
70
1
102
RTVSPropertyOp3
70
1
102
RTVSPropertyOp4
70
1
102
RTVSPropertyOp5
70
1
102
RTVSPropertyOp6
70
1
102
RTVSPropertyOp7
70
1
102
RTVSPropertyOp8
70
1
102
RTVSPropertyOp9
70
1
102
RTVSPropertyOp10
70
1
102
RTVSPropertyOp11
70
1
102
RTVSPropertyOp12
70
1
102
RTVSPropertyOp13
70
1
102
RTVSPropertyOp14
70
1
102
RTVSPropertyOp15
70
1
102
RTVSPropertyOp16
70
1
102
RTVSPropertyOp17
70
1
102
RTVSPropertyOp18
70
1
102
RTVSPropertyOp19
70
1
102
RTVSPropertyOp20
70
1
102
RTVSPropertyOp21
70
1
102
RTVSPropertyOp22
70
1
102
RTVSPropertyOp23
70
1
102
RTVSPropertyOp24
70
1
102
RTVSPropertyOp25
70
1
102
RTVSPropertyOp26
70
1
102
RTVSPropertyOp27
70
1
0
XRECORD
5
1083
102
{ACAD_REACTORS
330
1082
102
}
330
1082
100
AcDbXrecord
280
1
102
RTVSPropertyOp0
70
1
102
RTVSPropertyOp1
70
1
102
RTVSPropertyOp2
70
1
102
RTVSPropertyOp3
70
1
102
RTVSPropertyOp4
70
1
102
RTVSPropertyOp5
70
1
102
RTVSPropertyOp6
70
1
102
RTVSPropertyOp7
70
1
102
RTVSPropertyOp8
70
1
102
RTVSPropertyOp9
70
1
102
RTVSPropertyOp10
70
1
102
RTVSPropertyOp11
70
1
102
RTVSPropertyOp12
70
1
102
RTVSPropertyOp13
70
1
102
RTVSPropertyOp14
70
1
102
RTVSPropertyOp15
70
1
102
RTVSPropertyOp16
70
1
102
RTVSPropertyOp17
70
1
102
RTVSPropertyOp18
70
1
102
RTVSPropertyOp19
70
1
102
RTVSPropertyOp20
70
1
102
RTVSPropertyOp21
70
1
102
RTVSPropertyOp22
70
1
102
RTVSPropertyOp23
70
1
102
RTVSPropertyOp24
70
1
102
RTVSPropertyOp25
70
1
102
RTVSPropertyOp26
70
1
102
RTVSPropertyOp27
70
1
0
XRECORD
5
1085
102
{ACAD_REACTORS
330
1084
102
}
330
1084
100
AcDbXrecord
280
1
102
RTVSPropertyOp0
70
1
102
RTVSPropertyOp1
70
1
102
RTVSPropertyOp2
70
1
102
RTVSPropertyOp3
70
1
102
RTVSPropertyOp4
70
1
102
RTVSPropertyOp5
70
1
102
RTVSPropertyOp6
70
1
102
RTVSPropertyOp7
70
1
102
RTVSPropertyOp8
70
1
102
RTVSPropertyOp9
70
1
102
RTVSPropertyOp10
70
1
102
RTVSPropertyOp11
70
1
102
RTVSPropertyOp12
70
1
102
RTVSPropertyOp13
70
1
102
RTVSPropertyOp14
70
1
102
RTVSPropertyOp15
70
1
102
RTVSPropertyOp16
70
1
102
RTVSPropertyOp17
70
1
102
RTVSPropertyOp18
70
1
102
RTVSPropertyOp19
70
1
102
RTVSPropertyOp20
70
1
102
RTVSPropertyOp21
70
1
102
RTVSPropertyOp22
70
1
102
RTVSPropertyOp23
70
1
102
RTVSPropertyOp24
70
1
102
RTVSPropertyOp25
70
1
102
RTVSPropertyOp26
70
1
102
RTVSPropertyOp27
70
1
0
XRECORD
5
1087
102
{ACAD_REACTORS
330
1086
102
}
330
1086
100
AcDbXrecord
280
1
102
RTVSPropertyOp0
70
1
102
RTVSPropertyOp1
70
1
102
RTVSPropertyOp2
70
1
102
RTVSPropertyOp3
70
1
102
RTVSPropertyOp4
70
1
102
RTVSPropertyOp5
70
1
102
RTVSPropertyOp6
70
1
102
RTVSPropertyOp7
70
1
102
RTVSPropertyOp8
70
1
102
RTVSPropertyOp9
70
1
102
RTVSPropertyOp10
70
1
102
RTVSPropertyOp11
70
1
102
RTVSPropertyOp12
70
1
102
RTVSPropertyOp13
70
1
102
RTVSPropertyOp14
70
1
102
RTVSPropertyOp15
70
1
102
RTVSPropertyOp16
70
1
102
RTVSPropertyOp17
70
1
102
RTVSPropertyOp18
70
1
102
RTVSPropertyOp19
70
1
102
RTVSPropertyOp20
70
1
102
RTVSPropertyOp21
70
1
102
RTVSPropertyOp22
70
1
102
RTVSPropertyOp23
70
1
102
RTVSPropertyOp24
70
1
102
RTVSPropertyOp25
70
1
102
RTVSPropertyOp26
70
1
102
RTVSPropertyOp27
70
1
0
XRECORD
5
10A1
102
{ACAD_REACTORS
330
10A0
102
}
330
10A0
100
AcDbXrecord
280
1
102
RTVSPropertyOp0
70
0
102
RTVSPropertyOp1
70
0
102
RTVSPropertyOp2
70
0
102
RTVSPropertyOp3
70
0
102
RTVSPropertyOp4
70
0
102
RTVSPropertyOp5
70
0
102
RTVSPropertyOp6
70
0
102
RTVSPropertyOp7
70
0
102
RTVSPropertyOp8
70
0
102
RTVSPropertyOp9
70
0
102
RTVSPropertyOp10
70
0
102
RTVSPropertyOp11
70
0
102
RTVSPropertyOp12
70
0
102
RTVSPropertyOp13
70
0
102
RTVSPropertyOp14
70
2
102
RTVSPropertyOp15
70
0
102
RTVSPropertyOp16
70
0
102
RTVSPropertyOp17
70
0
102
RTVSPropertyOp18
70
0
102
RTVSPropertyOp19
70
0
102
RTVSPropertyOp20
70
0
102
RTVSPropertyOp21
70
0
102
RTVSPropertyOp22
70
0
102
RTVSPropertyOp23
70
0
102
RTVSPropertyOp24
70
0
102
RTVSPropertyOp25
70
0
102
RTVSPropertyOp26
70
0
102
RTVSPropertyOp27
70
0
0
XRECORD
5
109B
102
{ACAD_REACTORS
330
109A
102
}
330
109A
100
AcDbXrecord
280
1
102
RTVSPropertyOp0
70
1
102
RTVSPropertyOp1
70
1
102
RTVSPropertyOp2
70
1
102
RTVSPropertyOp3
70
1
102
RTVSPropertyOp4
70
1
102
RTVSPropertyOp5
70
1
102
RTVSPropertyOp6
70
1
102
RTVSPropertyOp7
70
1
102
RTVSPropertyOp8
70
1
102
RTVSPropertyOp9
70
1
102
RTVSPropertyOp10
70
1
102
RTVSPropertyOp11
70
1
102
RTVSPropertyOp12
70
1
102
RTVSPropertyOp13
70
1
102
RTVSPropertyOp14
70
1
102
RTVSPropertyOp15
70
1
102
RTVSPropertyOp16
70
1
102
RTVSPropertyOp17
70
1
102
RTVSPropertyOp18
70
1
102
RTVSPropertyOp19
70
1
102
RTVSPropertyOp20
70
1
102
RTVSPropertyOp21
70
1
102
RTVSPropertyOp22
70
1
102
RTVSPropertyOp23
70
1
102
RTVSPropertyOp24
70
1
102
RTVSPropertyOp25
70
1
102
RTVSPropertyOp26
70
1
102
RTVSPropertyOp27
70
1
0
XRECORD
5
10A3
102
{ACAD_REACTORS
330
10A2
102
}
330
10A2
100
AcDbXrecord
280
1
102
RTVSPropertyOp0
70
0
102
RTVSPropertyOp1
70
0
102
RTVSPropertyOp2
70
0
102
RTVSPropertyOp3
70
0
102
RTVSPropertyOp4
70
0
102
RTVSPropertyOp5
70
0
102
RTVSPropertyOp6
70
0
102
RTVSPropertyOp7
70
0
102
RTVSPropertyOp8
70
0
102
RTVSPropertyOp9
70
0
102
RTVSPropertyOp10
70
0
102
RTVSPropertyOp11
70
0
102
RTVSPropertyOp12
70
0
102
RTVSPropertyOp13
70
0
102
RTVSPropertyOp14
70
2
102
RTVSPropertyOp15
70
0
102
RTVSPropertyOp16
70
0
102
RTVSPropertyOp17
70
0
102
RTVSPropertyOp18
70
0
102
RTVSPropertyOp19
70
0
102
RTVSPropertyOp20
70
0
102
RTVSPropertyOp21
70
0
102
RTVSPropertyOp22
70
0
102
RTVSPropertyOp23
70
0
102
RTVSPropertyOp24
70
0
102
RTVSPropertyOp25
70
0
102
RTVSPropertyOp26
70
0
102
RTVSPropertyOp27
70
0
0
XRECORD
5
1093
102
{ACAD_REACTORS
330
1092
102
}
330
1092
100
AcDbXrecord
280
1
102
RTVSPropertyOp0
70
1
102
RTVSPropertyOp1
70
1
102
RTVSPropertyOp2
70
1
102
RTVSPropertyOp3
70
1
102
RTVSPropertyOp4
70
1
102
RTVSPropertyOp5
70
1
102
RTVSPropertyOp6
70
1
102
RTVSPropertyOp7
70
1
102
RTVSPropertyOp8
70
1
102
RTVSPropertyOp9
70
1
102
RTVSPropertyOp10
70
1
102
RTVSPropertyOp11
70
1
102
RTVSPropertyOp12
70
1
102
RTVSPropertyOp13
70
1
102
RTVSPropertyOp14
70
1
102
RTVSPropertyOp15
70
1
102
RTVSPropertyOp16
70
1
102
RTVSPropertyOp17
70
1
102
RTVSPropertyOp18
70
1
102
RTVSPropertyOp19
70
1
102
RTVSPropertyOp20
70
1
102
RTVSPropertyOp21
70
1
102
RTVSPropertyOp22
70
1
102
RTVSPropertyOp23
70
1
102
RTVSPropertyOp24
70
1
102
RTVSPropertyOp25
70
1
102
RTVSPropertyOp26
70
1
102
RTVSPropertyOp27
70
1
0
XRECORD
5
1099
102
{ACAD_REACTORS
330
1098
102
}
330
1098
100
AcDbXrecord
280
1
102
RTVSPropertyOp0
70
1
102
RTVSPropertyOp1
70
1
102
RTVSPropertyOp2
70
1
102
RTVSPropertyOp3
70
1
102
RTVSPropertyOp4
70
1
102
RTVSPropertyOp5
70
1
102
RTVSPropertyOp6
70
1
102
RTVSPropertyOp7
70
1
102
RTVSPropertyOp8
70
1
102
RTVSPropertyOp9
70
1
102
RTVSPropertyOp10
70
1
102
RTVSPropertyOp11
70
1
102
RTVSPropertyOp12
70
1
102
RTVSPropertyOp13
70
1
102
RTVSPropertyOp14
70
1
102
RTVSPropertyOp15
70
1
102
RTVSPropertyOp16
70
1
102
RTVSPropertyOp17
70
1
102
RTVSPropertyOp18
70
1
102
RTVSPropertyOp19
70
1
102
RTVSPropertyOp20
70
1
102
RTVSPropertyOp21
70
1
102
RTVSPropertyOp22
70
1
102
RTVSPropertyOp23
70
1
102
RTVSPropertyOp24
70
1
102
RTVSPropertyOp25
70
1
102
RTVSPropertyOp26
70
1
102
RTVSPropertyOp27
70
1
0
ENDSEC
0
EOF
