0
SECTION
2
HEADER
9
$ACADVER
1
AC1015
9
$ACADMAINTVER
70
20
9
$DWGCODEPAGE
3
ANSI_1252
9
$INSBASE
10
0.0
20
0.0
30
0.0
9
$EXTMIN
10
-150.000000000000
20
-105.000000000000
30
0.0
9
$EXTMAX
10
150.000000000000
20
105.000000000000
30
0.0
9
$LIMMIN
10
0.0
20
0.0
9
$LIMMAX
10
12.0
20
9.0
9
$ORTHOMODE
70
0
9
$REGENMODE
70
1
9
$FILLMODE
70
1
9
$QTEXTMODE
70
0
9
$MIRRTEXT
70
1
9
$LTSCALE
40
1.0
9
$ATTMODE
70
1
9
$TEXTSIZE
40
0.2
9
$TRACEWID
40
0.05
9
$TEXTSTYLE
7
Standard
9
$CLAYER
8
0
9
$CELTYPE
6
ByLayer
9
$CECOLOR
62
256
9
$CELTSCALE
40
1.0
9
$DISPSILH
70
0
9
$DIMSCALE
40
1.0
9
$DIMASZ
40
2.5
9
$DIMEXO
40
0.625
9
$DIMDLI
40
0.38
9
$DIMRND
40
0.0
9
$DIMDLE
40
0.0
9
$DIMEXE
40
1.25
9
$DIMTP
40
0.0
9
$DIMTM
40
0.000000001
9
$DIMTXT
40
2.5
9
$DIMCEN
40
0.09
9
$DIMTSZ
40
0.0
9
$DIMTOL
70
1
9
$DIMLIM
70
0
9
$DIMTIH
70
0
9
$DIMTOH
70
0
9
$DIMSE1
70
0
9
$DIMSE2
70
0
9
$DIMTAD
70
1
9
$DIMZIN
70
0
9
$DIMBLK
1
VDDIM_DEFAULT
9
$DIMASO
70
1
9
$DIMSHO
70
1
9
$DIMPOST
1

9
$DIMAPOST
1

9
$DIMALT
70
0
9
$DIMALTD
70
2
9
$DIMALTF
40
25.4
9
$DIMLFAC
40
1.00000000000000
9
$DIMTOFL
70
0
9
$DIMTVP
40
0.0
9
$DIMTIX
70
0
9
$DIMSOXD
70
0
9
$DIMSAH
70
0
9
$DIMBLK1
1

9
$DIMBLK2
1

9
$DIMSTYLE
2
BEM-ISBE
9
$DIMCLRD
70
0
9
$DIMCLRE
70
0
9
$DIMCLRT
70
0
9
$DIMTFAC
40
0.5
9
$DIMGAP
40
0.625
9
$DIMJUST
70
0
9
$DIMSD1
70
0
9
$DIMSD2
70
0
9
$DIMTOLJ
70
1
9
$DIMTZIN
70
0
9
$DIMALTZ
70
0
9
$DIMALTTZ
70
0
9
$DIMUPT
70
0
9
$DIMDEC
70
3
9
$DIMTDEC
70
3
9
$DIMALTU
70
2
9
$DIMALTTD
70
2
9
$DIMTXSTY
7
Standard
9
$DIMAUNIT
70
0
9
$DIMADEC
70
3
9
$DIMALTRND
40
0.0
9
$DIMAZIN
70
0
9
$DIMDSEP
70
46
9
$DIMATFIT
70
3
9
$DIMFRAC
70
0
9
$DIMLDRBLK
1

9
$DIMLUNIT
70
2
9
$DIMLWD
70
-2
9
$DIMLWE
70
-2
9
$DIMTMOVE
70
0
9
$LUNITS
70
2
9
$LUPREC
70
4
9
$SKETCHINC
40
0.1
9
$FILLETRAD
40
0.5
9
$AUNITS
70
0
9
$AUPREC
70
0
9
$MENU
1
.
9
$ELEVATION
40
0.0
9
$PELEVATION
40
0.0
9
$THICKNESS
40
0.0
9
$LIMCHECK
70
0
9
$CHAMFERA
40
0.5
9
$CHAMFERB
40
0.5
9
$CHAMFERC
40
1.0
9
$CHAMFERD
40
0.0
9
$SKPOLY
70
0
9
$TDCREATE
40
0.0
9
$TDUCREATE
40
0.0
9
$TDUPDATE
40
0.0
9
$TDUUPDATE
40
0.0
9
$TDINDWG
40
0.0
9
$TDUSRTIMER
40
0.0
9
$USRTIMER
70
1
9
$ANGBASE
50
0.0
9
$ANGDIR
70
0
9
$PDMODE
70
0
9
$PDSIZE
40
0.0
9
$PLINEWID
40
0.0
9
$SPLFRAME
70
0
9
$SPLINETYPE
70
6
9
$SPLINESEGS
70
8
9
$HANDSEED
5
10AB
9
$SURFTAB1
70
6
9
$SURFTAB2
70
6
9
$SURFTYPE
70
6
9
$SURFU
70
6
9
$SURFV
70
6
9
$UCSBASE
2

9
$UCSNAME
2

9
$UCSORG
10
0.0
20
0.0
30
0.0
9
$UCSXDIR
10
1.0
20
0.0
30
0.0
9
$UCSYDIR
10
0.0
20
1.0
30
0.0
9
$UCSORTHOREF
2

9
$UCSORTHOVIEW
70
0
9
$UCSORGTOP
10
0.0
20
0.0
30
0.0
9
$UCSORGBOTTOM
10
0.0
20
0.0
30
0.0
9
$UCSORGLEFT
10
0.0
20
0.0
30
0.0
9
$UCSORGRIGHT
10
0.0
20
0.0
30
0.0
9
$UCSORGFRONT
10
0.0
20
0.0
30
0.0
9
$UCSORGBACK
10
0.0
20
0.0
30
0.0
9
$PUCSBASE
2

9
$PUCSNAME
2

9
$PUCSORG
10
0.0
20
0.0
30
0.0
9
$PUCSXDIR
10
1.0
20
0.0
30
0.0
9
$PUCSYDIR
10
0.0
20
1.0
30
0.0
9
$PUCSORTHOREF
2

9
$PUCSORTHOVIEW
70
0
9
$PUCSORGTOP
10
0.0
20
0.0
30
0.0
9
$PUCSORGBOTTOM
10
0.0
20
0.0
30
0.0
9
$PUCSORGLEFT
10
0.0
20
0.0
30
0.0
9
$PUCSORGRIGHT
10
0.0
20
0.0
30
0.0
9
$PUCSORGFRONT
10
0.0
20
0.0
30
0.0
9
$PUCSORGBACK
10
0.0
20
0.0
30
0.0
9
$USERI1
70
0
9
$USERI2
70
0
9
$USERI3
70
0
9
$USERI4
70
0
9
$USERI5
70
0
9
$USERR1
40
0.0
9
$USERR2
40
0.0
9
$USERR3
40
0.0
9
$USERR4
40
0.0
9
$USERR5
40
0.0
9
$WORLDVIEW
70
1
9
$SHADEDGE
70
3
9
$SHADEDIF
70
70
9
$TILEMODE
70
1
9
$MAXACTVP
70
64
9
$PINSBASE
10
0.0
20
0.0
30
0.0
9
$PLIMCHECK
70
0
9
$PEXTMIN
10
1.000000000000000E+20
20
1.000000000000000E+20
30
1.000000000000000E+20
9
$PEXTMAX
10
-1.000000000000000E+20
20
-1.000000000000000E+20
30
-1.000000000000000E+20
9
$PLIMMIN
10
0.0
20
0.0
9
$PLIMMAX
10
12.0
20
9.0
9
$UNITMODE
70
0
9
$VISRETAIN
70
1
9
$PLINEGEN
70
0
9
$PSLTSCALE
70
1
9
$TREEDEPTH
70
3020
9
$CMLSTYLE
2
Standard
9
$CMLJUST
70
0
9
$CMLSCALE
40
1.0
9
$PROXYGRAPHICS
70
1
9
$MEASUREMENT
70
0
9
$CELWEIGHT
370
-1
9
$ENDCAPS
280
0
9
$JOINSTYLE
280
0
9
$LWDISPLAY
290
0
9
$INSUNITS
70
4
9
$HYPERLINKBASE
1

9
$STYLESHEET
1

9
$XEDIT
290
1
9
$CEPSNTYPE
380
0
9
$PSTYLEMODE
290
0
9
$FINGERPRINTGUID
2
{FAEB1C30-E019-11D5-929B-00C0DF256EC4}
9
$VERSIONGUID
2
{04C5C4E4-4947-4D90-8812-D401569E61F7}
9
$EXTNAMES
290
1
9
$PSVPSCALE
40
0.0
9
$OLESTARTUP
290
0
0
ENDSEC
0
SECTION
2
CLASSES
0
CLASS
1
ACDBDICTIONARYWDFLT
2
AcDbDictionaryWithDefault
3
ObjectDBX Classes
90
0
280
0
281
0
0
CLASS
1
ACDBPLACEHOLDER
2
AcDbPlaceHolder
3
ObjectDBX Classes
90
0
280
0
281
0
0
CLASS
1
LAYOUT
2
AcDbLayout
3
ObjectDBX Classes
90
0
280
0
281
0
0
CLASS
1
MATERIAL
2
AcDbMaterial
3
ObjectDBX Classes
90
1153
280
0
281
0
0
CLASS
1
VISUALSTYLE
2
AcDbVisualStyle
3
ObjectDBX Classes
90
4095
280
0
281
0
0
CLASS
1
TABLESTYLE
2
AcDbTableStyle
3
ObjectDBX Classes
90
4095
280
0
281
0
0
CLASS
1
SCALE
2
AcDbScale
3
ObjectDBX Classes
90
1153
280
0
281
0
0
CLASS
1
MLEADERSTYLE
2
AcDbMLeaderStyle
3
ACDB_MLEADERSTYLE_CLASS
90
4095
280
0
281
0
0
CLASS
1
DICTIONARYVAR
2
AcDbDictionaryVar
3
ObjectDBX Classes
90
0
280
0
281
0
0
CLASS
1
CELLSTYLEMAP
2
AcDbCellStyleMap
3
ObjectDBX Classes
90
1152
280
0
281
0
0
ENDSEC
0
SECTION
2
TABLES
0
TABLE
2
VPORT
5
24A
330
0
100
AcDbSymbolTable
70
1
0
VPORT
5
26B
330
24A
100
AcDbSymbolTableRecord
100
AcDbViewportTableRecord
2
*Active
70
0
10
0.0
20
0.0
11
1.0
21
1.0
12
0.00000000000000
22
0.00000000000000
13
0.0
23
0.0
14
10.0
24
10.0
15
10.0
25
10.0
16
0.0
26
0.0
36
1.0
17
0.0
27
0.0
37
0.0
40
210.000000000000
41
1.42857142857143
42
1.0
43
0.0
44
0.0
50
0.0
51
0.0000000000007958
71
0
72
100
73
1
74
3
75
0
76
0
77
0
78
1
281
0
65
1
110
0.0
120
0.0
130
0.0
111
1.0
121
0.0
131
0.0
112
0.0
122
1.0
132
0.0
79
0
146
0.0
0
ENDTAB
0
TABLE
2
LTYPE
5
247
330
0
100
AcDbSymbolTable
70
25
0
LTYPE
5
256
330
247
100
AcDbSymbolTableRecord
100
AcDbLinetypeTableRecord
2
ByBlock
70
0
3

72
65
73
0
40
0.0
0
LTYPE
5
257
330
247
100
AcDbSymbolTableRecord
100
AcDbLinetypeTableRecord
2
ByLayer
70
0
3

72
65
73
0
40
0.0
0
LTYPE
5
258
330
247
100
AcDbSymbolTableRecord
100
AcDbLinetypeTableRecord
2
Continuous
70
0
3
Solid line
72
65
73
0
40
0.0
0
LTYPE
5
273
330
247
100
AcDbSymbolTableRecord
100
AcDbLinetypeTableRecord
2
CENTER
70
0
3
Center ____ _ ____ _ ____ _ ____ _ ____ _ ____
72
65
73
4
40
2.0
49
1.25
74
0
49
-0.25
74
0
49
0.25
74
0
49
-0.25
74
0
0
LTYPE
5
274
330
247
100
AcDbSymbolTableRecord
100
AcDbLinetypeTableRecord
2
DASHDOT
70
0
3
Dashdot __ . __ . __ . __ . __ . __ . __ . __
72
65
73
4
40
1.0
49
0.5
74
0
49
-0.25
74
0
49
0.0
74
0
49
-0.25
74
0
0
LTYPE
5
275
330
247
100
AcDbSymbolTableRecord
100
AcDbLinetypeTableRecord
2
DASHED
70
0
3
Dashed __ __ __ __ __ __ __ __ __ __ __ __ __ _
72
65
73
2
40
0.75
49
0.5
74
0
49
-0.25
74
0
0
LTYPE
5
276
330
247
100
AcDbSymbolTableRecord
100
AcDbLinetypeTableRecord
2
HIDDEN
70
0
3
Hidden __ __ __ __ __ __ __ __ __ __ __ __ __ __
72
65
73
2
40
0.375
49
0.25
74
0
49
-0.125
74
0
0
LTYPE
5
277
330
247
100
AcDbSymbolTableRecord
100
AcDbLinetypeTableRecord
2
HIDDEN2
70
0
3
Hidden2 _ _ _ _ _ _ _ _ _ _ _ _ _ _ _ _ _
72
65
73
2
40
0.1875
49
0.125
74
0
49
-0.0625
74
0
0
LTYPE
5
278
330
247
100
AcDbSymbolTableRecord
100
AcDbLinetypeTableRecord
2
BORDER
70
0
3
Border __ __ . __ __ . __ __ . __ __ . __ __ .
72
65
73
6
40
1.75
49
0.5
74
0
49
-0.25
74
0
49
0.5
74
0
49
-0.25
74
0
49
0.0
74
0
49
-0.25
74
0
0
LTYPE
5
279
330
247
100
AcDbSymbolTableRecord
100
AcDbLinetypeTableRecord
2
BORDER2
70
0
3
Border2 __.__.__.__.__.__.__.__.__.__.__.
72
65
73
6
40
0.875
49
0.25
74
0
49
-0.125
74
0
49
0.25
74
0
49
-0.125
74
0
49
0.0
74
0
49
-0.125
74
0
0
LTYPE
5
27A
330
247
100
AcDbSymbolTableRecord
100
AcDbLinetypeTableRecord
2
BORDERX2
70
0
3
Borderx2  ____  ____  .  ____  ____  .  ___
72
65
73
6
40
3.5
49
1.0
74
0
49
-0.5
74
0
49
1.0
74
0
49
-0.5
74
0
49
0.0
74
0
49
-0.5
74
0
0
LTYPE
5
27B
330
247
100
AcDbSymbolTableRecord
100
AcDbLinetypeTableRecord
2
CENTER2
70
0
3
Center2  ___ _ ___ _ ___ _ ___ _ ___ _ ___
72
65
73
4
40
1.125
49
0.75
74
0
49
-0.125
74
0
49
0.125
74
0
49
-0.125
74
0
0
LTYPE
5
27C
330
247
100
AcDbSymbolTableRecord
100
AcDbLinetypeTableRecord
2
CENTERX2
70
0
3
Centerx2  ________  __  ________  __  _____
72
65
73
4
40
4.0
49
2.5
74
0
49
-0.5
74
0
49
0.5
74
0
49
-0.5
74
0
0
LTYPE
5
27D
330
247
100
AcDbSymbolTableRecord
100
AcDbLinetypeTableRecord
2
DASHDOT2
70
0
3
Dashdot2  _._._._._._._._._._._._._._._.
72
65
73
4
40
0.5
49
0.25
74
0
49
-0.125
74
0
49
0.0
74
0
49
-0.125
74
0
0
LTYPE
5
27E
330
247
100
AcDbSymbolTableRecord
100
AcDbLinetypeTableRecord
2
DASHDOTX2
70
0
3
Dashdotx2 ____  .  ____  .  ____  .  ___
72
65
73
4
40
2.0
49
1.0
74
0
49
-0.5
74
0
49
0.0
74
0
49
-0.5
74
0
0
LTYPE
5
27F
330
247
100
AcDbSymbolTableRecord
100
AcDbLinetypeTableRecord
2
DASHED2
70
0
3
Dashed2 _ _ _ _ _ _ _ _ _ _ _ _ _ _ _ _ _
72
65
73
2
40
0.375
49
0.25
74
0
49
-0.125
74
0
0
LTYPE
5
280
330
247
100
AcDbSymbolTableRecord
100
AcDbLinetypeTableRecord
2
DASHEDX2
70
0
3
Dashedx2 ____  ____  ____  ____  ____  ___
72
65
73
2
40
1.5
49
1.0
74
0
49
-0.5
74
0
0
LTYPE
5
281
330
247
100
AcDbSymbolTableRecord
100
AcDbLinetypeTableRecord
2
DIVIDE
70
0
3
Divide ____ . . ____ . . ____ . . ____ . . ____
72
65
73
6
40
1.25
49
0.5
74
0
49
-0.25
74
0
49
0.0
74
0
49
-0.25
74
0
49
0.0
74
0
49
-0.25
74
0
0
LTYPE
5
282
330
247
100
AcDbSymbolTableRecord
100
AcDbLinetypeTableRecord
2
DIVIDE2
70
0
3
Divide2 __..__..__..__..__..__..__..__.._
72
65
73
6
40
0.625
49
0.25
74
0
49
-0.125
74
0
49
0.0
74
0
49
-0.125
74
0
49
0.0
74
0
49
-0.125
74
0
0
LTYPE
5
283
330
247
100
AcDbSymbolTableRecord
100
AcDbLinetypeTableRecord
2
DIVIDEX2
70
0
3
Dividex2 ________  .  .  ________  .  .  _
72
65
73
6
40
2.5
49
1.0
74
0
49
-0.5
74
0
49
0.0
74
0
49
-0.5
74
0
49
0.0
74
0
49
-0.5
74
0
0
LTYPE
5
284
330
247
100
AcDbSymbolTableRecord
100
AcDbLinetypeTableRecord
2
DOT
70
0
3
Dot . . . . . . . . . . . . . . . . . . . . . . . .
72
65
73
2
40
0.25
49
0.0
74
0
49
-0.25
74
0
0
LTYPE
5
285
330
247
100
AcDbSymbolTableRecord
100
AcDbLinetypeTableRecord
2
DOT2
70
0
3
Dot2 ........................................
72
65
73
2
40
0.125
49
0.0
74
0
49
-0.125
74
0
0
LTYPE
5
286
330
247
100
AcDbSymbolTableRecord
100
AcDbLinetypeTableRecord
2
DOTX2
70
0
3
Dotx2 .  .  .  .  .  .  .  .  .  .  .  .  .  .
72
65
73
2
40
0.5
49
0.0
74
0
49
-0.5
74
0
0
LTYPE
5
287
330
247
100
AcDbSymbolTableRecord
100
AcDbLinetypeTableRecord
2
HIDDENX2
70
0
3
Hiddenx2 ____ ____ ____ ____ ____ ____ ____
72
65
73
2
40
0.75
49
0.5
74
0
49
-0.25
74
0
0
LTYPE
5
288
330
247
100
AcDbSymbolTableRecord
100
AcDbLinetypeTableRecord
2
PHANTOM
70
0
3
Phantom ______  __  __  ______  __  __  ______
72
65
73
6
40
2.5
49
1.25
74
0
49
-0.25
74
0
49
0.25
74
0
49
-0.25
74
0
49
0.25
74
0
49
-0.25
74
0
0
LTYPE
5
289
330
247
100
AcDbSymbolTableRecord
100
AcDbLinetypeTableRecord
2
PHANTOM2
70
0
3
Phantom2 ___ _ _ ___ _ _ ___ _ _ ___ _ _
72
65
73
6
40
1.25
49
0.625
74
0
49
-0.125
74
0
49
0.125
74
0
49
-0.125
74
0
49
0.125
74
0
49
-0.125
74
0
0
LTYPE
5
28A
330
247
100
AcDbSymbolTableRecord
100
AcDbLinetypeTableRecord
2
PHANTOMX2
70
0
3
Phantomx2 ____________    ____    ____   _
72
65
73
6
40
5.0
49
2.5
74
0
49
-0.5
74
0
49
0.5
74
0
49
-0.5
74
0
49
0.5
74
0
49
-0.5
74
0
0
ENDTAB
0
TABLE
2
LAYER
5
244
330
0
100
AcDbSymbolTable
70
6
0
LAYER
5
252
330
244
100
AcDbSymbolTableRecord
100
AcDbLayerTableRecord
2
0
70
0
62
7
6
Continuous
370
0
390
251
0
LAYER
5
23F
330
244
100
AcDbSymbolTableRecord
100
AcDbLayerTableRecord
2
Bemassung
70
0
 62
   7
6
Continuous
370
0
390
251
0
LAYER
5
240
330
244
100
AcDbSymbolTableRecord
100
AcDbLayerTableRecord
2
Rahmen
70
0
 62
   7
6
Continuous
370
0
390
251
0
LAYER
5
241
330
244
100
AcDbSymbolTableRecord
100
AcDbLayerTableRecord
2
Geo
70
0
 62
   7
6
Continuous
370
0
390
251
0
LAYER
5
33A
330
244
100
AcDbSymbolTableRecord
100
AcDbLayerTableRecord
2
Defpoints
70
0
62
7
6
Continuous
290
0
370
-3
390
251
0
LAYER
5
57E
330
244
100
AcDbSymbolTableRecord
100
AcDbLayerTableRecord
2
Text
70
0
 62
   7
6
Continuous
370
0
390
251
1001
AcAecLayerStandard
1000

1000

0
ENDTAB
0
TABLE
2
STYLE
5
245
330
0
100
AcDbSymbolTable
70
2
0
STYLE
5
253
330
245
100
AcDbSymbolTableRecord
100
AcDbTextStyleTableRecord
2
Standard
70
0
40
0.0
41
1.0
50
0.0
71
0
42
0.2
3
Arial
4

1001
ACAD
1000
Arial
1071
0
0
STYLE
5
132
330
245
100
AcDbSymbolTableRecord
100
AcDbTextStyleTableRecord
2
Beschriftung
70
0
40
0.0
41
1.0
50
0.0
71
0
42
0.2
3
Arial
4

1001
ACAD
1000
Arial
1071
0
1001
AcadAnnotative
1000
AnnotativeData
1070
1
1070
1
0
ENDTAB
0
TABLE
2
VIEW
5
248
330
0
100
AcDbSymbolTable
70
0
0
ENDTAB
0
TABLE
2
UCS
5
249
330
0
100
AcDbSymbolTable
70
0
0
ENDTAB
0
TABLE
2
APPID
5
24B
330
0
100
AcDbSymbolTable
70
13
0
APPID
5
254
330
24B
100
AcDbSymbolTableRecord
100
AcDbRegAppTableRecord
2
ACAD
70
0
0
APPID
5
26C
330
24B
100
AcDbSymbolTableRecord
100
AcDbRegAppTableRecord
2
VD_INVISIBLE_NOT_FOR_READ
70
0
0
APPID
5
26D
330
24B
100
AcDbSymbolTableRecord
100
AcDbRegAppTableRecord
2
VD_TEMPHATCH
70
0
0
APPID
5
26E
330
24B
100
AcDbSymbolTableRecord
100
AcDbRegAppTableRecord
2
VDEXTRAPARAM
70
0
0
APPID
5
26F
330
24B
100
AcDbSymbolTableRecord
100
AcDbRegAppTableRecord
2
PE_URL
70
0
0
APPID
5
270
330
24B
100
AcDbSymbolTableRecord
100
AcDbRegAppTableRecord
2
VD_UNKNOWN
70
0
0
APPID
5
28F
330
24B
100
AcDbSymbolTableRecord
100
AcDbRegAppTableRecord
2
AcadAnnotative
70
0
0
APPID
5
290
330
24B
100
AcDbSymbolTableRecord
100
AcDbRegAppTableRecord
2
ACAD_DSTYLE_DIMJAG
70
0
0
APPID
5
291
330
24B
100
AcDbSymbolTableRecord
100
AcDbRegAppTableRecord
2
ACAD_DSTYLE_DIMTALN
70
0
0
APPID
5
293
330
24B
100
AcDbSymbolTableRecord
100
AcDbRegAppTableRecord
2
ACAD_PSEXT
70
0
0
APPID
5
42A
330
24B
100
AcDbSymbolTableRecord
100
AcDbRegAppTableRecord
2
ACAD_MLEADERVER
70
0
0
APPID
5
532
330
24B
100
AcDbSymbolTableRecord
100
AcDbRegAppTableRecord
2
ACAD_EXEMPT_FROM_CAD_STANDARDS
70
0
0
APPID
5
57F
330
24B
100
AcDbSymbolTableRecord
100
AcDbRegAppTableRecord
2
AcAecLayerStandard
70
0
0
ENDTAB
0
TABLE
2
DIMSTYLE
5
24C
330
0
100
AcDbSymbolTable
70
3
100
AcDbDimStyleTable
71
2
340
27
340
269
0
DIMSTYLE
105
269
330
24C
100
AcDbSymbolTableRecord
100
AcDbDimStyleTableRecord
2
Standard
70
0
172
1
174
1
288
1
340
253
342
23C
0
DIMSTYLE
105
137
330
24C
100
AcDbSymbolTableRecord
100
AcDbDimStyleTableRecord
2
Beschriftung
70
0
41
2.5
42
0.625
44
1.25
73
0
74
0
77
1
140
2.5
147
0.625
172
1
174
1
271
2
288
1
340
253
342
23C
1001
AcadAnnotative
1000
AnnotativeData
1070
1
1070
1
1001
ACAD_DSTYLE_DIMJAG
1070
388
1040
1.5
1001
ACAD_DSTYLE_DIMTALN
1070
392
1070
0
0
DIMSTYLE
105
27
102
{ACAD_REACTORS
102
}
330
24C
100
AcDbSymbolTableRecord
100
AcDbDimStyleTableRecord
2
BEM-ISBE
70
0
41
2.5
42
0.625
44
1.25
48
0.000000001
71
1
73
0
74
0
77
1
140
2.5
144
1.00000000000000
146
0.5
147
0.625
171
 3
172
 1
179
 3
271
 3
272
 3
274
 3
340
253
342
23C
1001
ACAD_DSTYLE_DIMJAG
1070
388
1040
1.5
1001
ACAD_DSTYLE_DIMTALN
1070
392
1070
1
0
ENDTAB
0
TABLE
2
BLOCK_RECORD
5
243
330
0
100
AcDbSymbolTable
70
5
0
BLOCK_RECORD
5
261
330
243
100
AcDbSymbolTableRecord
100
AcDbBlockTableRecord
2
*Model_Space
340
FD0
0
BLOCK_RECORD
5
25D
330
243
100
AcDbSymbolTableRecord
100
AcDbBlockTableRecord
2
*Paper_Space
340
FD1
0
BLOCK_RECORD
5
265
330
243
100
AcDbSymbolTableRecord
100
AcDbBlockTableRecord
2
*Paper_Space0
340
0
0
BLOCK_RECORD
5
23C
330
243
100
AcDbSymbolTableRecord
100
AcDbBlockTableRecord
2
VDDIM_DEFAULT
340
0
102
{BLKREFS
102
}
0
BLOCK_RECORD
5
23E
330
243
100
AcDbSymbolTableRecord
100
AcDbBlockTableRecord
2
VDDIM_NONE
340
0
0
ENDTAB
0
ENDSEC
0
SECTION
2
BLOCKS
0
BLOCK
5
262
330
261
100
AcDbEntity
8
0
100
AcDbBlockBegin
2
*Model_Space
70
0
10
0.0
20
0.0
30
0.0
3
*Model_Space
1

0
ENDBLK
5
263
330
261
100
AcDbEntity
8
0
100
AcDbBlockEnd
0
BLOCK
5
25E
330
25D
100
AcDbEntity
67
1
8
0
100
AcDbBlockBegin
2
*Paper_Space
70
0
10
0.0
20
0.0
30
0.0
3
*Paper_Space
1

0
ENDBLK
5
25F
330
25D
100
AcDbEntity
67
1
8
0
100
AcDbBlockEnd
0
BLOCK
5
266
330
265
100
AcDbEntity
8
0
100
AcDbBlockBegin
2
*Paper_Space0
70
0
10
0.0
20
0.0
30
0.0
3
*Paper_Space0
1

0
VIEWPORT
5
296
102
{ACAD_XDICTIONARY
360
58E
102
}
330
265
100
AcDbEntity
8
0
60
1
100
AcDbViewport
10
0.0
20
0.0
30
0.0
40
10.0
41
10.0
69
0
12
0.0
22
0.0
13
0.0
23
0.0
14
1.0
24
1.0
15
0.0
25
0.0
16
0.0
26
0.0
36
1.0
17
0.0
27
0.0
37
0.0
42
0.0
43
0.0
44
0.0
45
10.0
50
0.0
51
0.0000000000007958
72
100
90
163872
1

281
0
71
0
74
0
110
0.0
120
0.0
130
0.0
111
1.0
121
0.0
131
0.0
112
0.0
122
1.0
132
0.0
79
0
146
0.0
1001
VD_INVISIBLE_NOT_FOR_READ
1000
VD_INVISIBLE_NOT_FOR_READ
0
VIEWPORT
5
297
102
{ACAD_XDICTIONARY
360
590
102
}
330
265
100
AcDbEntity
8
0
60
1
100
AcDbViewport
10
0.0
20
0.0
30
0.0
40
10.0
41
10.0
69
0
12
0.0
22
0.0
13
0.0
23
0.0
14
1.0
24
1.0
15
0.0
25
0.0
16
0.0
26
0.0
36
1.0
17
0.0
27
0.0
37
0.0
42
0.0
43
0.0
44
0.0
45
10.0
50
0.0
51
0.0000000000007958
72
100
90
163872
1

281
0
71
0
74
0
110
0.0
120
0.0
130
0.0
111
1.0
121
0.0
131
0.0
112
0.0
122
1.0
132
0.0
79
0
146
0.0
1001
VD_INVISIBLE_NOT_FOR_READ
1000
VD_INVISIBLE_NOT_FOR_READ
0
ENDBLK
5
267
330
265
100
AcDbEntity
8
0
100
AcDbBlockEnd
0
BLOCK
5
28B
330
23C
100
AcDbEntity
8
0
100
AcDbBlockBegin
2
VDDIM_DEFAULT
70
0
10
0.0
20
0.0
30
0.0
3
VDDIM_DEFAULT
1

0
LWPOLYLINE
5
23D
330
23C
100
AcDbEntity
8
0
6
Continuous
62
0
100
AcDbPolyline
90
4
70
0
43
0.0
10
0.0
20
0.0
10
-1.0
20
-0.1665
10
-1.0
20
0.1665
10
0.0
20
0.0
1001
VDEXTRAPARAM
1071
1
1071
0
1071
0
1040
1.0
1000

1000

1040
0.0
1040
0.0
0
HATCH
5
292
330
23C
100
AcDbEntity
8
0
6
Continuous
62
0
100
AcDbHatch
10
0.0
20
0.0
30
0.0
210
0.0
220
0.0
230
1.0
2
SOLID
70
1
71
0
91
1
92
2
72
0
73
1
93
3
10
0.0
20
0.0
10
-1.0
20
-0.1665
10
-1.0
20
0.1665
97
0
75
0
76
1
98
1
10
0.0
20
0.0
1001
VDEXTRAPARAM
1071
1
1071
0
1071
0
1040
1.0
1000

1000

1040
0.0
1040
0.0
1001
VD_TEMPHATCH
1000
VD_TEMPHATCH
0
ENDBLK
5
28C
330
23C
100
AcDbEntity
8
0
100
AcDbBlockEnd
0
BLOCK
5
28D
330
23E
100
AcDbEntity
8
0
100
AcDbBlockBegin
2
VDDIM_NONE
70
0
10
0.0
20
0.0
30
0.0
3
VDDIM_NONE
1

0
ENDBLK
5
28E
330
23E
100
AcDbEntity
8
0
100
AcDbBlockEnd
0
ENDSEC
0
SECTION
2
ENTITIES
  0
LINE
  5
F10002
330
F10003
100
AcDbEntity
8
Geo
100
AcDbLine
10
-60.3312572266335
20
19.0616240965206
30
0.00000000000000
11
-60.3312572266335
21
19.2116240965206
31
0.00000000000000
  0
ARC
  5
F10004
330
F10005
100
AcDbEntity
8
Geo
100
AcDbCircle
10
-60.2812572266335
20
19.2116240965206
30
0.00000000000000
 40
0.0500000000000007
100
AcDbArc
 50
90.0000000000000
 51
180.000000000000
  0
LINE
  5
F10006
330
F10007
100
AcDbEntity
8
Geo
100
AcDbLine
10
-60.2812572266335
20
19.2616240965206
30
0.00000000000000
11
-59.9312572266335
21
19.2616240965206
31
0.00000000000000
  0
LINE
  5
F10008
330
F10009
100
AcDbEntity
8
Geo
100
AcDbLine
10
-59.9312572266335
20
19.2616240965206
30
0.00000000000000
11
-58.3309486802575
21
19.2616240965206
31
0.00000000000000
  0
LINE
  5
F1000A
330
F1000B
100
AcDbEntity
8
Geo
100
AcDbLine
10
-58.3309486802575
20
19.2616240965206
30
0.00000000000000
11
-51.6132572266335
21
21.0616240965206
31
0.00000000000000
  0
LINE
  5
F1000C
330
F1000D
100
AcDbEntity
8
Geo
100
AcDbLine
10
-51.6132572266335
20
21.0616240965206
30
0.00000000000000
11
-20.9312572266335
21
21.0616240965206
31
0.00000000000000
  0
LINE
  5
F1000E
330
F1000F
100
AcDbEntity
8
Geo
100
AcDbLine
10
-20.9312572266335
20
21.0616240965206
30
0.00000000000000
11
-20.3312572266335
21
20.4616240965206
31
0.00000000000000
  0
LINE
  5
F10010
330
F10011
100
AcDbEntity
8
Geo
100
AcDbLine
10
-60.3312572266335
20
19.1890937683125
30
0.00000000000000
11
-60.3295905599668
21
19.2051387152081
31
0.00000000000000
  0
LINE
  5
F10012
330
F10013
100
AcDbEntity
8
Geo
100
AcDbLine
10
-60.3295905599668
20
19.2051387152081
30
0.00000000000000
11
-60.3279238933002
21
19.2111445932988
31
0.00000000000000
  0
LINE
  5
F10014
330
F10015
100
AcDbEntity
8
Geo
100
AcDbLine
10
-60.3279238933002
20
19.2111445932988
30
0.00000000000000
11
-60.3262572266335
21
19.2154694636722
31
0.00000000000000
  0
LINE
  5
F10016
330
F10017
100
AcDbEntity
8
Geo
100
AcDbLine
10
-60.3262572266335
20
19.2154694636722
30
0.00000000000000
11
-60.3245905599668
21
19.2189095543865
31
0.00000000000000
  0
LINE
  5
F10018
330
F10019
100
AcDbEntity
8
Geo
100
AcDbLine
10
-60.3245905599668
20
19.2189095543865
30
0.00000000000000
11
-60.3229238933002
21
19.2217737067088
31
0.00000000000000
  0
LINE
  5
F1001A
330
F1001B
100
AcDbEntity
8
Geo
100
AcDbLine
10
-60.3229238933002
20
19.2217737067088
30
0.00000000000000
11
-60.3212572266335
21
19.2242204397066
31
0.00000000000000
  0
LINE
  5
F1001C
330
F1001D
100
AcDbEntity
8
Geo
100
AcDbLine
10
-60.3212572266335
20
19.2242204397066
30
0.00000000000000
11
-60.3195905599668
21
19.2263439378682
31
0.00000000000000
  0
LINE
  5
F1001E
330
F1001F
100
AcDbEntity
8
Geo
100
AcDbLine
10
-60.3195905599668
20
19.2263439378682
30
0.00000000000000
11
-60.3179238933002
21
19.2282055357718
31
0.00000000000000
  0
LINE
  5
F10020
330
F10021
100
AcDbEntity
8
Geo
100
AcDbLine
10
-60.3179238933002
20
19.2282055357718
30
0.00000000000000
11
-60.3162572266335
21
19.2298477803343
31
0.00000000000000
  0
LINE
  5
F10022
330
F10023
100
AcDbEntity
8
Geo
100
AcDbLine
10
-60.3162572266335
20
19.2298477803343
30
0.00000000000000
11
-60.3145905599668
21
19.2313015801676
31
0.00000000000000
  0
LINE
  5
F10024
330
F10025
100
AcDbEntity
8
Geo
100
AcDbLine
10
-60.3145905599668
20
19.2313015801676
30
0.00000000000000
11
-60.3129238933002
21
19.2325901914006
31
0.00000000000000
  0
LINE
  5
F10026
330
F10027
100
AcDbEntity
8
Geo
100
AcDbLine
10
-60.3129238933002
20
19.2325901914006
30
0.00000000000000
11
-60.3112572266335
21
19.2337315993433
31
0.00000000000000
  0
LINE
  5
F10028
330
F10029
100
AcDbEntity
8
Geo
100
AcDbLine
10
-60.3112572266335
20
19.2337315993433
30
0.00000000000000
11
-60.3095905599668
21
19.2347400208347
31
0.00000000000000
  0
LINE
  5
F1002A
330
F1002B
100
AcDbEntity
8
Geo
100
AcDbLine
10
-60.3095905599668
20
19.2347400208347
30
0.00000000000000
11
-60.3079238933002
21
19.2356268940807
31
0.00000000000000
  0
LINE
  5
F1002C
330
F1002D
100
AcDbEntity
8
Geo
100
AcDbLine
10
-60.3079238933002
20
19.2356268940807
30
0.00000000000000
11
-60.3062572266335
21
19.2364015545298
31
0.00000000000000
  0
LINE
  5
F1002E
330
F1002F
100
AcDbEntity
8
Geo
100
AcDbLine
10
-60.3062572266335
20
19.2364015545298
30
0.00000000000000
11
-60.3045905599668
21
19.2370717103134
31
0.00000000000000
  0
LINE
  5
F10030
330
F10031
100
AcDbEntity
8
Geo
100
AcDbLine
10
-60.3045905599668
20
19.2370717103134
30
0.00000000000000
11
-60.3029238933002
21
19.2376437851837
31
0.00000000000000
  0
LINE
  5
F10032
330
F10033
100
AcDbEntity
8
Geo
100
AcDbLine
10
-60.3029238933002
20
19.2376437851837
30
0.00000000000000
11
-60.3012572266335
21
19.2381231711959
31
0.00000000000000
  0
LINE
  5
F10034
330
F10035
100
AcDbEntity
8
Geo
100
AcDbLine
10
-60.3012572266335
20
19.2381231711959
30
0.00000000000000
11
-60.2995905599668
21
19.2385144182833
31
0.00000000000000
  0
LINE
  5
F10036
330
F10037
100
AcDbEntity
8
Geo
100
AcDbLine
10
-60.2995905599668
20
19.2385144182833
30
0.00000000000000
11
-60.2979238933002
21
19.2388213786730
31
0.00000000000000
  0
LINE
  5
F10038
330
F10039
100
AcDbEntity
8
Geo
100
AcDbLine
10
-60.2979238933002
20
19.2388213786730
30
0.00000000000000
11
-60.2962572266335
21
19.2390473183066
31
0.00000000000000
  0
LINE
  5
F1003A
330
F1003B
100
AcDbEntity
8
Geo
100
AcDbLine
10
-60.2962572266335
20
19.2390473183066
30
0.00000000000000
11
-60.2945905599668
21
19.2391950036821
31
0.00000000000000
  0
LINE
  5
F1003C
330
F1003D
100
AcDbEntity
8
Geo
100
AcDbLine
10
-60.2945905599668
20
19.2391950036821
30
0.00000000000000
11
-60.2929238933002
21
19.2392667700577
31
0.00000000000000
  0
LINE
  5
F1003E
330
F1003F
100
AcDbEntity
8
Geo
100
AcDbLine
10
-60.2929238933002
20
19.2392667700577
30
0.00000000000000
11
-60.2912572266335
21
19.2392645752657
31
0.00000000000000
  0
LINE
  5
F10040
330
F10041
100
AcDbEntity
8
Geo
100
AcDbLine
10
-60.2912572266335
20
19.2392645752657
30
0.00000000000000
11
-60.2895905599668
21
19.2391900422256
31
0.00000000000000
  0
LINE
  5
F10042
330
F10043
100
AcDbEntity
8
Geo
100
AcDbLine
10
-60.2895905599668
20
19.2391900422256
30
0.00000000000000
11
-60.2879238933002
21
19.2390444924119
31
0.00000000000000
  0
LINE
  5
F10044
330
F10045
100
AcDbEntity
8
Geo
100
AcDbLine
10
-60.2879238933002
20
19.2390444924119
30
0.00000000000000
11
-60.2862572266335
21
19.2388289719405
31
0.00000000000000
  0
LINE
  5
F10046
330
F10047
100
AcDbEntity
8
Geo
100
AcDbLine
10
-60.2862572266335
20
19.2388289719405
30
0.00000000000000
11
-60.2845905599668
21
19.2385442714953
31
0.00000000000000
  0
LINE
  5
F10048
330
F10049
100
AcDbEntity
8
Geo
100
AcDbLine
10
-60.2845905599668
20
19.2385442714953
30
0.00000000000000
11
-60.2829238933002
21
19.2381909409821
31
0.00000000000000
  0
LINE
  5
F1004A
330
F1004B
100
AcDbEntity
8
Geo
100
AcDbLine
10
-60.2829238933002
20
19.2381909409821
30
0.00000000000000
11
-60.2812572266335
21
19.2377692995384
31
0.00000000000000
  0
LINE
  5
F1004C
330
F1004D
100
AcDbEntity
8
Geo
100
AcDbLine
10
-60.2812572266335
20
19.2377692995384
30
0.00000000000000
11
-60.2795905599668
21
19.2373115156520
31
0.00000000000000
  0
LINE
  5
F1004E
330
F1004F
100
AcDbEntity
8
Geo
100
AcDbLine
10
-60.2795905599668
20
19.2373115156520
30
0.00000000000000
11
-60.2779238933002
21
19.2368496649350
31
0.00000000000000
  0
LINE
  5
F10050
330
F10051
100
AcDbEntity
8
Geo
100
AcDbLine
10
-60.2779238933002
20
19.2368496649350
30
0.00000000000000
11
-60.2762572266335
21
19.2363837580784
31
0.00000000000000
  0
LINE
  5
F10052
330
F10053
100
AcDbEntity
8
Geo
100
AcDbLine
10
-60.2762572266335
20
19.2363837580784
30
0.00000000000000
11
-60.2745905599668
21
19.2359138058671
31
0.00000000000000
  0
LINE
  5
F10054
330
F10055
100
AcDbEntity
8
Geo
100
AcDbLine
10
-60.2745905599668
20
19.2359138058671
30
0.00000000000000
11
-60.2729238933002
21
19.2354398191796
31
0.00000000000000
  0
LINE
  5
F10056
330
F10057
100
AcDbEntity
8
Geo
100
AcDbLine
10
-60.2729238933002
20
19.2354398191796
30
0.00000000000000
11
-60.2712572266335
21
19.2349618089877
31
0.00000000000000
  0
LINE
  5
F10058
330
F10059
100
AcDbEntity
8
Geo
100
AcDbLine
10
-60.2712572266335
20
19.2349618089877
30
0.00000000000000
11
-60.2695905599668
21
19.2344797863565
31
0.00000000000000
  0
LINE
  5
F1005A
330
F1005B
100
AcDbEntity
8
Geo
100
AcDbLine
10
-60.2695905599668
20
19.2344797863565
30
0.00000000000000
11
-60.2679238933002
21
19.2339937624439
31
0.00000000000000
  0
LINE
  5
F1005C
330
F1005D
100
AcDbEntity
8
Geo
100
AcDbLine
10
-60.2679238933002
20
19.2339937624439
30
0.00000000000000
11
-60.2662572266335
21
19.2335037485004
31
0.00000000000000
  0
LINE
  5
F1005E
330
F1005F
100
AcDbEntity
8
Geo
100
AcDbLine
10
-60.2662572266335
20
19.2335037485004
30
0.00000000000000
11
-60.2645905599668
21
19.2330097558690
31
0.00000000000000
  0
LINE
  5
F10060
330
F10061
100
AcDbEntity
8
Geo
100
AcDbLine
10
-60.2645905599668
20
19.2330097558690
30
0.00000000000000
11
-60.2629238933002
21
19.2325117959846
31
0.00000000000000
  0
LINE
  5
F10062
330
F10063
100
AcDbEntity
8
Geo
100
AcDbLine
10
-60.2629238933002
20
19.2325117959846
30
0.00000000000000
11
-60.2612572266335
21
19.2320098803740
31
0.00000000000000
  0
LINE
  5
F10064
330
F10065
100
AcDbEntity
8
Geo
100
AcDbLine
10
-60.2612572266335
20
19.2320098803740
30
0.00000000000000
11
-60.2595905599668
21
19.2315040206557
31
0.00000000000000
  0
LINE
  5
F10066
330
F10067
100
AcDbEntity
8
Geo
100
AcDbLine
10
-60.2595905599668
20
19.2315040206557
30
0.00000000000000
11
-60.2579238933002
21
19.2309942285393
31
0.00000000000000
  0
LINE
  5
F10068
330
F10069
100
AcDbEntity
8
Geo
100
AcDbLine
10
-60.2579238933002
20
19.2309942285393
30
0.00000000000000
11
-60.2562572266335
21
19.2304805158256
31
0.00000000000000
  0
LINE
  5
F1006A
330
F1006B
100
AcDbEntity
8
Geo
100
AcDbLine
10
-60.2562572266335
20
19.2304805158256
30
0.00000000000000
11
-60.2545905599668
21
19.2299628944060
31
0.00000000000000
  0
LINE
  5
F1006C
330
F1006D
100
AcDbEntity
8
Geo
100
AcDbLine
10
-60.2545905599668
20
19.2299628944060
30
0.00000000000000
11
-60.2529238933002
21
19.2294413762624
31
0.00000000000000
  0
LINE
  5
F1006E
330
F1006F
100
AcDbEntity
8
Geo
100
AcDbLine
10
-60.2529238933002
20
19.2294413762624
30
0.00000000000000
11
-60.2512572266335
21
19.2289159734672
31
0.00000000000000
  0
LINE
  5
F10070
330
F10071
100
AcDbEntity
8
Geo
100
AcDbLine
10
-60.2512572266335
20
19.2289159734672
30
0.00000000000000
11
-60.2495905599668
21
19.2283866981822
31
0.00000000000000
  0
LINE
  5
F10072
330
F10073
100
AcDbEntity
8
Geo
100
AcDbLine
10
-60.2495905599668
20
19.2283866981822
30
0.00000000000000
11
-60.2479238933002
21
19.2278535626593
31
0.00000000000000
  0
LINE
  5
F10074
330
F10075
100
AcDbEntity
8
Geo
100
AcDbLine
10
-60.2479238933002
20
19.2278535626593
30
0.00000000000000
11
-60.2462572266335
21
19.2273165792395
31
0.00000000000000
  0
LINE
  5
F10076
330
F10077
100
AcDbEntity
8
Geo
100
AcDbLine
10
-60.2462572266335
20
19.2273165792395
30
0.00000000000000
11
-60.2445905599668
21
19.2267757603529
31
0.00000000000000
  0
LINE
  5
F10078
330
F10079
100
AcDbEntity
8
Geo
100
AcDbLine
10
-60.2445905599668
20
19.2267757603529
30
0.00000000000000
11
-60.2429238933002
21
19.2262311185186
31
0.00000000000000
  0
LINE
  5
F1007A
330
F1007B
100
AcDbEntity
8
Geo
100
AcDbLine
10
-60.2429238933002
20
19.2262311185186
30
0.00000000000000
11
-60.2412572266335
21
19.2256826663438
31
0.00000000000000
  0
LINE
  5
F1007C
330
F1007D
100
AcDbEntity
8
Geo
100
AcDbLine
10
-60.2412572266335
20
19.2256826663438
30
0.00000000000000
11
-60.2395905599668
21
19.2251304165243
31
0.00000000000000
  0
LINE
  5
F1007E
330
F1007F
100
AcDbEntity
8
Geo
100
AcDbLine
10
-60.2395905599668
20
19.2251304165243
30
0.00000000000000
11
-60.2379238933002
21
19.2245743818436
31
0.00000000000000
  0
LINE
  5
F10080
330
F10081
100
AcDbEntity
8
Geo
100
AcDbLine
10
-60.2379238933002
20
19.2245743818436
30
0.00000000000000
11
-60.2362572266335
21
19.2240145751728
31
0.00000000000000
  0
LINE
  5
F10082
330
F10083
100
AcDbEntity
8
Geo
100
AcDbLine
10
-60.2362572266335
20
19.2240145751728
30
0.00000000000000
11
-60.2345905599668
21
19.2234510094705
31
0.00000000000000
  0
LINE
  5
F10084
330
F10085
100
AcDbEntity
8
Geo
100
AcDbLine
10
-60.2345905599668
20
19.2234510094705
30
0.00000000000000
11
-60.2329238933002
21
19.2228836977820
31
0.00000000000000
  0
LINE
  5
F10086
330
F10087
100
AcDbEntity
8
Geo
100
AcDbLine
10
-60.2329238933002
20
19.2228836977820
30
0.00000000000000
11
-60.2312572266335
21
19.2223126532395
31
0.00000000000000
  0
LINE
  5
F10088
330
F10089
100
AcDbEntity
8
Geo
100
AcDbLine
10
-60.2312572266335
20
19.2223126532395
30
0.00000000000000
11
-60.2295905599668
21
19.2217378890617
31
0.00000000000000
  0
LINE
  5
F1008A
330
F1008B
100
AcDbEntity
8
Geo
100
AcDbLine
10
-60.2295905599668
20
19.2217378890617
30
0.00000000000000
11
-60.2279238933002
21
19.2211594185533
31
0.00000000000000
  0
LINE
  5
F1008C
330
F1008D
100
AcDbEntity
8
Geo
100
AcDbLine
10
-60.2279238933002
20
19.2211594185533
30
0.00000000000000
11
-60.2262572266335
21
19.2205772551047
31
0.00000000000000
  0
LINE
  5
F1008E
330
F1008F
100
AcDbEntity
8
Geo
100
AcDbLine
10
-60.2262572266335
20
19.2205772551047
30
0.00000000000000
11
-60.2245905599668
21
19.2199914121919
31
0.00000000000000
  0
LINE
  5
F10090
330
F10091
100
AcDbEntity
8
Geo
100
AcDbLine
10
-60.2245905599668
20
19.2199914121919
30
0.00000000000000
11
-60.2229238933002
21
19.2194019033762
31
0.00000000000000
  0
LINE
  5
F10092
330
F10093
100
AcDbEntity
8
Geo
100
AcDbLine
10
-60.2229238933002
20
19.2194019033762
30
0.00000000000000
11
-60.2212572266335
21
19.2188087423034
31
0.00000000000000
  0
LINE
  5
F10094
330
F10095
100
AcDbEntity
8
Geo
100
AcDbLine
10
-60.2212572266335
20
19.2188087423034
30
0.00000000000000
11
-60.2195905599668
21
19.2182119427042
31
0.00000000000000
  0
LINE
  5
F10096
330
F10097
100
AcDbEntity
8
Geo
100
AcDbLine
10
-60.2195905599668
20
19.2182119427042
30
0.00000000000000
11
-60.2179238933002
21
19.2176115183933
31
0.00000000000000
  0
LINE
  5
F10098
330
F10099
100
AcDbEntity
8
Geo
100
AcDbLine
10
-60.2179238933002
20
19.2176115183933
30
0.00000000000000
11
-60.2162572266335
21
19.2170074832695
31
0.00000000000000
  0
LINE
  5
F1009A
330
F1009B
100
AcDbEntity
8
Geo
100
AcDbLine
10
-60.2162572266335
20
19.2170074832695
30
0.00000000000000
11
-60.2145905599668
21
19.2163998513149
31
0.00000000000000
  0
LINE
  5
F1009C
330
F1009D
100
AcDbEntity
8
Geo
100
AcDbLine
10
-60.2145905599668
20
19.2163998513149
30
0.00000000000000
11
-60.2129238933002
21
19.2157886365951
31
0.00000000000000
  0
LINE
  5
F1009E
330
F1009F
100
AcDbEntity
8
Geo
100
AcDbLine
10
-60.2129238933002
20
19.2157886365951
30
0.00000000000000
11
-60.2112572266335
21
19.2151738532586
31
0.00000000000000
  0
LINE
  5
F100A0
330
F100A1
100
AcDbEntity
8
Geo
100
AcDbLine
10
-60.2112572266335
20
19.2151738532586
30
0.00000000000000
11
-60.2095905599668
21
19.2145555155365
31
0.00000000000000
  0
LINE
  5
F100A2
330
F100A3
100
AcDbEntity
8
Geo
100
AcDbLine
10
-60.2095905599668
20
19.2145555155365
30
0.00000000000000
11
-60.2079238933002
21
19.2139336377420
31
0.00000000000000
  0
LINE
  5
F100A4
330
F100A5
100
AcDbEntity
8
Geo
100
AcDbLine
10
-60.2079238933002
20
19.2139336377420
30
0.00000000000000
11
-60.2062572266335
21
19.2133082342705
31
0.00000000000000
  0
LINE
  5
F100A6
330
F100A7
100
AcDbEntity
8
Geo
100
AcDbLine
10
-60.2062572266335
20
19.2133082342705
30
0.00000000000000
11
-60.2045905599668
21
19.2126793195989
31
0.00000000000000
  0
LINE
  5
F100A8
330
F100A9
100
AcDbEntity
8
Geo
100
AcDbLine
10
-60.2045905599668
20
19.2126793195989
30
0.00000000000000
11
-60.2029238933002
21
19.2120469082853
31
0.00000000000000
  0
LINE
  5
F100AA
330
F100AB
100
AcDbEntity
8
Geo
100
AcDbLine
10
-60.2029238933002
20
19.2120469082853
30
0.00000000000000
11
-60.2012572266335
21
19.2114110149689
31
0.00000000000000
  0
LINE
  5
F100AC
330
F100AD
100
AcDbEntity
8
Geo
100
AcDbLine
10
-60.2012572266335
20
19.2114110149689
30
0.00000000000000
11
-60.1995905599668
21
19.2107716543695
31
0.00000000000000
  0
LINE
  5
F100AE
330
F100AF
100
AcDbEntity
8
Geo
100
AcDbLine
10
-60.1995905599668
20
19.2107716543695
30
0.00000000000000
11
-60.1979238933002
21
19.2101288412869
31
0.00000000000000
  0
LINE
  5
F100B0
330
F100B1
100
AcDbEntity
8
Geo
100
AcDbLine
10
-60.1979238933002
20
19.2101288412869
30
0.00000000000000
11
-60.1962572266335
21
19.2094825906011
31
0.00000000000000
  0
LINE
  5
F100B2
330
F100B3
100
AcDbEntity
8
Geo
100
AcDbLine
10
-60.1962572266335
20
19.2094825906011
30
0.00000000000000
11
-60.1945905599668
21
19.2088329172716
31
0.00000000000000
  0
LINE
  5
F100B4
330
F100B5
100
AcDbEntity
8
Geo
100
AcDbLine
10
-60.1945905599668
20
19.2088329172716
30
0.00000000000000
11
-60.1929238933002
21
19.2081798363371
31
0.00000000000000
  0
LINE
  5
F100B6
330
F100B7
100
AcDbEntity
8
Geo
100
AcDbLine
10
-60.1929238933002
20
19.2081798363371
30
0.00000000000000
11
-60.1912572266335
21
19.2075233629152
31
0.00000000000000
  0
LINE
  5
F100B8
330
F100B9
100
AcDbEntity
8
Geo
100
AcDbLine
10
-60.1912572266335
20
19.2075233629152
30
0.00000000000000
11
-60.1895905599668
21
19.2068635122019
31
0.00000000000000
  0
LINE
  5
F100BA
330
F100BB
100
AcDbEntity
8
Geo
100
AcDbLine
10
-60.1895905599668
20
19.2068635122019
30
0.00000000000000
11
-60.1879238933002
21
19.2062002994716
31
0.00000000000000
  0
LINE
  5
F100BC
330
F100BD
100
AcDbEntity
8
Geo
100
AcDbLine
10
-60.1879238933002
20
19.2062002994716
30
0.00000000000000
11
-60.1862572266335
21
19.2055337400764
31
0.00000000000000
  0
LINE
  5
F100BE
330
F100BF
100
AcDbEntity
8
Geo
100
AcDbLine
10
-60.1862572266335
20
19.2055337400764
30
0.00000000000000
11
-60.1845905599668
21
19.2048638494459
31
0.00000000000000
  0
LINE
  5
F100C0
330
F100C1
100
AcDbEntity
8
Geo
100
AcDbLine
10
-60.1845905599668
20
19.2048638494459
30
0.00000000000000
11
-60.1829238933002
21
19.2041906430868
31
0.00000000000000
  0
LINE
  5
F100C2
330
F100C3
100
AcDbEntity
8
Geo
100
AcDbLine
10
-60.1829238933002
20
19.2041906430868
30
0.00000000000000
11
-60.1812572266335
21
19.2035141365824
31
0.00000000000000
  0
LINE
  5
F100C4
330
F100C5
100
AcDbEntity
8
Geo
100
AcDbLine
10
-60.1812572266335
20
19.2035141365824
30
0.00000000000000
11
-60.1795905599668
21
19.2028343455928
31
0.00000000000000
  0
LINE
  5
F100C6
330
F100C7
100
AcDbEntity
8
Geo
100
AcDbLine
10
-60.1795905599668
20
19.2028343455928
30
0.00000000000000
11
-60.1779238933002
21
19.2021512858537
31
0.00000000000000
  0
LINE
  5
F100C8
330
F100C9
100
AcDbEntity
8
Geo
100
AcDbLine
10
-60.1779238933002
20
19.2021512858537
30
0.00000000000000
11
-60.1762572266335
21
19.2014649731766
31
0.00000000000000
  0
LINE
  5
F100CA
330
F100CB
100
AcDbEntity
8
Geo
100
AcDbLine
10
-60.1762572266335
20
19.2014649731766
30
0.00000000000000
11
-60.1745905599668
21
19.2007754234485
31
0.00000000000000
  0
LINE
  5
F100CC
330
F100CD
100
AcDbEntity
8
Geo
100
AcDbLine
10
-60.1745905599668
20
19.2007754234485
30
0.00000000000000
11
-60.1729238933002
21
19.2000826526311
31
0.00000000000000
  0
LINE
  5
F100CE
330
F100CF
100
AcDbEntity
8
Geo
100
AcDbLine
10
-60.1729238933002
20
19.2000826526311
30
0.00000000000000
11
-60.1712572266335
21
19.1993866767607
31
0.00000000000000
  0
LINE
  5
F100D0
330
F100D1
100
AcDbEntity
8
Geo
100
AcDbLine
10
-60.1712572266335
20
19.1993866767607
30
0.00000000000000
11
-60.1695905599668
21
19.1986875119478
31
0.00000000000000
  0
LINE
  5
F100D2
330
F100D3
100
AcDbEntity
8
Geo
100
AcDbLine
10
-60.1695905599668
20
19.1986875119478
30
0.00000000000000
11
-60.1679238933002
21
19.1979851743768
31
0.00000000000000
  0
LINE
  5
F100D4
330
F100D5
100
AcDbEntity
8
Geo
100
AcDbLine
10
-60.1679238933002
20
19.1979851743768
30
0.00000000000000
11
-60.1662572266335
21
19.1972796803054
31
0.00000000000000
  0
LINE
  5
F100D6
330
F100D7
100
AcDbEntity
8
Geo
100
AcDbLine
10
-60.1662572266335
20
19.1972796803054
30
0.00000000000000
11
-60.1645905599668
21
19.1965710460645
31
0.00000000000000
  0
LINE
  5
F100D8
330
F100D9
100
AcDbEntity
8
Geo
100
AcDbLine
10
-60.1645905599668
20
19.1965710460645
30
0.00000000000000
11
-60.1629238933002
21
19.1958592880577
31
0.00000000000000
  0
LINE
  5
F100DA
330
F100DB
100
AcDbEntity
8
Geo
100
AcDbLine
10
-60.1629238933002
20
19.1958592880577
30
0.00000000000000
11
-60.1612572266335
21
19.1951444227608
31
0.00000000000000
  0
LINE
  5
F100DC
330
F100DD
100
AcDbEntity
8
Geo
100
AcDbLine
10
-60.1612572266335
20
19.1951444227608
30
0.00000000000000
11
-60.1595905599668
21
19.1944264667216
31
0.00000000000000
  0
LINE
  5
F100DE
330
F100DF
100
AcDbEntity
8
Geo
100
AcDbLine
10
-60.1595905599668
20
19.1944264667216
30
0.00000000000000
11
-60.1579238933002
21
19.1937054365593
31
0.00000000000000
  0
LINE
  5
F100E0
330
F100E1
100
AcDbEntity
8
Geo
100
AcDbLine
10
-60.1579238933002
20
19.1937054365593
30
0.00000000000000
11
-60.1562572266335
21
19.1929813489645
31
0.00000000000000
  0
LINE
  5
F100E2
330
F100E3
100
AcDbEntity
8
Geo
100
AcDbLine
10
-60.1562572266335
20
19.1929813489645
30
0.00000000000000
11
-60.1545905599668
21
19.1922542206985
31
0.00000000000000
  0
LINE
  5
F100E4
330
F100E5
100
AcDbEntity
8
Geo
100
AcDbLine
10
-60.1545905599668
20
19.1922542206985
30
0.00000000000000
11
-60.1529238933002
21
19.1915240685928
31
0.00000000000000
  0
LINE
  5
F100E6
330
F100E7
100
AcDbEntity
8
Geo
100
AcDbLine
10
-60.1529238933002
20
19.1915240685928
30
0.00000000000000
11
-60.1512572266335
21
19.1907909095491
31
0.00000000000000
  0
LINE
  5
F100E8
330
F100E9
100
AcDbEntity
8
Geo
100
AcDbLine
10
-60.1512572266335
20
19.1907909095491
30
0.00000000000000
11
-60.1495905599668
21
19.1900547605387
31
0.00000000000000
  0
LINE
  5
F100EA
330
F100EB
100
AcDbEntity
8
Geo
100
AcDbLine
10
-60.1495905599668
20
19.1900547605387
30
0.00000000000000
11
-60.1479238933002
21
19.1893156386019
31
0.00000000000000
  0
LINE
  5
F100EC
330
F100ED
100
AcDbEntity
8
Geo
100
AcDbLine
10
-60.1479238933002
20
19.1893156386019
30
0.00000000000000
11
-60.1462572266335
21
19.1885735608481
31
0.00000000000000
  0
LINE
  5
F100EE
330
F100EF
100
AcDbEntity
8
Geo
100
AcDbLine
10
-60.1462572266335
20
19.1885735608481
30
0.00000000000000
11
-60.1445905599668
21
19.1878285444550
31
0.00000000000000
  0
LINE
  5
F100F0
330
F100F1
100
AcDbEntity
8
Geo
100
AcDbLine
10
-60.1445905599668
20
19.1878285444550
30
0.00000000000000
11
-60.1429238933002
21
19.1870806066683
31
0.00000000000000
  0
LINE
  5
F100F2
330
F100F3
100
AcDbEntity
8
Geo
100
AcDbLine
10
-60.1429238933002
20
19.1870806066683
30
0.00000000000000
11
-60.1412572266335
21
19.1863297648013
31
0.00000000000000
  0
LINE
  5
F100F4
330
F100F5
100
AcDbEntity
8
Geo
100
AcDbLine
10
-60.1412572266335
20
19.1863297648013
30
0.00000000000000
11
-60.1395905599668
21
19.1855760362345
31
0.00000000000000
  0
LINE
  5
F100F6
330
F100F7
100
AcDbEntity
8
Geo
100
AcDbLine
10
-60.1395905599668
20
19.1855760362345
30
0.00000000000000
11
-60.1379238933002
21
19.1848194384155
31
0.00000000000000
  0
LINE
  5
F100F8
330
F100F9
100
AcDbEntity
8
Geo
100
AcDbLine
10
-60.1379238933002
20
19.1848194384155
30
0.00000000000000
11
-60.1362572266335
21
19.1840599888579
31
0.00000000000000
  0
LINE
  5
F100FA
330
F100FB
100
AcDbEntity
8
Geo
100
AcDbLine
10
-60.1362572266335
20
19.1840599888579
30
0.00000000000000
11
-60.1345905599668
21
19.1832977051416
31
0.00000000000000
  0
LINE
  5
F100FC
330
F100FD
100
AcDbEntity
8
Geo
100
AcDbLine
10
-60.1345905599668
20
19.1832977051416
30
0.00000000000000
11
-60.1329238933002
21
19.1825326049120
31
0.00000000000000
  0
LINE
  5
F100FE
330
F100FF
100
AcDbEntity
8
Geo
100
AcDbLine
10
-60.1329238933002
20
19.1825326049120
30
0.00000000000000
11
-60.1312572266335
21
19.1817647058797
31
0.00000000000000
  0
LINE
  5
F10100
330
F10101
100
AcDbEntity
8
Geo
100
AcDbLine
10
-60.1312572266335
20
19.1817647058797
30
0.00000000000000
11
-60.1295905599668
21
19.1809940258202
31
0.00000000000000
  0
LINE
  5
F10102
330
F10103
100
AcDbEntity
8
Geo
100
AcDbLine
10
-60.1295905599668
20
19.1809940258202
30
0.00000000000000
11
-60.1279238933002
21
19.1802205825733
31
0.00000000000000
  0
LINE
  5
F10104
330
F10105
100
AcDbEntity
8
Geo
100
AcDbLine
10
-60.1279238933002
20
19.1802205825733
30
0.00000000000000
11
-60.1262572266335
21
19.1794443940425
31
0.00000000000000
  0
LINE
  5
F10106
330
F10107
100
AcDbEntity
8
Geo
100
AcDbLine
10
-60.1262572266335
20
19.1794443940425
30
0.00000000000000
11
-60.1245905599668
21
19.1786654781954
31
0.00000000000000
  0
LINE
  5
F10108
330
F10109
100
AcDbEntity
8
Geo
100
AcDbLine
10
-60.1245905599668
20
19.1786654781954
30
0.00000000000000
11
-60.1229238933002
21
19.1778838530622
31
0.00000000000000
  0
LINE
  5
F1010A
330
F1010B
100
AcDbEntity
8
Geo
100
AcDbLine
10
-60.1229238933002
20
19.1778838530622
30
0.00000000000000
11
-60.1212572266335
21
19.1770995367362
31
0.00000000000000
  0
LINE
  5
F1010C
330
F1010D
100
AcDbEntity
8
Geo
100
AcDbLine
10
-60.1212572266335
20
19.1770995367362
30
0.00000000000000
11
-60.1195905599668
21
19.1763125473727
31
0.00000000000000
  0
LINE
  5
F1010E
330
F1010F
100
AcDbEntity
8
Geo
100
AcDbLine
10
-60.1195905599668
20
19.1763125473727
30
0.00000000000000
11
-60.1179238933002
21
19.1755229031890
31
0.00000000000000
  0
LINE
  5
F10110
330
F10111
100
AcDbEntity
8
Geo
100
AcDbLine
10
-60.1179238933002
20
19.1755229031890
30
0.00000000000000
11
-60.1162572266335
21
19.1747306224641
31
0.00000000000000
  0
LINE
  5
F10112
330
F10113
100
AcDbEntity
8
Geo
100
AcDbLine
10
-60.1162572266335
20
19.1747306224641
30
0.00000000000000
11
-60.1145905599668
21
19.1739357235375
31
0.00000000000000
  0
LINE
  5
F10114
330
F10115
100
AcDbEntity
8
Geo
100
AcDbLine
10
-60.1145905599668
20
19.1739357235375
30
0.00000000000000
11
-60.1129238933002
21
19.1731382248098
31
0.00000000000000
  0
LINE
  5
F10116
330
F10117
100
AcDbEntity
8
Geo
100
AcDbLine
10
-60.1129238933002
20
19.1731382248098
30
0.00000000000000
11
-60.1112572266335
21
19.1723381447415
31
0.00000000000000
  0
LINE
  5
F10118
330
F10119
100
AcDbEntity
8
Geo
100
AcDbLine
10
-60.1112572266335
20
19.1723381447415
30
0.00000000000000
11
-60.1095905599668
21
19.1715355018529
31
0.00000000000000
  0
LINE
  5
F1011A
330
F1011B
100
AcDbEntity
8
Geo
100
AcDbLine
10
-60.1095905599668
20
19.1715355018529
30
0.00000000000000
11
-60.1079238933002
21
19.1707303147238
31
0.00000000000000
  0
LINE
  5
F1011C
330
F1011D
100
AcDbEntity
8
Geo
100
AcDbLine
10
-60.1079238933002
20
19.1707303147238
30
0.00000000000000
11
-60.1062572266335
21
19.1699226019926
31
0.00000000000000
  0
LINE
  5
F1011E
330
F1011F
100
AcDbEntity
8
Geo
100
AcDbLine
10
-60.1062572266335
20
19.1699226019926
30
0.00000000000000
11
-60.1045905599668
21
19.1691123823564
31
0.00000000000000
  0
LINE
  5
F10120
330
F10121
100
AcDbEntity
8
Geo
100
AcDbLine
10
-60.1045905599668
20
19.1691123823564
30
0.00000000000000
11
-60.1029238933002
21
19.1682996745703
31
0.00000000000000
  0
LINE
  5
F10122
330
F10123
100
AcDbEntity
8
Geo
100
AcDbLine
10
-60.1029238933002
20
19.1682996745703
30
0.00000000000000
11
-60.1012572266335
21
19.1674844974468
31
0.00000000000000
  0
LINE
  5
F10124
330
F10125
100
AcDbEntity
8
Geo
100
AcDbLine
10
-60.1012572266335
20
19.1674844974468
30
0.00000000000000
11
-60.0995905599668
21
19.1666668698558
31
0.00000000000000
  0
LINE
  5
F10126
330
F10127
100
AcDbEntity
8
Geo
100
AcDbLine
10
-60.0995905599668
20
19.1666668698558
30
0.00000000000000
11
-60.0979238933002
21
19.1658468107239
31
0.00000000000000
  0
LINE
  5
F10128
330
F10129
100
AcDbEntity
8
Geo
100
AcDbLine
10
-60.0979238933002
20
19.1658468107239
30
0.00000000000000
11
-60.0962572266335
21
19.1650243390337
31
0.00000000000000
  0
LINE
  5
F1012A
330
F1012B
100
AcDbEntity
8
Geo
100
AcDbLine
10
-60.0962572266335
20
19.1650243390337
30
0.00000000000000
11
-60.0945905599668
21
19.1641994738240
31
0.00000000000000
  0
LINE
  5
F1012C
330
F1012D
100
AcDbEntity
8
Geo
100
AcDbLine
10
-60.0945905599668
20
19.1641994738240
30
0.00000000000000
11
-60.0929238933002
21
19.1633722341889
31
0.00000000000000
  0
LINE
  5
F1012E
330
F1012F
100
AcDbEntity
8
Geo
100
AcDbLine
10
-60.0929238933002
20
19.1633722341889
30
0.00000000000000
11
-60.0912572266335
21
19.1625426392774
31
0.00000000000000
  0
LINE
  5
F10130
330
F10131
100
AcDbEntity
8
Geo
100
AcDbLine
10
-60.0912572266335
20
19.1625426392774
30
0.00000000000000
11
-60.0895905599668
21
19.1617107082930
31
0.00000000000000
  0
LINE
  5
F10132
330
F10133
100
AcDbEntity
8
Geo
100
AcDbLine
10
-60.0895905599668
20
19.1617107082930
30
0.00000000000000
11
-60.0879238933002
21
19.1608764604933
31
0.00000000000000
  0
LINE
  5
F10134
330
F10135
100
AcDbEntity
8
Geo
100
AcDbLine
10
-60.0879238933002
20
19.1608764604933
30
0.00000000000000
11
-60.0862572266335
21
19.1600399151897
31
0.00000000000000
  0
LINE
  5
F10136
330
F10137
100
AcDbEntity
8
Geo
100
AcDbLine
10
-60.0862572266335
20
19.1600399151897
30
0.00000000000000
11
-60.0845905599668
21
19.1592010917465
31
0.00000000000000
  0
LINE
  5
F10138
330
F10139
100
AcDbEntity
8
Geo
100
AcDbLine
10
-60.0845905599668
20
19.1592010917465
30
0.00000000000000
11
-60.0829238933002
21
19.1583600095809
31
0.00000000000000
  0
LINE
  5
F1013A
330
F1013B
100
AcDbEntity
8
Geo
100
AcDbLine
10
-60.0829238933002
20
19.1583600095809
30
0.00000000000000
11
-60.0812572266335
21
19.1575166881624
31
0.00000000000000
  0
LINE
  5
F1013C
330
F1013D
100
AcDbEntity
8
Geo
100
AcDbLine
10
-60.0812572266335
20
19.1575166881624
30
0.00000000000000
11
-60.0795905599668
21
19.1566711470122
31
0.00000000000000
  0
LINE
  5
F1013E
330
F1013F
100
AcDbEntity
8
Geo
100
AcDbLine
10
-60.0795905599668
20
19.1566711470122
30
0.00000000000000
11
-60.0779238933002
21
19.1558234057031
31
0.00000000000000
  0
LINE
  5
F10140
330
F10141
100
AcDbEntity
8
Geo
100
AcDbLine
10
-60.0779238933002
20
19.1558234057031
30
0.00000000000000
11
-60.0762572266335
21
19.1549734838587
31
0.00000000000000
  0
LINE
  5
F10142
330
F10143
100
AcDbEntity
8
Geo
100
AcDbLine
10
-60.0762572266335
20
19.1549734838587
30
0.00000000000000
11
-60.0745905599668
21
19.1541214011529
31
0.00000000000000
  0
LINE
  5
F10144
330
F10145
100
AcDbEntity
8
Geo
100
AcDbLine
10
-60.0745905599668
20
19.1541214011529
30
0.00000000000000
11
-60.0729238933002
21
19.1532671773100
31
0.00000000000000
  0
LINE
  5
F10146
330
F10147
100
AcDbEntity
8
Geo
100
AcDbLine
10
-60.0729238933002
20
19.1532671773100
30
0.00000000000000
11
-60.0712572266335
21
19.1524108321035
31
0.00000000000000
  0
LINE
  5
F10148
330
F10149
100
AcDbEntity
8
Geo
100
AcDbLine
10
-60.0712572266335
20
19.1524108321035
30
0.00000000000000
11
-60.0695905599668
21
19.1515523853563
31
0.00000000000000
  0
LINE
  5
F1014A
330
F1014B
100
AcDbEntity
8
Geo
100
AcDbLine
10
-60.0695905599668
20
19.1515523853563
30
0.00000000000000
11
-60.0679238933002
21
19.1506918569398
31
0.00000000000000
  0
LINE
  5
F1014C
330
F1014D
100
AcDbEntity
8
Geo
100
AcDbLine
10
-60.0679238933002
20
19.1506918569398
30
0.00000000000000
11
-60.0662572266335
21
19.1498292667735
31
0.00000000000000
  0
LINE
  5
F1014E
330
F1014F
100
AcDbEntity
8
Geo
100
AcDbLine
10
-60.0662572266335
20
19.1498292667735
30
0.00000000000000
11
-60.0645905599668
21
19.1489646348248
31
0.00000000000000
  0
LINE
  5
F10150
330
F10151
100
AcDbEntity
8
Geo
100
AcDbLine
10
-60.0645905599668
20
19.1489646348248
30
0.00000000000000
11
-60.0629238933002
21
19.1480979811083
31
0.00000000000000
  0
LINE
  5
F10152
330
F10153
100
AcDbEntity
8
Geo
100
AcDbLine
10
-60.0629238933002
20
19.1480979811083
30
0.00000000000000
11
-60.0612572266335
21
19.1472293256854
31
0.00000000000000
  0
LINE
  5
F10154
330
F10155
100
AcDbEntity
8
Geo
100
AcDbLine
10
-60.0612572266335
20
19.1472293256854
30
0.00000000000000
11
-60.0595905599668
21
19.1463586886638
31
0.00000000000000
  0
LINE
  5
F10156
330
F10157
100
AcDbEntity
8
Geo
100
AcDbLine
10
-60.0595905599668
20
19.1463586886638
30
0.00000000000000
11
-60.0579238933002
21
19.1454860901970
31
0.00000000000000
  0
LINE
  5
F10158
330
F10159
100
AcDbEntity
8
Geo
100
AcDbLine
10
-60.0579238933002
20
19.1454860901970
30
0.00000000000000
11
-60.0562572266335
21
19.1446115504842
31
0.00000000000000
  0
LINE
  5
F1015A
330
F1015B
100
AcDbEntity
8
Geo
100
AcDbLine
10
-60.0562572266335
20
19.1446115504842
30
0.00000000000000
11
-60.0545905599668
21
19.1437350897691
31
0.00000000000000
  0
LINE
  5
F1015C
330
F1015D
100
AcDbEntity
8
Geo
100
AcDbLine
10
-60.0545905599668
20
19.1437350897691
30
0.00000000000000
11
-60.0529238933002
21
19.1428567283403
31
0.00000000000000
  0
LINE
  5
F1015E
330
F1015F
100
AcDbEntity
8
Geo
100
AcDbLine
10
-60.0529238933002
20
19.1428567283403
30
0.00000000000000
11
-60.0512572266335
21
19.1419764865302
31
0.00000000000000
  0
LINE
  5
F10160
330
F10161
100
AcDbEntity
8
Geo
100
AcDbLine
10
-60.0512572266335
20
19.1419764865302
30
0.00000000000000
11
-60.0495905599668
21
19.1410943847146
31
0.00000000000000
  0
LINE
  5
F10162
330
F10163
100
AcDbEntity
8
Geo
100
AcDbLine
10
-60.0495905599668
20
19.1410943847146
30
0.00000000000000
11
-60.0479238933002
21
19.1402104433125
31
0.00000000000000
  0
LINE
  5
F10164
330
F10165
100
AcDbEntity
8
Geo
100
AcDbLine
10
-60.0479238933002
20
19.1402104433125
30
0.00000000000000
11
-60.0462572266335
21
19.1393246827855
31
0.00000000000000
  0
LINE
  5
F10166
330
F10167
100
AcDbEntity
8
Geo
100
AcDbLine
10
-60.0462572266335
20
19.1393246827855
30
0.00000000000000
11
-60.0445905599668
21
19.1384371236374
31
0.00000000000000
  0
LINE
  5
F10168
330
F10169
100
AcDbEntity
8
Geo
100
AcDbLine
10
-60.0445905599668
20
19.1384371236374
30
0.00000000000000
11
-60.0429238933002
21
19.1375477864133
31
0.00000000000000
  0
LINE
  5
F1016A
330
F1016B
100
AcDbEntity
8
Geo
100
AcDbLine
10
-60.0429238933002
20
19.1375477864133
30
0.00000000000000
11
-60.0412572266335
21
19.1366566916998
31
0.00000000000000
  0
LINE
  5
F1016C
330
F1016D
100
AcDbEntity
8
Geo
100
AcDbLine
10
-60.0412572266335
20
19.1366566916998
30
0.00000000000000
11
-60.0395905599668
21
19.1357638601240
31
0.00000000000000
  0
LINE
  5
F1016E
330
F1016F
100
AcDbEntity
8
Geo
100
AcDbLine
10
-60.0395905599668
20
19.1357638601240
30
0.00000000000000
11
-60.0379238933002
21
19.1348693123533
31
0.00000000000000
  0
LINE
  5
F10170
330
F10171
100
AcDbEntity
8
Geo
100
AcDbLine
10
-60.0379238933002
20
19.1348693123533
30
0.00000000000000
11
-60.0362572266335
21
19.1339730690948
31
0.00000000000000
  0
LINE
  5
F10172
330
F10173
100
AcDbEntity
8
Geo
100
AcDbLine
10
-60.0362572266335
20
19.1339730690948
30
0.00000000000000
11
-60.0345905599668
21
19.1330751510948
31
0.00000000000000
  0
LINE
  5
F10174
330
F10175
100
AcDbEntity
8
Geo
100
AcDbLine
10
-60.0345905599668
20
19.1330751510948
30
0.00000000000000
11
-60.0329238933002
21
19.1321755791383
31
0.00000000000000
  0
LINE
  5
F10176
330
F10177
100
AcDbEntity
8
Geo
100
AcDbLine
10
-60.0329238933002
20
19.1321755791383
30
0.00000000000000
11
-60.0312572266335
21
19.1312743740489
31
0.00000000000000
  0
LINE
  5
F10178
330
F10179
100
AcDbEntity
8
Geo
100
AcDbLine
10
-60.0312572266335
20
19.1312743740489
30
0.00000000000000
11
-60.0295905599668
21
19.1303715566876
31
0.00000000000000
  0
LINE
  5
F1017A
330
F1017B
100
AcDbEntity
8
Geo
100
AcDbLine
10
-60.0295905599668
20
19.1303715566876
30
0.00000000000000
11
-60.0279238933002
21
19.1294671479529
31
0.00000000000000
  0
LINE
  5
F1017C
330
F1017D
100
AcDbEntity
8
Geo
100
AcDbLine
10
-60.0279238933002
20
19.1294671479529
30
0.00000000000000
11
-60.0262572266335
21
19.1285611687803
31
0.00000000000000
  0
LINE
  5
F1017E
330
F1017F
100
AcDbEntity
8
Geo
100
AcDbLine
10
-60.0262572266335
20
19.1285611687803
30
0.00000000000000
11
-60.0245905599668
21
19.1276536401415
31
0.00000000000000
  0
LINE
  5
F10180
330
F10181
100
AcDbEntity
8
Geo
100
AcDbLine
10
-60.0245905599668
20
19.1276536401415
30
0.00000000000000
11
-60.0229238933002
21
19.1267445830439
31
0.00000000000000
  0
LINE
  5
F10182
330
F10183
100
AcDbEntity
8
Geo
100
AcDbLine
10
-60.0229238933002
20
19.1267445830439
30
0.00000000000000
11
-60.0212572266335
21
19.1258340185305
31
0.00000000000000
  0
LINE
  5
F10184
330
F10185
100
AcDbEntity
8
Geo
100
AcDbLine
10
-60.0212572266335
20
19.1258340185305
30
0.00000000000000
11
-60.0195905599668
21
19.1249219676793
31
0.00000000000000
  0
LINE
  5
F10186
330
F10187
100
AcDbEntity
8
Geo
100
AcDbLine
10
-60.0195905599668
20
19.1249219676793
30
0.00000000000000
11
-60.0179238933002
21
19.1240084516023
31
0.00000000000000
  0
LINE
  5
F10188
330
F10189
100
AcDbEntity
8
Geo
100
AcDbLine
10
-60.0179238933002
20
19.1240084516023
30
0.00000000000000
11
-60.0162572266335
21
19.1230934914459
31
0.00000000000000
  0
LINE
  5
F1018A
330
F1018B
100
AcDbEntity
8
Geo
100
AcDbLine
10
-60.0162572266335
20
19.1230934914459
30
0.00000000000000
11
-60.0145905599668
21
19.1221771083895
31
0.00000000000000
  0
LINE
  5
F1018C
330
F1018D
100
AcDbEntity
8
Geo
100
AcDbLine
10
-60.0145905599668
20
19.1221771083895
30
0.00000000000000
11
-60.0129238933002
21
19.1212593236458
31
0.00000000000000
  0
LINE
  5
F1018E
330
F1018F
100
AcDbEntity
8
Geo
100
AcDbLine
10
-60.0129238933002
20
19.1212593236458
30
0.00000000000000
11
-60.0112572266335
21
19.1203401584596
31
0.00000000000000
  0
LINE
  5
F10190
330
F10191
100
AcDbEntity
8
Geo
100
AcDbLine
10
-60.0112572266335
20
19.1203401584596
30
0.00000000000000
11
-60.0095905599668
21
19.1194196341080
31
0.00000000000000
  0
LINE
  5
F10192
330
F10193
100
AcDbEntity
8
Geo
100
AcDbLine
10
-60.0095905599668
20
19.1194196341080
30
0.00000000000000
11
-60.0079238933002
21
19.1184977718993
31
0.00000000000000
  0
LINE
  5
F10194
330
F10195
100
AcDbEntity
8
Geo
100
AcDbLine
10
-60.0079238933002
20
19.1184977718993
30
0.00000000000000
11
-60.0062572266335
21
19.1175745931728
31
0.00000000000000
  0
LINE
  5
F10196
330
F10197
100
AcDbEntity
8
Geo
100
AcDbLine
10
-60.0062572266335
20
19.1175745931728
30
0.00000000000000
11
-60.0045905599668
21
19.1166501192985
31
0.00000000000000
  0
LINE
  5
F10198
330
F10199
100
AcDbEntity
8
Geo
100
AcDbLine
10
-60.0045905599668
20
19.1166501192985
30
0.00000000000000
11
-60.0029238933002
21
19.1157243716761
31
0.00000000000000
  0
LINE
  5
F1019A
330
F1019B
100
AcDbEntity
8
Geo
100
AcDbLine
10
-60.0029238933002
20
19.1157243716761
30
0.00000000000000
11
-60.0012572266335
21
19.1147973717349
31
0.00000000000000
  0
LINE
  5
F1019C
330
F1019D
100
AcDbEntity
8
Geo
100
AcDbLine
10
-60.0012572266335
20
19.1147973717349
30
0.00000000000000
11
-59.9995905599668
21
19.1138691409333
31
0.00000000000000
  0
LINE
  5
F1019E
330
F1019F
100
AcDbEntity
8
Geo
100
AcDbLine
10
-59.9995905599668
20
19.1138691409333
30
0.00000000000000
11
-59.9979238933002
21
19.1129397007579
31
0.00000000000000
  0
LINE
  5
F101A0
330
F101A1
100
AcDbEntity
8
Geo
100
AcDbLine
10
-59.9979238933002
20
19.1129397007579
30
0.00000000000000
11
-59.9962572266335
21
19.1120090727237
31
0.00000000000000
  0
LINE
  5
F101A2
330
F101A3
100
AcDbEntity
8
Geo
100
AcDbLine
10
-59.9962572266335
20
19.1120090727237
30
0.00000000000000
11
-59.9945905599668
21
19.1110772783728
31
0.00000000000000
  0
LINE
  5
F101A4
330
F101A5
100
AcDbEntity
8
Geo
100
AcDbLine
10
-59.9945905599668
20
19.1110772783728
30
0.00000000000000
11
-59.9929238933002
21
19.1101443392745
31
0.00000000000000
  0
LINE
  5
F101A6
330
F101A7
100
AcDbEntity
8
Geo
100
AcDbLine
10
-59.9929238933002
20
19.1101443392745
30
0.00000000000000
11
-59.9912572266335
21
19.1092102770246
31
0.00000000000000
  0
LINE
  5
F101A8
330
F101A9
100
AcDbEntity
8
Geo
100
AcDbLine
10
-59.9912572266335
20
19.1092102770246
30
0.00000000000000
11
-59.9895905599668
21
19.1082751132449
31
0.00000000000000
  0
LINE
  5
F101AA
330
F101AB
100
AcDbEntity
8
Geo
100
AcDbLine
10
-59.9895905599668
20
19.1082751132449
30
0.00000000000000
11
-59.9879238933002
21
19.1073388695826
31
0.00000000000000
  0
LINE
  5
F101AC
330
F101AD
100
AcDbEntity
8
Geo
100
AcDbLine
10
-59.9879238933002
20
19.1073388695826
30
0.00000000000000
11
-59.9862572266335
21
19.1064015677101
31
0.00000000000000
  0
LINE
  5
F101AE
330
F101AF
100
AcDbEntity
8
Geo
100
AcDbLine
10
-59.9862572266335
20
19.1064015677101
30
0.00000000000000
11
-59.9845905599668
21
19.1054632293240
31
0.00000000000000
  0
LINE
  5
F101B0
330
F101B1
100
AcDbEntity
8
Geo
100
AcDbLine
10
-59.9845905599668
20
19.1054632293240
30
0.00000000000000
11
-59.9829238933002
21
19.1045238761451
31
0.00000000000000
  0
LINE
  5
F101B2
330
F101B3
100
AcDbEntity
8
Geo
100
AcDbLine
10
-59.9829238933002
20
19.1045238761451
30
0.00000000000000
11
-59.9812572266335
21
19.1035835299176
31
0.00000000000000
  0
LINE
  5
F101B4
330
F101B5
100
AcDbEntity
8
Geo
100
AcDbLine
10
-59.9812572266335
20
19.1035835299176
30
0.00000000000000
11
-59.9795905599668
21
19.1026422124089
31
0.00000000000000
  0
LINE
  5
F101B6
330
F101B7
100
AcDbEntity
8
Geo
100
AcDbLine
10
-59.9795905599668
20
19.1026422124089
30
0.00000000000000
11
-59.9779238933002
21
19.1016999454086
31
0.00000000000000
  0
LINE
  5
F101B8
330
F101B9
100
AcDbEntity
8
Geo
100
AcDbLine
10
-59.9779238933002
20
19.1016999454086
30
0.00000000000000
11
-59.9762572266335
21
19.1007567507284
31
0.00000000000000
  0
LINE
  5
F101BA
330
F101BB
100
AcDbEntity
8
Geo
100
AcDbLine
10
-59.9762572266335
20
19.1007567507284
30
0.00000000000000
11
-59.9745905599668
21
19.0998126502014
31
0.00000000000000
  0
LINE
  5
F101BC
330
F101BD
100
AcDbEntity
8
Geo
100
AcDbLine
10
-59.9745905599668
20
19.0998126502014
30
0.00000000000000
11
-59.9729238933002
21
19.0988676656819
31
0.00000000000000
  0
LINE
  5
F101BE
330
F101BF
100
AcDbEntity
8
Geo
100
AcDbLine
10
-59.9729238933002
20
19.0988676656819
30
0.00000000000000
11
-59.9712572266335
21
19.0979218190443
31
0.00000000000000
  0
LINE
  5
F101C0
330
F101C1
100
AcDbEntity
8
Geo
100
AcDbLine
10
-59.9712572266335
20
19.0979218190443
30
0.00000000000000
11
-59.9695905599668
21
19.0969751321833
31
0.00000000000000
  0
LINE
  5
F101C2
330
F101C3
100
AcDbEntity
8
Geo
100
AcDbLine
10
-59.9695905599668
20
19.0969751321833
30
0.00000000000000
11
-59.9679238933002
21
19.0960276270129
31
0.00000000000000
  0
LINE
  5
F101C4
330
F101C5
100
AcDbEntity
8
Geo
100
AcDbLine
10
-59.9679238933002
20
19.0960276270129
30
0.00000000000000
11
-59.9662572266335
21
19.0950793254660
31
0.00000000000000
  0
LINE
  5
F101C6
330
F101C7
100
AcDbEntity
8
Geo
100
AcDbLine
10
-59.9662572266335
20
19.0950793254660
30
0.00000000000000
11
-59.9645905599668
21
19.0941302494940
31
0.00000000000000
  0
LINE
  5
F101C8
330
F101C9
100
AcDbEntity
8
Geo
100
AcDbLine
10
-59.9645905599668
20
19.0941302494940
30
0.00000000000000
11
-59.9629238933002
21
19.0931804210662
31
0.00000000000000
  0
LINE
  5
F101CA
330
F101CB
100
AcDbEntity
8
Geo
100
AcDbLine
10
-59.9629238933002
20
19.0931804210662
30
0.00000000000000
11
-59.9612572266335
21
19.0922298621694
31
0.00000000000000
  0
LINE
  5
F101CC
330
F101CD
100
AcDbEntity
8
Geo
100
AcDbLine
10
-59.9612572266335
20
19.0922298621694
30
0.00000000000000
11
-59.9595905599668
21
19.0912785948071
31
0.00000000000000
  0
LINE
  5
F101CE
330
F101CF
100
AcDbEntity
8
Geo
100
AcDbLine
10
-59.9595905599668
20
19.0912785948071
30
0.00000000000000
11
-59.9579238933002
21
19.0903266409994
31
0.00000000000000
  0
LINE
  5
F101D0
330
F101D1
100
AcDbEntity
8
Geo
100
AcDbLine
10
-59.9579238933002
20
19.0903266409994
30
0.00000000000000
11
-59.9562572266335
21
19.0893740227823
31
0.00000000000000
  0
LINE
  5
F101D2
330
F101D3
100
AcDbEntity
8
Geo
100
AcDbLine
10
-59.9562572266335
20
19.0893740227823
30
0.00000000000000
11
-59.9545905599668
21
19.0884207622069
31
0.00000000000000
  0
LINE
  5
F101D4
330
F101D5
100
AcDbEntity
8
Geo
100
AcDbLine
10
-59.9545905599668
20
19.0884207622069
30
0.00000000000000
11
-59.9529238933002
21
19.0874668813396
31
0.00000000000000
  0
LINE
  5
F101D6
330
F101D7
100
AcDbEntity
8
Geo
100
AcDbLine
10
-59.9529238933002
20
19.0874668813396
30
0.00000000000000
11
-59.9512572266335
21
19.0865124022609
31
0.00000000000000
  0
LINE
  5
F101D8
330
F101D9
100
AcDbEntity
8
Geo
100
AcDbLine
10
-59.9512572266335
20
19.0865124022609
30
0.00000000000000
11
-59.9495905599668
21
19.0855573470650
31
0.00000000000000
  0
LINE
  5
F101DA
330
F101DB
100
AcDbEntity
8
Geo
100
AcDbLine
10
-59.9495905599668
20
19.0855573470650
30
0.00000000000000
11
-59.9479238933002
21
19.0846017378598
31
0.00000000000000
  0
LINE
  5
F101DC
330
F101DD
100
AcDbEntity
8
Geo
100
AcDbLine
10
-59.9479238933002
20
19.0846017378598
30
0.00000000000000
11
-59.9462572266335
21
19.0836455967658
31
0.00000000000000
  0
LINE
  5
F101DE
330
F101DF
100
AcDbEntity
8
Geo
100
AcDbLine
10
-59.9462572266335
20
19.0836455967658
30
0.00000000000000
11
-59.9445905599668
21
19.0826889459158
31
0.00000000000000
  0
LINE
  5
F101E0
330
F101E1
100
AcDbEntity
8
Geo
100
AcDbLine
10
-59.9445905599668
20
19.0826889459158
30
0.00000000000000
11
-59.9429238933002
21
19.0817318074545
31
0.00000000000000
  0
LINE
  5
F101E2
330
F101E3
100
AcDbEntity
8
Geo
100
AcDbLine
10
-59.9429238933002
20
19.0817318074545
30
0.00000000000000
11
-59.9412572266335
21
19.0807742035378
31
0.00000000000000
  0
LINE
  5
F101E4
330
F101E5
100
AcDbEntity
8
Geo
100
AcDbLine
10
-59.9412572266335
20
19.0807742035378
30
0.00000000000000
11
-59.9395905599668
21
19.0798161563325
31
0.00000000000000
  0
LINE
  5
F101E6
330
F101E7
100
AcDbEntity
8
Geo
100
AcDbLine
10
-59.9395905599668
20
19.0798161563325
30
0.00000000000000
11
-59.9379238933002
21
19.0788576880155
31
0.00000000000000
  0
LINE
  5
F101E8
330
F101E9
100
AcDbEntity
8
Geo
100
AcDbLine
10
-59.9379238933002
20
19.0788576880155
30
0.00000000000000
11
-59.9362572266335
21
19.0778988207735
31
0.00000000000000
  0
LINE
  5
F101EA
330
F101EB
100
AcDbEntity
8
Geo
100
AcDbLine
10
-59.9362572266335
20
19.0778988207735
30
0.00000000000000
11
-59.9345905599668
21
19.0769395768025
31
0.00000000000000
  0
LINE
  5
F101EC
330
F101ED
100
AcDbEntity
8
Geo
100
AcDbLine
10
-59.9345905599668
20
19.0769395768025
30
0.00000000000000
11
-59.9329238933002
21
19.0759799783072
31
0.00000000000000
  0
LINE
  5
F101EE
330
F101EF
100
AcDbEntity
8
Geo
100
AcDbLine
10
-59.9329238933002
20
19.0759799783072
30
0.00000000000000
11
-59.9312572266335
21
19.0750200475004
31
0.00000000000000
  0
LINE
  5
F101F0
330
F101F1
100
AcDbEntity
8
Geo
100
AcDbLine
10
-59.9312572266335
20
19.1424625889171
30
0.00000000000000
11
-59.9295905599668
21
19.1415815112551
31
0.00000000000000
  0
LINE
  5
F101F2
330
F101F3
100
AcDbEntity
8
Geo
100
AcDbLine
10
-59.9295905599668
20
19.1415815112551
30
0.00000000000000
11
-59.9279238933002
21
19.1406985827306
31
0.00000000000000
  0
LINE
  5
F101F4
330
F101F5
100
AcDbEntity
8
Geo
100
AcDbLine
10
-59.9279238933002
20
19.1406985827306
30
0.00000000000000
11
-59.9262572266335
21
19.1398138237818
31
0.00000000000000
  0
LINE
  5
F101F6
330
F101F7
100
AcDbEntity
8
Geo
100
AcDbLine
10
-59.9262572266335
20
19.1398138237818
30
0.00000000000000
11
-59.9245905599668
21
19.1389272548890
31
0.00000000000000
  0
LINE
  5
F101F8
330
F101F9
100
AcDbEntity
8
Geo
100
AcDbLine
10
-59.9245905599668
20
19.1389272548890
30
0.00000000000000
11
-59.9229238933002
21
19.1380388965748
31
0.00000000000000
  0
LINE
  5
F101FA
330
F101FB
100
AcDbEntity
8
Geo
100
AcDbLine
10
-59.9229238933002
20
19.1380388965748
30
0.00000000000000
11
-59.9212572266335
21
19.1371487694030
31
0.00000000000000
  0
LINE
  5
F101FC
330
F101FD
100
AcDbEntity
8
Geo
100
AcDbLine
10
-59.9212572266335
20
19.1371487694030
30
0.00000000000000
11
-59.9195905599668
21
19.1362568939792
31
0.00000000000000
  0
LINE
  5
F101FE
330
F101FF
100
AcDbEntity
8
Geo
100
AcDbLine
10
-59.9195905599668
20
19.1362568939792
30
0.00000000000000
11
-59.9179238933002
21
19.1353632909516
31
0.00000000000000
  0
LINE
  5
F10200
330
F10201
100
AcDbEntity
8
Geo
100
AcDbLine
10
-59.9179238933002
20
19.1353632909516
30
0.00000000000000
11
-59.9162572266335
21
19.1344679810164
31
0.00000000000000
  0
LINE
  5
F10202
330
F10203
100
AcDbEntity
8
Geo
100
AcDbLine
10
-59.9162572266335
20
19.1344679810164
30
0.00000000000000
11
-59.9145905599668
21
19.1335709849306
31
0.00000000000000
  0
LINE
  5
F10204
330
F10205
100
AcDbEntity
8
Geo
100
AcDbLine
10
-59.9145905599668
20
19.1335709849306
30
0.00000000000000
11
-59.9129238933002
21
19.1326723235438
31
0.00000000000000
  0
LINE
  5
F10206
330
F10207
100
AcDbEntity
8
Geo
100
AcDbLine
10
-59.9129238933002
20
19.1326723235438
30
0.00000000000000
11
-59.9112572266335
21
19.1317720178671
31
0.00000000000000
  0
LINE
  5
F10208
330
F10209
100
AcDbEntity
8
Geo
100
AcDbLine
10
-59.9112572266335
20
19.1317720178671
30
0.00000000000000
11
-59.9095905599668
21
19.1308700892088
31
0.00000000000000
  0
LINE
  5
F1020A
330
F1020B
100
AcDbEntity
8
Geo
100
AcDbLine
10
-59.9095905599668
20
19.1308700892088
30
0.00000000000000
11
-59.9079238933002
21
19.1299665594299
31
0.00000000000000
  0
LINE
  5
F1020C
330
F1020D
100
AcDbEntity
8
Geo
100
AcDbLine
10
-59.9079238933002
20
19.1299665594299
30
0.00000000000000
11
-59.9062572266335
21
19.1290614513994
31
0.00000000000000
  0
LINE
  5
F1020E
330
F1020F
100
AcDbEntity
8
Geo
100
AcDbLine
10
-59.9062572266335
20
19.1290614513994
30
0.00000000000000
11
-59.9045905599668
21
19.1281547897700
31
0.00000000000000
  0
LINE
  5
F10210
330
F10211
100
AcDbEntity
8
Geo
100
AcDbLine
10
-59.9045905599668
20
19.1281547897700
30
0.00000000000000
11
-59.9029238933002
21
19.1272466022535
31
0.00000000000000
  0
LINE
  5
F10212
330
F10213
100
AcDbEntity
8
Geo
100
AcDbLine
10
-59.9029238933002
20
19.1272466022535
30
0.00000000000000
11
-59.9012572266335
21
19.1263369216494
31
0.00000000000000
  0
LINE
  5
F10214
330
F10215
100
AcDbEntity
8
Geo
100
AcDbLine
10
-59.9012572266335
20
19.1263369216494
30
0.00000000000000
11
-59.8995905599668
21
19.1254257889818
31
0.00000000000000
  0
LINE
  5
F10216
330
F10217
100
AcDbEntity
8
Geo
100
AcDbLine
10
-59.8995905599668
20
19.1254257889818
30
0.00000000000000
11
-59.8979238933002
21
19.1245132582298
31
0.00000000000000
  0
LINE
  5
F10218
330
F10219
100
AcDbEntity
8
Geo
100
AcDbLine
10
-59.8979238933002
20
19.1245132582298
30
0.00000000000000
11
-59.8962572266335
21
19.1235994033020
31
0.00000000000000
  0
LINE
  5
F1021A
330
F1021B
100
AcDbEntity
8
Geo
100
AcDbLine
10
-59.8962572266335
20
19.1235994033020
30
0.00000000000000
11
-59.8945905599668
21
19.1226843281151
31
0.00000000000000
  0
LINE
  5
F1021C
330
F1021D
100
AcDbEntity
8
Geo
100
AcDbLine
10
-59.8945905599668
20
19.1226843281151
30
0.00000000000000
11
-59.8929238933002
21
19.1217681808966
31
0.00000000000000
  0
LINE
  5
F1021E
330
F1021F
100
AcDbEntity
8
Geo
100
AcDbLine
10
-59.8929238933002
20
19.1217681808966
30
0.00000000000000
11
-59.8912572266335
21
19.1208511741504
31
0.00000000000000
  0
LINE
  5
F10220
330
F10221
100
AcDbEntity
8
Geo
100
AcDbLine
10
-59.8912572266335
20
19.1208511741504
30
0.00000000000000
11
-59.8895905599668
21
19.1199336121124
31
0.00000000000000
  0
LINE
  5
F10222
330
F10223
100
AcDbEntity
8
Geo
100
AcDbLine
10
-59.8895905599668
20
19.1199336121124
30
0.00000000000000
11
-59.8879238933002
21
19.1190159279924
31
0.00000000000000
  0
LINE
  5
F10224
330
F10225
100
AcDbEntity
8
Geo
100
AcDbLine
10
-59.8879238933002
20
19.1190159279924
30
0.00000000000000
11
-59.8862572266335
21
19.1180987338567
31
0.00000000000000
  0
LINE
  5
F10226
330
F10227
100
AcDbEntity
8
Geo
100
AcDbLine
10
-59.8862572266335
20
19.1180987338567
30
0.00000000000000
11
-59.8845905599668
21
19.1171828866712
31
0.00000000000000
  0
LINE
  5
F10228
330
F10229
100
AcDbEntity
8
Geo
100
AcDbLine
10
-59.8845905599668
20
19.1171828866712
30
0.00000000000000
11
-59.8829238933002
21
19.1162695748027
31
0.00000000000000
  0
LINE
  5
F1022A
330
F1022B
100
AcDbEntity
8
Geo
100
AcDbLine
10
-59.8829238933002
20
19.1162695748027
30
0.00000000000000
11
-59.8812572266335
21
19.1153604301894
31
0.00000000000000
  0
LINE
  5
F1022C
330
F1022D
100
AcDbEntity
8
Geo
100
AcDbLine
10
-59.8812572266335
20
19.1153604301894
30
0.00000000000000
11
-59.8795905599668
21
19.1144576724457
31
0.00000000000000
  0
LINE
  5
F1022E
330
F1022F
100
AcDbEntity
8
Geo
100
AcDbLine
10
-59.8795905599668
20
19.1144576724457
30
0.00000000000000
11
-59.8779238933002
21
19.1135642923805
31
0.00000000000000
  0
LINE
  5
F10230
330
F10231
100
AcDbEntity
8
Geo
100
AcDbLine
10
-59.8779238933002
20
19.1135642923805
30
0.00000000000000
11
-59.8762572266335
21
19.1126842837925
31
0.00000000000000
  0
LINE
  5
F10232
330
F10233
100
AcDbEntity
8
Geo
100
AcDbLine
10
-59.8762572266335
20
19.1126842837925
30
0.00000000000000
11
-59.8745905599668
21
19.1118229339689
31
0.00000000000000
  0
LINE
  5
F10234
330
F10235
100
AcDbEntity
8
Geo
100
AcDbLine
10
-59.8745905599668
20
19.1118229339689
30
0.00000000000000
11
-59.8729238933002
21
19.1109871850653
31
0.00000000000000
  0
LINE
  5
F10236
330
F10237
100
AcDbEntity
8
Geo
100
AcDbLine
10
-59.8729238933002
20
19.1109871850653
30
0.00000000000000
11
-59.8712572266335
21
19.1101860804692
31
0.00000000000000
  0
LINE
  5
F10238
330
F10239
100
AcDbEntity
8
Geo
100
AcDbLine
10
-59.8712572266335
20
19.1101860804692
30
0.00000000000000
11
-59.8695905599668
21
19.1094313123506
31
0.00000000000000
  0
LINE
  5
F1023A
330
F1023B
100
AcDbEntity
8
Geo
100
AcDbLine
10
-59.8695905599668
20
19.1094313123506
30
0.00000000000000
11
-59.8679238933002
21
19.1087378888141
31
0.00000000000000
  0
LINE
  5
F1023C
330
F1023D
100
AcDbEntity
8
Geo
100
AcDbLine
10
-59.8679238933002
20
19.1087378888141
30
0.00000000000000
11
-59.8662572266335
21
19.1081249413381
31
0.00000000000000
  0
LINE
  5
F1023E
330
F1023F
100
AcDbEntity
8
Geo
100
AcDbLine
10
-59.8662572266335
20
19.1081249413381
30
0.00000000000000
11
-59.8645905599668
21
19.1076166953571
31
0.00000000000000
  0
LINE
  5
F10240
330
F10241
100
AcDbEntity
8
Geo
100
AcDbLine
10
-59.8645905599668
20
19.1076166953571
30
0.00000000000000
11
-59.8629238933002
21
19.1072436286738
31
0.00000000000000
  0
LINE
  5
F10242
330
F10243
100
AcDbEntity
8
Geo
100
AcDbLine
10
-59.8629238933002
20
19.1072436286738
30
0.00000000000000
11
-59.8612572266335
21
19.1070438434446
31
0.00000000000000
  0
LINE
  5
F10244
330
F10245
100
AcDbEntity
8
Geo
100
AcDbLine
10
-59.8612572266335
20
19.1070438434446
30
0.00000000000000
11
-59.8595905599668
21
19.1070646769783
31
0.00000000000000
  0
LINE
  5
F10246
330
F10247
100
AcDbEntity
8
Geo
100
AcDbLine
10
-59.8595905599668
20
19.1070646769783
30
0.00000000000000
11
-59.8579238933002
21
19.1073645731769
31
0.00000000000000
  0
LINE
  5
F10248
330
F10249
100
AcDbEntity
8
Geo
100
AcDbLine
10
-59.8579238933002
20
19.1073645731769
30
0.00000000000000
11
-59.8562572266335
21
19.1080152276813
31
0.00000000000000
  0
LINE
  5
F1024A
330
F1024B
100
AcDbEntity
8
Geo
100
AcDbLine
10
-59.8562572266335
20
19.1080152276813
30
0.00000000000000
11
-59.8545905599668
21
19.1091040013533
31
0.00000000000000
  0
LINE
  5
F1024C
330
F1024D
100
AcDbEntity
8
Geo
100
AcDbLine
10
-59.8545905599668
20
19.1091040013533
30
0.00000000000000
11
-59.8529238933002
21
19.1107365609577
31
0.00000000000000
  0
LINE
  5
F1024E
330
F1024F
100
AcDbEntity
8
Geo
100
AcDbLine
10
-59.8529238933002
20
19.1107365609577
30
0.00000000000000
11
-59.8512572266335
21
19.1130396392814
31
0.00000000000000
  0
LINE
  5
F10250
330
F10251
100
AcDbEntity
8
Geo
100
AcDbLine
10
-59.8512572266335
20
19.1130396392814
30
0.00000000000000
11
-59.8495905599668
21
19.1161636858050
31
0.00000000000000
  0
LINE
  5
F10252
330
F10253
100
AcDbEntity
8
Geo
100
AcDbLine
10
-59.8495905599668
20
19.1161636858050
30
0.00000000000000
11
-59.8479238933002
21
19.1202849626112
31
0.00000000000000
  0
LINE
  5
F10254
330
F10255
100
AcDbEntity
8
Geo
100
AcDbLine
10
-59.8479238933002
20
19.1202849626112
30
0.00000000000000
11
-59.8462572266335
21
19.1256062592556
31
0.00000000000000
  0
LINE
  5
F10256
330
F10257
100
AcDbEntity
8
Geo
100
AcDbLine
10
-59.8462572266335
20
19.1256062592556
30
0.00000000000000
11
-59.8445905599668
21
19.1323547399855
31
0.00000000000000
  0
LINE
  5
F10258
330
F10259
100
AcDbEntity
8
Geo
100
AcDbLine
10
-59.8445905599668
20
19.1323547399855
30
0.00000000000000
11
-59.8429238933002
21
19.1407743126246
31
0.00000000000000
  0
LINE
  5
F1025A
330
F1025B
100
AcDbEntity
8
Geo
100
AcDbLine
10
-59.8429238933002
20
19.1407743126246
30
0.00000000000000
11
-59.8412572266335
21
19.1511080388303
31
0.00000000000000
  0
LINE
  5
F1025C
330
F1025D
100
AcDbEntity
8
Geo
100
AcDbLine
10
-59.8412572266335
20
19.1511080388303
30
0.00000000000000
11
-59.8395905599668
21
19.1635630939116
31
0.00000000000000
  0
LINE
  5
F1025E
330
F1025F
100
AcDbEntity
8
Geo
100
AcDbLine
10
-59.8395905599668
20
19.1635630939116
30
0.00000000000000
11
-59.8379238933002
21
19.1782461605322
31
0.00000000000000
  0
LINE
  5
F10260
330
F10261
100
AcDbEntity
8
Geo
100
AcDbLine
10
-59.8379238933002
20
19.1782461605322
30
0.00000000000000
11
-59.8362572266335
21
19.1950505830358
31
0.00000000000000
  0
LINE
  5
F10262
330
F10263
100
AcDbEntity
8
Geo
100
AcDbLine
10
-59.8362572266335
20
19.1950505830358
30
0.00000000000000
11
-59.8345905599668
21
19.2134686499139
31
0.00000000000000
  0
LINE
  5
F10264
330
F10265
100
AcDbEntity
8
Geo
100
AcDbLine
10
-59.8345905599668
20
19.2134686499139
30
0.00000000000000
11
-59.8329238933002
21
19.2322962264327
31
0.00000000000000
  0
LINE
  5
F10266
330
F10267
100
AcDbEntity
8
Geo
100
AcDbLine
10
-59.8329238933002
20
19.2322962264327
30
0.00000000000000
11
-59.8312572266335
21
19.2492026895995
31
0.00000000000000
  0
LINE
  5
F10268
330
F10269
100
AcDbEntity
8
Geo
100
AcDbLine
10
-59.8312572266335
20
19.2492026895995
30
0.00000000000000
11
-59.8312572266335
21
19.2527833827245
31
0.00000000000000
  0
LINE
  5
F1026A
330
F1026B
100
AcDbEntity
8
Geo
100
AcDbLine
10
-59.8312572266335
20
19.2527833827245
30
0.00000000000000
11
-59.8329238933002
21
19.2597886182452
31
0.00000000000000
  0
LINE
  5
F1026C
330
F1026D
100
AcDbEntity
8
Geo
100
AcDbLine
10
-59.8329238933002
20
19.2597886182452
30
0.00000000000000
11
-59.8344297867271
21
19.2616240965206
31
0.00000000000000
  0
LINE
  5
F1026E
330
F1026F
100
AcDbEntity
8
Geo
100
AcDbLine
10
-59.8344297867271
20
18.8616240965206
30
0.00000000000000
11
-59.8345905599668
21
18.8616449228859
31
0.00000000000000
  0
LINE
  5
F10270
330
F10271
100
AcDbEntity
8
Geo
100
AcDbLine
10
-59.8345905599668
20
18.8616449228859
30
0.00000000000000
11
-59.8362572266335
21
18.8639438278518
31
0.00000000000000
  0
LINE
  5
F10272
330
F10273
100
AcDbEntity
8
Geo
100
AcDbLine
10
-59.8362572266335
20
18.8639438278518
30
0.00000000000000
11
-59.8379238933002
21
18.8693738403166
31
0.00000000000000
  0
LINE
  5
F10274
330
F10275
100
AcDbEntity
8
Geo
100
AcDbLine
10
-59.8379238933002
20
18.8693738403166
30
0.00000000000000
11
-59.8395905599668
21
18.8770790583236
31
0.00000000000000
  0
LINE
  5
F10276
330
F10277
100
AcDbEntity
8
Geo
100
AcDbLine
10
-59.8395905599668
20
18.8770790583236
30
0.00000000000000
11
-59.8412572266335
21
18.8863402682968
31
0.00000000000000
  0
LINE
  5
F10278
330
F10279
100
AcDbEntity
8
Geo
100
AcDbLine
10
-59.8412572266335
20
18.8863402682968
30
0.00000000000000
11
-59.8429238933002
21
18.8965712889975
31
0.00000000000000
  0
LINE
  5
F1027A
330
F1027B
100
AcDbEntity
8
Geo
100
AcDbLine
10
-59.8429238933002
20
18.8965712889975
30
0.00000000000000
11
-59.8445905599668
21
18.9073074373973
31
0.00000000000000
  0
LINE
  5
F1027C
330
F1027D
100
AcDbEntity
8
Geo
100
AcDbLine
10
-59.8445905599668
20
18.9073074373973
30
0.00000000000000
11
-59.8462572266335
21
18.9181902264436
31
0.00000000000000
  0
LINE
  5
F1027E
330
F1027F
100
AcDbEntity
8
Geo
100
AcDbLine
10
-59.8462572266335
20
18.9181902264436
30
0.00000000000000
11
-59.8479238933002
21
18.9289509809292
31
0.00000000000000
  0
LINE
  5
F10280
330
F10281
100
AcDbEntity
8
Geo
100
AcDbLine
10
-59.8479238933002
20
18.9289509809292
30
0.00000000000000
11
-59.8495905599668
21
18.9393950046594
31
0.00000000000000
  0
LINE
  5
F10282
330
F10283
100
AcDbEntity
8
Geo
100
AcDbLine
10
-59.8495905599668
20
18.9393950046594
30
0.00000000000000
11
-59.8512572266335
21
18.9493871933708
31
0.00000000000000
  0
LINE
  5
F10284
330
F10285
100
AcDbEntity
8
Geo
100
AcDbLine
10
-59.8512572266335
20
18.9493871933708
30
0.00000000000000
11
-59.8529238933002
21
18.9588394954200
31
0.00000000000000
  0
LINE
  5
F10286
330
F10287
100
AcDbEntity
8
Geo
100
AcDbLine
10
-59.8529238933002
20
18.9588394954200
30
0.00000000000000
11
-59.8545905599668
21
18.9677003120604
31
0.00000000000000
  0
LINE
  5
F10288
330
F10289
100
AcDbEntity
8
Geo
100
AcDbLine
10
-59.8545905599668
20
18.9677003120604
30
0.00000000000000
11
-59.8562572266335
21
18.9759457474917
31
0.00000000000000
  0
LINE
  5
F1028A
330
F1028B
100
AcDbEntity
8
Geo
100
AcDbLine
10
-59.8562572266335
20
18.9759457474917
30
0.00000000000000
11
-59.8579238933002
21
18.9835725240022
31
0.00000000000000
  0
LINE
  5
F1028C
330
F1028D
100
AcDbEntity
8
Geo
100
AcDbLine
10
-59.8579238933002
20
18.9835725240022
30
0.00000000000000
11
-59.8595905599668
21
18.9905923385383
31
0.00000000000000
  0
LINE
  5
F1028E
330
F1028F
100
AcDbEntity
8
Geo
100
AcDbLine
10
-59.8595905599668
20
18.9905923385383
30
0.00000000000000
11
-59.8612572266335
21
18.9970274320852
31
0.00000000000000
  0
LINE
  5
F10290
330
F10291
100
AcDbEntity
8
Geo
100
AcDbLine
10
-59.8612572266335
20
18.9970274320852
30
0.00000000000000
11
-59.8629238933002
21
19.0029071574746
31
0.00000000000000
  0
LINE
  5
F10292
330
F10293
100
AcDbEntity
8
Geo
100
AcDbLine
10
-59.8629238933002
20
19.0029071574746
30
0.00000000000000
11
-59.8645905599668
21
19.0082653549186
31
0.00000000000000
  0
LINE
  5
F10294
330
F10295
100
AcDbEntity
8
Geo
100
AcDbLine
10
-59.8645905599668
20
19.0082653549186
30
0.00000000000000
11
-59.8662572266335
21
19.0131383716520
31
0.00000000000000
  0
LINE
  5
F10296
330
F10297
100
AcDbEntity
8
Geo
100
AcDbLine
10
-59.8662572266335
20
19.0131383716520
30
0.00000000000000
11
-59.8679238933002
21
19.0175635889554
31
0.00000000000000
  0
LINE
  5
F10298
330
F10299
100
AcDbEntity
8
Geo
100
AcDbLine
10
-59.8679238933002
20
19.0175635889554
30
0.00000000000000
11
-59.8695905599668
21
19.0215783445939
31
0.00000000000000
  0
LINE
  5
F1029A
330
F1029B
100
AcDbEntity
8
Geo
100
AcDbLine
10
-59.8695905599668
20
19.0215783445939
30
0.00000000000000
11
-59.8712572266335
21
19.0252191604654
31
0.00000000000000
  0
LINE
  5
F1029C
330
F1029D
100
AcDbEntity
8
Geo
100
AcDbLine
10
-59.8712572266335
20
19.0252191604654
30
0.00000000000000
11
-59.8729238933002
21
19.0285212037376
31
0.00000000000000
  0
LINE
  5
F1029E
330
F1029F
100
AcDbEntity
8
Geo
100
AcDbLine
10
-59.8729238933002
20
19.0285212037376
30
0.00000000000000
11
-59.8745905599668
21
19.0315179250919
31
0.00000000000000
  0
LINE
  5
F102A0
330
F102A1
100
AcDbEntity
8
Geo
100
AcDbLine
10
-59.8745905599668
20
19.0315179250919
30
0.00000000000000
11
-59.8762572266335
21
19.0342408301762
31
0.00000000000000
  0
LINE
  5
F102A2
330
F102A3
100
AcDbEntity
8
Geo
100
AcDbLine
10
-59.8762572266335
20
19.0342408301762
30
0.00000000000000
11
-59.8779238933002
21
19.0367193503752
31
0.00000000000000
  0
LINE
  5
F102A4
330
F102A5
100
AcDbEntity
8
Geo
100
AcDbLine
10
-59.8779238933002
20
19.0367193503752
30
0.00000000000000
11
-59.8795905599668
21
19.0389807869277
31
0.00000000000000
  0
LINE
  5
F102A6
330
F102A7
100
AcDbEntity
8
Geo
100
AcDbLine
10
-59.8795905599668
20
19.0389807869277
30
0.00000000000000
11
-59.8812572266335
21
19.0410503086230
31
0.00000000000000
  0
LINE
  5
F102A8
330
F102A9
100
AcDbEntity
8
Geo
100
AcDbLine
10
-59.8812572266335
20
19.0410503086230
30
0.00000000000000
11
-59.8829238933002
21
19.0429509881194
31
0.00000000000000
  0
LINE
  5
F102AA
330
F102AB
100
AcDbEntity
8
Geo
100
AcDbLine
10
-59.8829238933002
20
19.0429509881194
30
0.00000000000000
11
-59.8845905599668
21
19.0447038656274
31
0.00000000000000
  0
LINE
  5
F102AC
330
F102AD
100
AcDbEntity
8
Geo
100
AcDbLine
10
-59.8845905599668
20
19.0447038656274
30
0.00000000000000
11
-59.8862572266335
21
19.0463280315309
31
0.00000000000000
  0
LINE
  5
F102AE
330
F102AF
100
AcDbEntity
8
Geo
100
AcDbLine
10
-59.8862572266335
20
19.0463280315309
30
0.00000000000000
11
-59.8879238933002
21
19.0478407216591
31
0.00000000000000
  0
LINE
  5
F102B0
330
F102B1
100
AcDbEntity
8
Geo
100
AcDbLine
10
-59.8879238933002
20
19.0478407216591
30
0.00000000000000
11
-59.8895905599668
21
19.0492574205432
31
0.00000000000000
  0
LINE
  5
F102B2
330
F102B3
100
AcDbEntity
8
Geo
100
AcDbLine
10
-59.8895905599668
20
19.0492574205432
30
0.00000000000000
11
-59.8912572266335
21
19.0505919692037
31
0.00000000000000
  0
LINE
  5
F102B4
330
F102B5
100
AcDbEntity
8
Geo
100
AcDbLine
10
-59.8912572266335
20
19.0505919692037
30
0.00000000000000
11
-59.8929238933002
21
19.0518566749192
31
0.00000000000000
  0
LINE
  5
F102B6
330
F102B7
100
AcDbEntity
8
Geo
100
AcDbLine
10
-59.8929238933002
20
19.0518566749192
30
0.00000000000000
11
-59.8945905599668
21
19.0530624211036
31
0.00000000000000
  0
LINE
  5
F102B8
330
F102B9
100
AcDbEntity
8
Geo
100
AcDbLine
10
-59.8945905599668
20
19.0530624211036
30
0.00000000000000
11
-59.8962572266335
21
19.0542187759135
31
0.00000000000000
  0
LINE
  5
F102BA
330
F102BB
100
AcDbEntity
8
Geo
100
AcDbLine
10
-59.8962572266335
20
19.0542187759135
30
0.00000000000000
11
-59.8979238933002
21
19.0553340985802
31
0.00000000000000
  0
LINE
  5
F102BC
330
F102BD
100
AcDbEntity
8
Geo
100
AcDbLine
10
-59.8979238933002
20
19.0553340985802
30
0.00000000000000
11
-59.8995905599668
21
19.0564156427258
31
0.00000000000000
  0
LINE
  5
F102BE
330
F102BF
100
AcDbEntity
8
Geo
100
AcDbLine
10
-59.8995905599668
20
19.0564156427258
30
0.00000000000000
11
-59.9012572266335
21
19.0574696561283
31
0.00000000000000
  0
LINE
  5
F102C0
330
F102C1
100
AcDbEntity
8
Geo
100
AcDbLine
10
-59.9012572266335
20
19.0574696561283
30
0.00000000000000
11
-59.9029238933002
21
19.0585014765383
31
0.00000000000000
  0
LINE
  5
F102C2
330
F102C3
100
AcDbEntity
8
Geo
100
AcDbLine
10
-59.9029238933002
20
19.0585014765383
30
0.00000000000000
11
-59.9045905599668
21
19.0595156232615
31
0.00000000000000
  0
LINE
  5
F102C4
330
F102C5
100
AcDbEntity
8
Geo
100
AcDbLine
10
-59.9045905599668
20
19.0595156232615
30
0.00000000000000
11
-59.9062572266335
21
19.0605158842951
31
0.00000000000000
  0
LINE
  5
F102C6
330
F102C7
100
AcDbEntity
8
Geo
100
AcDbLine
10
-59.9062572266335
20
19.0605158842951
30
0.00000000000000
11
-59.9079238933002
21
19.0615053988617
31
0.00000000000000
  0
LINE
  5
F102C8
330
F102C9
100
AcDbEntity
8
Geo
100
AcDbLine
10
-59.9079238933002
20
19.0615053988617
30
0.00000000000000
11
-59.9095905599668
21
19.0624867352268
31
0.00000000000000
  0
LINE
  5
F102CA
330
F102CB
100
AcDbEntity
8
Geo
100
AcDbLine
10
-59.9095905599668
20
19.0624867352268
30
0.00000000000000
11
-59.9112572266335
21
19.0634619637107
31
0.00000000000000
  0
LINE
  5
F102CC
330
F102CD
100
AcDbEntity
8
Geo
100
AcDbLine
10
-59.9112572266335
20
19.0634619637107
30
0.00000000000000
11
-59.9129238933002
21
19.0644327248303
31
0.00000000000000
  0
LINE
  5
F102CE
330
F102CF
100
AcDbEntity
8
Geo
100
AcDbLine
10
-59.9129238933002
20
19.0644327248303
30
0.00000000000000
11
-59.9145905599668
21
19.0654002925201
31
0.00000000000000
  0
LINE
  5
F102D0
330
F102D1
100
AcDbEntity
8
Geo
100
AcDbLine
10
-59.9145905599668
20
19.0654002925201
30
0.00000000000000
11
-59.9162572266335
21
19.0663656323893
31
0.00000000000000
  0
LINE
  5
F102D2
330
F102D3
100
AcDbEntity
8
Geo
100
AcDbLine
10
-59.9162572266335
20
19.0663656323893
30
0.00000000000000
11
-59.9179238933002
21
19.0673294549864
31
0.00000000000000
  0
LINE
  5
F102D4
330
F102D5
100
AcDbEntity
8
Geo
100
AcDbLine
10
-59.9179238933002
20
19.0673294549864
30
0.00000000000000
11
-59.9195905599668
21
19.0682922640414
31
0.00000000000000
  0
LINE
  5
F102D6
330
F102D7
100
AcDbEntity
8
Geo
100
AcDbLine
10
-59.9195905599668
20
19.0682922640414
30
0.00000000000000
11
-59.9212572266335
21
19.0692543996675
31
0.00000000000000
  0
LINE
  5
F102D8
330
F102D9
100
AcDbEntity
8
Geo
100
AcDbLine
10
-59.9212572266335
20
19.0692543996675
30
0.00000000000000
11
-59.9229238933002
21
19.0702160765027
31
0.00000000000000
  0
LINE
  5
F102DA
330
F102DB
100
AcDbEntity
8
Geo
100
AcDbLine
10
-59.9229238933002
20
19.0702160765027
30
0.00000000000000
11
-59.9245905599668
21
19.0711774167794
31
0.00000000000000
  0
LINE
  5
F102DC
330
F102DD
100
AcDbEntity
8
Geo
100
AcDbLine
10
-59.9245905599668
20
19.0711774167794
30
0.00000000000000
11
-59.9262572266335
21
19.0721384783111
31
0.00000000000000
  0
LINE
  5
F102DE
330
F102DF
100
AcDbEntity
8
Geo
100
AcDbLine
10
-59.9262572266335
20
19.0721384783111
30
0.00000000000000
11
-59.9279238933002
21
19.0730992773909
31
0.00000000000000
  0
LINE
  5
F102E0
330
F102E1
100
AcDbEntity
8
Geo
100
AcDbLine
10
-59.9279238933002
20
19.0730992773909
30
0.00000000000000
11
-59.9295905599668
21
19.0740598065958
31
0.00000000000000
  0
LINE
  5
F102E2
330
F102E3
100
AcDbEntity
8
Geo
100
AcDbLine
10
-59.9295905599668
20
19.0740598065958
30
0.00000000000000
11
-59.9312572266335
21
19.0750200475004
31
0.00000000000000
  0
LINE
  5
F102E4
330
F102E5
100
AcDbEntity
8
Geo
100
AcDbLine
10
-60.3312572266335
20
19.2070634246497
30
0.00000000000000
11
-60.3311300126280
21
19.2080596586757
31
0.00000000000000
  0
LINE
  5
F102E6
330
F102E7
100
AcDbEntity
8
Geo
100
AcDbLine
10
-60.3311300126280
20
19.2080596586757
30
0.00000000000000
11
-60.3295905599668
21
19.2201153683898
31
0.00000000000000
  0
LINE
  5
F102E8
330
F102E9
100
AcDbEntity
8
Geo
100
AcDbLine
10
-60.3295905599668
20
19.2201153683898
30
0.00000000000000
11
-60.3279238933002
21
19.2252734992757
31
0.00000000000000
  0
LINE
  5
F102EA
330
F102EB
100
AcDbEntity
8
Geo
100
AcDbLine
10
-60.3279238933002
20
19.2252734992757
30
0.00000000000000
11
-60.3262572266335
21
19.2290876207648
31
0.00000000000000
  0
LINE
  5
F102EC
330
F102ED
100
AcDbEntity
8
Geo
100
AcDbLine
10
-60.3262572266335
20
19.2290876207648
30
0.00000000000000
11
-60.3245905599668
21
19.2321865263384
31
0.00000000000000
  0
LINE
  5
F102EE
330
F102EF
100
AcDbEntity
8
Geo
100
AcDbLine
10
-60.3245905599668
20
19.2321865263384
30
0.00000000000000
11
-60.3229238933002
21
19.2348152687748
31
0.00000000000000
  0
LINE
  5
F102F0
330
F102F1
100
AcDbEntity
8
Geo
100
AcDbLine
10
-60.3229238933002
20
19.2348152687748
30
0.00000000000000
11
-60.3212572266335
21
19.2371001615451
31
0.00000000000000
  0
LINE
  5
F102F2
330
F102F3
100
AcDbEntity
8
Geo
100
AcDbLine
10
-60.3212572266335
20
19.2371001615451
30
0.00000000000000
11
-60.3195905599668
21
19.2391165499282
31
0.00000000000000
  0
LINE
  5
F102F4
330
F102F5
100
AcDbEntity
8
Geo
100
AcDbLine
10
-60.3195905599668
20
19.2391165499282
30
0.00000000000000
11
-60.3179238933002
21
19.2409136813188
31
0.00000000000000
  0
LINE
  5
F102F6
330
F102F7
100
AcDbEntity
8
Geo
100
AcDbLine
10
-60.3179238933002
20
19.2409136813188
30
0.00000000000000
11
-60.3162572266335
21
19.2425258368719
31
0.00000000000000
  0
LINE
  5
F102F8
330
F102F9
100
AcDbEntity
8
Geo
100
AcDbLine
10
-60.3162572266335
20
19.2425258368719
30
0.00000000000000
11
-60.3145905599668
21
19.2439780025008
31
0.00000000000000
  0
LINE
  5
F102FA
330
F102FB
100
AcDbEntity
8
Geo
100
AcDbLine
10
-60.3145905599668
20
19.2439780025008
30
0.00000000000000
11
-60.3129238933002
21
19.2452890367775
31
0.00000000000000
  0
LINE
  5
F102FC
330
F102FD
100
AcDbEntity
8
Geo
100
AcDbLine
10
-60.3129238933002
20
19.2452890367775
30
0.00000000000000
11
-60.3112572266335
21
19.2464735675158
31
0.00000000000000
  0
LINE
  5
F102FE
330
F102FF
100
AcDbEntity
8
Geo
100
AcDbLine
10
-60.3112572266335
20
19.2464735675158
30
0.00000000000000
11
-60.3095905599668
21
19.2475431903838
31
0.00000000000000
  0
LINE
  5
F10300
330
F10301
100
AcDbEntity
8
Geo
100
AcDbLine
10
-60.3095905599668
20
19.2475431903838
30
0.00000000000000
11
-60.3079238933002
21
19.2485072600732
31
0.00000000000000
  0
LINE
  5
F10302
330
F10303
100
AcDbEntity
8
Geo
100
AcDbLine
10
-60.3079238933002
20
19.2485072600732
30
0.00000000000000
11
-60.3062572266335
21
19.2493734314915
31
0.00000000000000
  0
LINE
  5
F10304
330
F10305
100
AcDbEntity
8
Geo
100
AcDbLine
10
-60.3062572266335
20
19.2493734314915
30
0.00000000000000
11
-60.3045905599668
21
19.2501480411266
31
0.00000000000000
  0
LINE
  5
F10306
330
F10307
100
AcDbEntity
8
Geo
100
AcDbLine
10
-60.3045905599668
20
19.2501480411266
30
0.00000000000000
11
-60.3029238933002
21
19.2508363825992
31
0.00000000000000
  0
LINE
  5
F10308
330
F10309
100
AcDbEntity
8
Geo
100
AcDbLine
10
-60.3029238933002
20
19.2508363825992
30
0.00000000000000
11
-60.3012572266335
21
19.2514429100339
31
0.00000000000000
  0
LINE
  5
F1030A
330
F1030B
100
AcDbEntity
8
Geo
100
AcDbLine
10
-60.3012572266335
20
19.2514429100339
30
0.00000000000000
11
-60.2995905599668
21
19.2519713908886
31
0.00000000000000
  0
LINE
  5
F1030C
330
F1030D
100
AcDbEntity
8
Geo
100
AcDbLine
10
-60.2995905599668
20
19.2519713908886
30
0.00000000000000
11
-60.2979238933002
21
19.2524250225649
31
0.00000000000000
  0
LINE
  5
F1030E
330
F1030F
100
AcDbEntity
8
Geo
100
AcDbLine
10
-60.2979238933002
20
19.2524250225649
30
0.00000000000000
11
-60.2962572266335
21
19.2528065225182
31
0.00000000000000
  0
LINE
  5
F10310
330
F10311
100
AcDbEntity
8
Geo
100
AcDbLine
10
-60.2962572266335
20
19.2528065225182
30
0.00000000000000
11
-60.2945905599668
21
19.2531181986009
31
0.00000000000000
  0
LINE
  5
F10312
330
F10313
100
AcDbEntity
8
Geo
100
AcDbLine
10
-60.2945905599668
20
19.2531181986009
30
0.00000000000000
11
-60.2929238933002
21
19.2533620043937
31
0.00000000000000
  0
LINE
  5
F10314
330
F10315
100
AcDbEntity
8
Geo
100
AcDbLine
10
-60.2929238933002
20
19.2533620043937
30
0.00000000000000
11
-60.2912572266335
21
19.2535395829348
31
0.00000000000000
  0
LINE
  5
F10316
330
F10317
100
AcDbEntity
8
Geo
100
AcDbLine
10
-60.2912572266335
20
19.2535395829348
30
0.00000000000000
11
-60.2895905599668
21
19.2536523013227
31
0.00000000000000
  0
LINE
  5
F10318
330
F10319
100
AcDbEntity
8
Geo
100
AcDbLine
10
-60.2895905599668
20
19.2536523013227
30
0.00000000000000
11
-60.2879238933002
21
19.2537012780078
31
0.00000000000000
  0
LINE
  5
F1031A
330
F1031B
100
AcDbEntity
8
Geo
100
AcDbLine
10
-60.2879238933002
20
19.2537012780078
30
0.00000000000000
11
-60.2862572266335
21
19.2536874041116
31
0.00000000000000
  0
LINE
  5
F1031C
330
F1031D
100
AcDbEntity
8
Geo
100
AcDbLine
10
-60.2862572266335
20
19.2536874041116
30
0.00000000000000
11
-60.2845905599668
21
19.2536113597563
31
0.00000000000000
  0
LINE
  5
F1031E
330
F1031F
100
AcDbEntity
8
Geo
100
AcDbLine
10
-60.2845905599668
20
19.2536113597563
30
0.00000000000000
11
-60.2829238933002
21
19.2534736261222
31
0.00000000000000
  0
LINE
  5
F10320
330
F10321
100
AcDbEntity
8
Geo
100
AcDbLine
10
-60.2829238933002
20
19.2534736261222
30
0.00000000000000
11
-60.2812572266335
21
19.2532744937415
31
0.00000000000000
  0
LINE
  5
F10322
330
F10323
100
AcDbEntity
8
Geo
100
AcDbLine
10
-60.2812572266335
20
19.2532744937415
30
0.00000000000000
11
-60.2795905599668
21
19.2530424949668
31
0.00000000000000
  0
LINE
  5
F10324
330
F10325
100
AcDbEntity
8
Geo
100
AcDbLine
10
-60.2795905599668
20
19.2530424949668
30
0.00000000000000
11
-60.2779238933002
21
19.2528060652192
31
0.00000000000000
  0
LINE
  5
F10326
330
F10327
100
AcDbEntity
8
Geo
100
AcDbLine
10
-60.2779238933002
20
19.2528060652192
30
0.00000000000000
11
-60.2762572266335
21
19.2525652099716
31
0.00000000000000
  0
LINE
  5
F10328
330
F10329
100
AcDbEntity
8
Geo
100
AcDbLine
10
-60.2762572266335
20
19.2525652099716
30
0.00000000000000
11
-60.2745905599668
21
19.2523199347993
31
0.00000000000000
  0
LINE
  5
F1032A
330
F1032B
100
AcDbEntity
8
Geo
100
AcDbLine
10
-60.2745905599668
20
19.2523199347993
30
0.00000000000000
11
-60.2729238933002
21
19.2520702453801
31
0.00000000000000
  0
LINE
  5
F1032C
330
F1032D
100
AcDbEntity
8
Geo
100
AcDbLine
10
-60.2729238933002
20
19.2520702453801
30
0.00000000000000
11
-60.2712572266335
21
19.2518161474937
31
0.00000000000000
  0
LINE
  5
F1032E
330
F1032F
100
AcDbEntity
8
Geo
100
AcDbLine
10
-60.2712572266335
20
19.2518161474937
30
0.00000000000000
11
-60.2695905599668
21
19.2515576470220
31
0.00000000000000
  0
LINE
  5
F10330
330
F10331
100
AcDbEntity
8
Geo
100
AcDbLine
10
-60.2695905599668
20
19.2515576470220
30
0.00000000000000
11
-60.2679238933002
21
19.2512947499488
31
0.00000000000000
  0
LINE
  5
F10332
330
F10333
100
AcDbEntity
8
Geo
100
AcDbLine
10
-60.2679238933002
20
19.2512947499488
30
0.00000000000000
11
-60.2662572266335
21
19.2510274623597
31
0.00000000000000
  0
LINE
  5
F10334
330
F10335
100
AcDbEntity
8
Geo
100
AcDbLine
10
-60.2662572266335
20
19.2510274623597
30
0.00000000000000
11
-60.2645905599668
21
19.2507557904419
31
0.00000000000000
  0
LINE
  5
F10336
330
F10337
100
AcDbEntity
8
Geo
100
AcDbLine
10
-60.2645905599668
20
19.2507557904419
30
0.00000000000000
11
-60.2629238933002
21
19.2504797404840
31
0.00000000000000
  0
LINE
  5
F10338
330
F10339
100
AcDbEntity
8
Geo
100
AcDbLine
10
-60.2629238933002
20
19.2504797404840
30
0.00000000000000
11
-60.2612572266335
21
19.2501993188762
31
0.00000000000000
  0
LINE
  5
F1033A
330
F1033B
100
AcDbEntity
8
Geo
100
AcDbLine
10
-60.2612572266335
20
19.2501993188762
30
0.00000000000000
11
-60.2595905599668
21
19.2499145321096
31
0.00000000000000
  0
LINE
  5
F1033C
330
F1033D
100
AcDbEntity
8
Geo
100
AcDbLine
10
-60.2595905599668
20
19.2499145321096
30
0.00000000000000
11
-60.2579238933002
21
19.2496253867765
31
0.00000000000000
  0
LINE
  5
F1033E
330
F1033F
100
AcDbEntity
8
Geo
100
AcDbLine
10
-60.2579238933002
20
19.2496253867765
30
0.00000000000000
11
-60.2562572266335
21
19.2493318895701
31
0.00000000000000
  0
LINE
  5
F10340
330
F10341
100
AcDbEntity
8
Geo
100
AcDbLine
10
-60.2562572266335
20
19.2493318895701
30
0.00000000000000
11
-60.2545905599668
21
19.2490340472843
31
0.00000000000000
  0
LINE
  5
F10342
330
F10343
100
AcDbEntity
8
Geo
100
AcDbLine
10
-60.2545905599668
20
19.2490340472843
30
0.00000000000000
11
-60.2529238933002
21
19.2487318668135
31
0.00000000000000
  0
LINE
  5
F10344
330
F10345
100
AcDbEntity
8
Geo
100
AcDbLine
10
-60.2529238933002
20
19.2487318668135
30
0.00000000000000
11
-60.2512572266335
21
19.2484253551527
31
0.00000000000000
  0
LINE
  5
F10346
330
F10347
100
AcDbEntity
8
Geo
100
AcDbLine
10
-60.2512572266335
20
19.2484253551527
30
0.00000000000000
11
-60.2495905599668
21
19.2481145193971
31
0.00000000000000
  0
LINE
  5
F10348
330
F10349
100
AcDbEntity
8
Geo
100
AcDbLine
10
-60.2495905599668
20
19.2481145193971
30
0.00000000000000
11
-60.2479238933002
21
19.2477993667418
31
0.00000000000000
  0
LINE
  5
F1034A
330
F1034B
100
AcDbEntity
8
Geo
100
AcDbLine
10
-60.2479238933002
20
19.2477993667418
30
0.00000000000000
11
-60.2462572266335
21
19.2474799044821
31
0.00000000000000
  0
LINE
  5
F1034C
330
F1034D
100
AcDbEntity
8
Geo
100
AcDbLine
10
-60.2462572266335
20
19.2474799044821
30
0.00000000000000
11
-60.2445905599668
21
19.2471561400129
31
0.00000000000000
  0
LINE
  5
F1034E
330
F1034F
100
AcDbEntity
8
Geo
100
AcDbLine
10
-60.2445905599668
20
19.2471561400129
30
0.00000000000000
11
-60.2429238933002
21
19.2468280808288
31
0.00000000000000
  0
LINE
  5
F10350
330
F10351
100
AcDbEntity
8
Geo
100
AcDbLine
10
-60.2429238933002
20
19.2468280808288
30
0.00000000000000
11
-60.2412572266335
21
19.2464957345237
31
0.00000000000000
  0
LINE
  5
F10352
330
F10353
100
AcDbEntity
8
Geo
100
AcDbLine
10
-60.2412572266335
20
19.2464957345237
30
0.00000000000000
11
-60.2395905599668
21
19.2461591087908
31
0.00000000000000
  0
LINE
  5
F10354
330
F10355
100
AcDbEntity
8
Geo
100
AcDbLine
10
-60.2395905599668
20
19.2461591087908
30
0.00000000000000
11
-60.2379238933002
21
19.2458182114223
31
0.00000000000000
  0
LINE
  5
F10356
330
F10357
100
AcDbEntity
8
Geo
100
AcDbLine
10
-60.2379238933002
20
19.2458182114223
30
0.00000000000000
11
-60.2362572266335
21
19.2454730503094
31
0.00000000000000
  0
LINE
  5
F10358
330
F10359
100
AcDbEntity
8
Geo
100
AcDbLine
10
-60.2362572266335
20
19.2454730503094
30
0.00000000000000
11
-60.2345905599668
21
19.2451236334418
31
0.00000000000000
  0
LINE
  5
F1035A
330
F1035B
100
AcDbEntity
8
Geo
100
AcDbLine
10
-60.2345905599668
20
19.2451236334418
30
0.00000000000000
11
-60.2329238933002
21
19.2447699689080
31
0.00000000000000
  0
LINE
  5
F1035C
330
F1035D
100
AcDbEntity
8
Geo
100
AcDbLine
10
-60.2329238933002
20
19.2447699689080
30
0.00000000000000
11
-60.2312572266335
21
19.2444120648946
31
0.00000000000000
  0
LINE
  5
F1035E
330
F1035F
100
AcDbEntity
8
Geo
100
AcDbLine
10
-60.2312572266335
20
19.2444120648946
30
0.00000000000000
11
-60.2295905599668
21
19.2440499296864
31
0.00000000000000
  0
LINE
  5
F10360
330
F10361
100
AcDbEntity
8
Geo
100
AcDbLine
10
-60.2295905599668
20
19.2440499296864
30
0.00000000000000
11
-60.2279238933002
21
19.2436835716661
31
0.00000000000000
  0
LINE
  5
F10362
330
F10363
100
AcDbEntity
8
Geo
100
AcDbLine
10
-60.2279238933002
20
19.2436835716661
30
0.00000000000000
11
-60.2262572266335
21
19.2433129993143
31
0.00000000000000
  0
LINE
  5
F10364
330
F10365
100
AcDbEntity
8
Geo
100
AcDbLine
10
-60.2262572266335
20
19.2433129993143
30
0.00000000000000
11
-60.2245905599668
21
19.2429382212089
31
0.00000000000000
  0
LINE
  5
F10366
330
F10367
100
AcDbEntity
8
Geo
100
AcDbLine
10
-60.2245905599668
20
19.2429382212089
30
0.00000000000000
11
-60.2229238933002
21
19.2425592460254
31
0.00000000000000
  0
LINE
  5
F10368
330
F10369
100
AcDbEntity
8
Geo
100
AcDbLine
10
-60.2229238933002
20
19.2425592460254
30
0.00000000000000
11
-60.2212572266335
21
19.2421760825363
31
0.00000000000000
  0
LINE
  5
F1036A
330
F1036B
100
AcDbEntity
8
Geo
100
AcDbLine
10
-60.2212572266335
20
19.2421760825363
30
0.00000000000000
11
-60.2195905599668
21
19.2417887396111
31
0.00000000000000
  0
LINE
  5
F1036C
330
F1036D
100
AcDbEntity
8
Geo
100
AcDbLine
10
-60.2195905599668
20
19.2417887396111
30
0.00000000000000
11
-60.2179238933002
21
19.2413972262162
31
0.00000000000000
  0
LINE
  5
F1036E
330
F1036F
100
AcDbEntity
8
Geo
100
AcDbLine
10
-60.2179238933002
20
19.2413972262162
30
0.00000000000000
11
-60.2162572266335
21
19.2410015514143
31
0.00000000000000
  0
LINE
  5
F10370
330
F10371
100
AcDbEntity
8
Geo
100
AcDbLine
10
-60.2162572266335
20
19.2410015514143
30
0.00000000000000
11
-60.2145905599668
21
19.2406017243644
31
0.00000000000000
  0
LINE
  5
F10372
330
F10373
100
AcDbEntity
8
Geo
100
AcDbLine
10
-60.2145905599668
20
19.2406017243644
30
0.00000000000000
11
-60.2129238933002
21
19.2401977543219
31
0.00000000000000
  0
LINE
  5
F10374
330
F10375
100
AcDbEntity
8
Geo
100
AcDbLine
10
-60.2129238933002
20
19.2401977543219
30
0.00000000000000
11
-60.2112572266335
21
19.2397896506379
31
0.00000000000000
  0
LINE
  5
F10376
330
F10377
100
AcDbEntity
8
Geo
100
AcDbLine
10
-60.2112572266335
20
19.2397896506379
30
0.00000000000000
11
-60.2095905599668
21
19.2393774227592
31
0.00000000000000
  0
LINE
  5
F10378
330
F10379
100
AcDbEntity
8
Geo
100
AcDbLine
10
-60.2095905599668
20
19.2393774227592
30
0.00000000000000
11
-60.2079238933002
21
19.2389610802281
31
0.00000000000000
  0
LINE
  5
F1037A
330
F1037B
100
AcDbEntity
8
Geo
100
AcDbLine
10
-60.2079238933002
20
19.2389610802281
30
0.00000000000000
11
-60.2062572266335
21
19.2385406326822
31
0.00000000000000
  0
LINE
  5
F1037C
330
F1037D
100
AcDbEntity
8
Geo
100
AcDbLine
10
-60.2062572266335
20
19.2385406326822
30
0.00000000000000
11
-60.2045905599668
21
19.2381160898540
31
0.00000000000000
  0
LINE
  5
F1037E
330
F1037F
100
AcDbEntity
8
Geo
100
AcDbLine
10
-60.2045905599668
20
19.2381160898540
30
0.00000000000000
11
-60.2029238933002
21
19.2376874615708
31
0.00000000000000
  0
LINE
  5
F10380
330
F10381
100
AcDbEntity
8
Geo
100
AcDbLine
10
-60.2029238933002
20
19.2376874615708
30
0.00000000000000
11
-60.2012572266335
21
19.2372547577547
31
0.00000000000000
  0
LINE
  5
F10382
330
F10383
100
AcDbEntity
8
Geo
100
AcDbLine
10
-60.2012572266335
20
19.2372547577547
30
0.00000000000000
11
-60.1995905599668
21
19.2368179884218
31
0.00000000000000
  0
LINE
  5
F10384
330
F10385
100
AcDbEntity
8
Geo
100
AcDbLine
10
-60.1995905599668
20
19.2368179884218
30
0.00000000000000
11
-60.1979238933002
21
19.2363771636826
31
0.00000000000000
  0
LINE
  5
F10386
330
F10387
100
AcDbEntity
8
Geo
100
AcDbLine
10
-60.1979238933002
20
19.2363771636826
30
0.00000000000000
11
-60.1962572266335
21
19.2359322937413
31
0.00000000000000
  0
LINE
  5
F10388
330
F10389
100
AcDbEntity
8
Geo
100
AcDbLine
10
-60.1962572266335
20
19.2359322937413
30
0.00000000000000
11
-60.1945905599668
21
19.2354833888958
31
0.00000000000000
  0
LINE
  5
F1038A
330
F1038B
100
AcDbEntity
8
Geo
100
AcDbLine
10
-60.1945905599668
20
19.2354833888958
30
0.00000000000000
11
-60.1929238933002
21
19.2350304595374
31
0.00000000000000
  0
LINE
  5
F1038C
330
F1038D
100
AcDbEntity
8
Geo
100
AcDbLine
10
-60.1929238933002
20
19.2350304595374
30
0.00000000000000
11
-60.1912572266335
21
19.2345735161506
31
0.00000000000000
  0
LINE
  5
F1038E
330
F1038F
100
AcDbEntity
8
Geo
100
AcDbLine
10
-60.1912572266335
20
19.2345735161506
30
0.00000000000000
11
-60.1895905599668
21
19.2341125693127
31
0.00000000000000
  0
LINE
  5
F10390
330
F10391
100
AcDbEntity
8
Geo
100
AcDbLine
10
-60.1895905599668
20
19.2341125693127
30
0.00000000000000
11
-60.1879238933002
21
19.2336476296938
31
0.00000000000000
  0
LINE
  5
F10392
330
F10393
100
AcDbEntity
8
Geo
100
AcDbLine
10
-60.1879238933002
20
19.2336476296938
30
0.00000000000000
11
-60.1862572266335
21
19.2331787080563
31
0.00000000000000
  0
LINE
  5
F10394
330
F10395
100
AcDbEntity
8
Geo
100
AcDbLine
10
-60.1862572266335
20
19.2331787080563
30
0.00000000000000
11
-60.1845905599668
21
19.2327058152550
31
0.00000000000000
  0
LINE
  5
F10396
330
F10397
100
AcDbEntity
8
Geo
100
AcDbLine
10
-60.1845905599668
20
19.2327058152550
30
0.00000000000000
11
-60.1829238933002
21
19.2322289622363
31
0.00000000000000
  0
LINE
  5
F10398
330
F10399
100
AcDbEntity
8
Geo
100
AcDbLine
10
-60.1829238933002
20
19.2322289622363
30
0.00000000000000
11
-60.1812572266335
21
19.2317481600385
31
0.00000000000000
  0
LINE
  5
F1039A
330
F1039B
100
AcDbEntity
8
Geo
100
AcDbLine
10
-60.1812572266335
20
19.2317481600385
30
0.00000000000000
11
-60.1795905599668
21
19.2312634197913
31
0.00000000000000
  0
LINE
  5
F1039C
330
F1039D
100
AcDbEntity
8
Geo
100
AcDbLine
10
-60.1795905599668
20
19.2312634197913
30
0.00000000000000
11
-60.1779238933002
21
19.2307747527155
31
0.00000000000000
  0
LINE
  5
F1039E
330
F1039F
100
AcDbEntity
8
Geo
100
AcDbLine
10
-60.1779238933002
20
19.2307747527155
30
0.00000000000000
11
-60.1762572266335
21
19.2302821701228
31
0.00000000000000
  0
LINE
  5
F103A0
330
F103A1
100
AcDbEntity
8
Geo
100
AcDbLine
10
-60.1762572266335
20
19.2302821701228
30
0.00000000000000
11
-60.1745905599668
21
19.2297856834155
31
0.00000000000000
  0
LINE
  5
F103A2
330
F103A3
100
AcDbEntity
8
Geo
100
AcDbLine
10
-60.1745905599668
20
19.2297856834155
30
0.00000000000000
11
-60.1729238933002
21
19.2292853040864
31
0.00000000000000
  0
LINE
  5
F103A4
330
F103A5
100
AcDbEntity
8
Geo
100
AcDbLine
10
-60.1729238933002
20
19.2292853040864
30
0.00000000000000
11
-60.1712572266335
21
19.2287810437184
31
0.00000000000000
  0
LINE
  5
F103A6
330
F103A7
100
AcDbEntity
8
Geo
100
AcDbLine
10
-60.1712572266335
20
19.2287810437184
30
0.00000000000000
11
-60.1695905599668
21
19.2282729139840
31
0.00000000000000
  0
LINE
  5
F103A8
330
F103A9
100
AcDbEntity
8
Geo
100
AcDbLine
10
-60.1695905599668
20
19.2282729139840
30
0.00000000000000
11
-60.1679238933002
21
19.2277609266456
31
0.00000000000000
  0
LINE
  5
F103AA
330
F103AB
100
AcDbEntity
8
Geo
100
AcDbLine
10
-60.1679238933002
20
19.2277609266456
30
0.00000000000000
11
-60.1662572266335
21
19.2272450935546
31
0.00000000000000
  0
LINE
  5
F103AC
330
F103AD
100
AcDbEntity
8
Geo
100
AcDbLine
10
-60.1662572266335
20
19.2272450935546
30
0.00000000000000
11
-60.1645905599668
21
19.2267254266516
31
0.00000000000000
  0
LINE
  5
F103AE
330
F103AF
100
AcDbEntity
8
Geo
100
AcDbLine
10
-60.1645905599668
20
19.2267254266516
30
0.00000000000000
11
-60.1629238933002
21
19.2262019379660
31
0.00000000000000
  0
LINE
  5
F103B0
330
F103B1
100
AcDbEntity
8
Geo
100
AcDbLine
10
-60.1629238933002
20
19.2262019379660
30
0.00000000000000
11
-60.1612572266335
21
19.2256746396154
31
0.00000000000000
  0
LINE
  5
F103B2
330
F103B3
100
AcDbEntity
8
Geo
100
AcDbLine
10
-60.1612572266335
20
19.2256746396154
30
0.00000000000000
11
-60.1595905599668
21
19.2251435438059
31
0.00000000000000
  0
LINE
  5
F103B4
330
F103B5
100
AcDbEntity
8
Geo
100
AcDbLine
10
-60.1595905599668
20
19.2251435438059
30
0.00000000000000
11
-60.1579238933002
21
19.2246086628313
31
0.00000000000000
  0
LINE
  5
F103B6
330
F103B7
100
AcDbEntity
8
Geo
100
AcDbLine
10
-60.1579238933002
20
19.2246086628313
30
0.00000000000000
11
-60.1562572266335
21
19.2240700090731
31
0.00000000000000
  0
LINE
  5
F103B8
330
F103B9
100
AcDbEntity
8
Geo
100
AcDbLine
10
-60.1562572266335
20
19.2240700090731
30
0.00000000000000
11
-60.1545905599668
21
19.2235275950001
31
0.00000000000000
  0
LINE
  5
F103BA
330
F103BB
100
AcDbEntity
8
Geo
100
AcDbLine
10
-60.1545905599668
20
19.2235275950001
30
0.00000000000000
11
-60.1529238933002
21
19.2229814331682
31
0.00000000000000
  0
LINE
  5
F103BC
330
F103BD
100
AcDbEntity
8
Geo
100
AcDbLine
10
-60.1529238933002
20
19.2229814331682
30
0.00000000000000
11
-60.1512572266335
21
19.2224315362200
31
0.00000000000000
  0
LINE
  5
F103BE
330
F103BF
100
AcDbEntity
8
Geo
100
AcDbLine
10
-60.1512572266335
20
19.2224315362200
30
0.00000000000000
11
-60.1495905599668
21
19.2218779168844
31
0.00000000000000
  0
LINE
  5
F103C0
330
F103C1
100
AcDbEntity
8
Geo
100
AcDbLine
10
-60.1495905599668
20
19.2218779168844
30
0.00000000000000
11
-60.1479238933002
21
19.2213205879769
31
0.00000000000000
  0
LINE
  5
F103C2
330
F103C3
100
AcDbEntity
8
Geo
100
AcDbLine
10
-60.1479238933002
20
19.2213205879769
30
0.00000000000000
11
-60.1462572266335
21
19.2207595623984
31
0.00000000000000
  0
LINE
  5
F103C4
330
F103C5
100
AcDbEntity
8
Geo
100
AcDbLine
10
-60.1462572266335
20
19.2207595623984
30
0.00000000000000
11
-60.1445905599668
21
19.2201948531358
31
0.00000000000000
  0
LINE
  5
F103C6
330
F103C7
100
AcDbEntity
8
Geo
100
AcDbLine
10
-60.1445905599668
20
19.2201948531358
30
0.00000000000000
11
-60.1429238933002
21
19.2196264732608
31
0.00000000000000
  0
LINE
  5
F103C8
330
F103C9
100
AcDbEntity
8
Geo
100
AcDbLine
10
-60.1429238933002
20
19.2196264732608
30
0.00000000000000
11
-60.1412572266335
21
19.2190544359305
31
0.00000000000000
  0
LINE
  5
F103CA
330
F103CB
100
AcDbEntity
8
Geo
100
AcDbLine
10
-60.1412572266335
20
19.2190544359305
30
0.00000000000000
11
-60.1395905599668
21
19.2184787543863
31
0.00000000000000
  0
LINE
  5
F103CC
330
F103CD
100
AcDbEntity
8
Geo
100
AcDbLine
10
-60.1395905599668
20
19.2184787543863
30
0.00000000000000
11
-60.1379238933002
21
19.2178994419543
31
0.00000000000000
  0
LINE
  5
F103CE
330
F103CF
100
AcDbEntity
8
Geo
100
AcDbLine
10
-60.1379238933002
20
19.2178994419543
30
0.00000000000000
11
-60.1362572266335
21
19.2173165120445
31
0.00000000000000
  0
LINE
  5
F103D0
330
F103D1
100
AcDbEntity
8
Geo
100
AcDbLine
10
-60.1362572266335
20
19.2173165120445
30
0.00000000000000
11
-60.1345905599668
21
19.2167299781505
31
0.00000000000000
  0
LINE
  5
F103D2
330
F103D3
100
AcDbEntity
8
Geo
100
AcDbLine
10
-60.1345905599668
20
19.2167299781505
30
0.00000000000000
11
-60.1329238933002
21
19.2161398538495
31
0.00000000000000
  0
LINE
  5
F103D4
330
F103D5
100
AcDbEntity
8
Geo
100
AcDbLine
10
-60.1329238933002
20
19.2161398538495
30
0.00000000000000
11
-60.1312572266335
21
19.2155461528017
31
0.00000000000000
  0
LINE
  5
F103D6
330
F103D7
100
AcDbEntity
8
Geo
100
AcDbLine
10
-60.1312572266335
20
19.2155461528017
30
0.00000000000000
11
-60.1295905599668
21
19.2149488887503
31
0.00000000000000
  0
LINE
  5
F103D8
330
F103D9
100
AcDbEntity
8
Geo
100
AcDbLine
10
-60.1295905599668
20
19.2149488887503
30
0.00000000000000
11
-60.1279238933002
21
19.2143480755207
31
0.00000000000000
  0
LINE
  5
F103DA
330
F103DB
100
AcDbEntity
8
Geo
100
AcDbLine
10
-60.1279238933002
20
19.2143480755207
30
0.00000000000000
11
-60.1262572266335
21
19.2137437270207
31
0.00000000000000
  0
LINE
  5
F103DC
330
F103DD
100
AcDbEntity
8
Geo
100
AcDbLine
10
-60.1262572266335
20
19.2137437270207
30
0.00000000000000
11
-60.1245905599668
21
19.2131358572397
31
0.00000000000000
  0
LINE
  5
F103DE
330
F103DF
100
AcDbEntity
8
Geo
100
AcDbLine
10
-60.1245905599668
20
19.2131358572397
30
0.00000000000000
11
-60.1229238933002
21
19.2125244802487
31
0.00000000000000
  0
LINE
  5
F103E0
330
F103E1
100
AcDbEntity
8
Geo
100
AcDbLine
10
-60.1229238933002
20
19.2125244802487
30
0.00000000000000
11
-60.1212572266335
21
19.2119096102001
31
0.00000000000000
  0
LINE
  5
F103E2
330
F103E3
100
AcDbEntity
8
Geo
100
AcDbLine
10
-60.1212572266335
20
19.2119096102001
30
0.00000000000000
11
-60.1195905599668
21
19.2112912613268
31
0.00000000000000
  0
LINE
  5
F103E4
330
F103E5
100
AcDbEntity
8
Geo
100
AcDbLine
10
-60.1195905599668
20
19.2112912613268
30
0.00000000000000
11
-60.1179238933002
21
19.2106694479426
31
0.00000000000000
  0
LINE
  5
F103E6
330
F103E7
100
AcDbEntity
8
Geo
100
AcDbLine
10
-60.1179238933002
20
19.2106694479426
30
0.00000000000000
11
-60.1162572266335
21
19.2100441844411
31
0.00000000000000
  0
LINE
  5
F103E8
330
F103E9
100
AcDbEntity
8
Geo
100
AcDbLine
10
-60.1162572266335
20
19.2100441844411
30
0.00000000000000
11
-60.1145905599668
21
19.2094154852960
31
0.00000000000000
  0
LINE
  5
F103EA
330
F103EB
100
AcDbEntity
8
Geo
100
AcDbLine
10
-60.1145905599668
20
19.2094154852960
30
0.00000000000000
11
-60.1129238933002
21
19.2087833650606
31
0.00000000000000
  0
LINE
  5
F103EC
330
F103ED
100
AcDbEntity
8
Geo
100
AcDbLine
10
-60.1129238933002
20
19.2087833650606
30
0.00000000000000
11
-60.1112572266335
21
19.2081478383672
31
0.00000000000000
  0
LINE
  5
F103EE
330
F103EF
100
AcDbEntity
8
Geo
100
AcDbLine
10
-60.1112572266335
20
19.2081478383672
30
0.00000000000000
11
-60.1095905599668
21
19.2075089199271
31
0.00000000000000
  0
LINE
  5
F103F0
330
F103F1
100
AcDbEntity
8
Geo
100
AcDbLine
10
-60.1095905599668
20
19.2075089199271
30
0.00000000000000
11
-60.1079238933002
21
19.2068666245299
31
0.00000000000000
  0
LINE
  5
F103F2
330
F103F3
100
AcDbEntity
8
Geo
100
AcDbLine
10
-60.1079238933002
20
19.2068666245299
30
0.00000000000000
11
-60.1062572266335
21
19.2062209670437
31
0.00000000000000
  0
LINE
  5
F103F4
330
F103F5
100
AcDbEntity
8
Geo
100
AcDbLine
10
-60.1062572266335
20
19.2062209670437
30
0.00000000000000
11
-60.1045905599668
21
19.2055719624142
31
0.00000000000000
  0
LINE
  5
F103F6
330
F103F7
100
AcDbEntity
8
Geo
100
AcDbLine
10
-60.1045905599668
20
19.2055719624142
30
0.00000000000000
11
-60.1029238933002
21
19.2049196256646
31
0.00000000000000
  0
LINE
  5
F103F8
330
F103F9
100
AcDbEntity
8
Geo
100
AcDbLine
10
-60.1029238933002
20
19.2049196256646
30
0.00000000000000
11
-60.1012572266335
21
19.2042639718953
31
0.00000000000000
  0
LINE
  5
F103FA
330
F103FB
100
AcDbEntity
8
Geo
100
AcDbLine
10
-60.1012572266335
20
19.2042639718953
30
0.00000000000000
11
-60.0995905599668
21
19.2036050162833
31
0.00000000000000
  0
LINE
  5
F103FC
330
F103FD
100
AcDbEntity
8
Geo
100
AcDbLine
10
-60.0995905599668
20
19.2036050162833
30
0.00000000000000
11
-60.0979238933002
21
19.2029427740823
31
0.00000000000000
  0
LINE
  5
F103FE
330
F103FF
100
AcDbEntity
8
Geo
100
AcDbLine
10
-60.0979238933002
20
19.2029427740823
30
0.00000000000000
11
-60.0962572266335
21
19.2022772606220
31
0.00000000000000
  0
LINE
  5
F10400
330
F10401
100
AcDbEntity
8
Geo
100
AcDbLine
10
-60.0962572266335
20
19.2022772606220
30
0.00000000000000
11
-60.0945905599668
21
19.2016084913076
31
0.00000000000000
  0
LINE
  5
F10402
330
F10403
100
AcDbEntity
8
Geo
100
AcDbLine
10
-60.0945905599668
20
19.2016084913076
30
0.00000000000000
11
-60.0929238933002
21
19.2009364816200
31
0.00000000000000
  0
LINE
  5
F10404
330
F10405
100
AcDbEntity
8
Geo
100
AcDbLine
10
-60.0929238933002
20
19.2009364816200
30
0.00000000000000
11
-60.0912572266335
21
19.2002612471149
31
0.00000000000000
  0
LINE
  5
F10406
330
F10407
100
AcDbEntity
8
Geo
100
AcDbLine
10
-60.0912572266335
20
19.2002612471149
30
0.00000000000000
11
-60.0895905599668
21
19.1995828034227
31
0.00000000000000
  0
LINE
  5
F10408
330
F10409
100
AcDbEntity
8
Geo
100
AcDbLine
10
-60.0895905599668
20
19.1995828034227
30
0.00000000000000
11
-60.0879238933002
21
19.1989011662480
31
0.00000000000000
  0
LINE
  5
F1040A
330
F1040B
100
AcDbEntity
8
Geo
100
AcDbLine
10
-60.0879238933002
20
19.1989011662480
30
0.00000000000000
11
-60.0862572266335
21
19.1982163513695
31
0.00000000000000
  0
LINE
  5
F1040C
330
F1040D
100
AcDbEntity
8
Geo
100
AcDbLine
10
-60.0862572266335
20
19.1982163513695
30
0.00000000000000
11
-60.0845905599668
21
19.1975283746394
31
0.00000000000000
  0
LINE
  5
F1040E
330
F1040F
100
AcDbEntity
8
Geo
100
AcDbLine
10
-60.0845905599668
20
19.1975283746394
30
0.00000000000000
11
-60.0829238933002
21
19.1968372519830
31
0.00000000000000
  0
LINE
  5
F10410
330
F10411
100
AcDbEntity
8
Geo
100
AcDbLine
10
-60.0829238933002
20
19.1968372519830
30
0.00000000000000
11
-60.0812572266335
21
19.1961429993985
31
0.00000000000000
  0
LINE
  5
F10412
330
F10413
100
AcDbEntity
8
Geo
100
AcDbLine
10
-60.0812572266335
20
19.1961429993985
30
0.00000000000000
11
-60.0795905599668
21
19.1954456329564
31
0.00000000000000
  0
LINE
  5
F10414
330
F10415
100
AcDbEntity
8
Geo
100
AcDbLine
10
-60.0795905599668
20
19.1954456329564
30
0.00000000000000
11
-60.0779238933002
21
19.1947451687996
31
0.00000000000000
  0
LINE
  5
F10416
330
F10417
100
AcDbEntity
8
Geo
100
AcDbLine
10
-60.0779238933002
20
19.1947451687996
30
0.00000000000000
11
-60.0762572266335
21
19.1940416231425
31
0.00000000000000
  0
LINE
  5
F10418
330
F10419
100
AcDbEntity
8
Geo
100
AcDbLine
10
-60.0762572266335
20
19.1940416231425
30
0.00000000000000
11
-60.0745905599668
21
19.1933350122707
31
0.00000000000000
  0
LINE
  5
F1041A
330
F1041B
100
AcDbEntity
8
Geo
100
AcDbLine
10
-60.0745905599668
20
19.1933350122707
30
0.00000000000000
11
-60.0729238933002
21
19.1926253525410
31
0.00000000000000
  0
LINE
  5
F1041C
330
F1041D
100
AcDbEntity
8
Geo
100
AcDbLine
10
-60.0729238933002
20
19.1926253525410
30
0.00000000000000
11
-60.0712572266335
21
19.1919126603807
31
0.00000000000000
  0
LINE
  5
F1041E
330
F1041F
100
AcDbEntity
8
Geo
100
AcDbLine
10
-60.0712572266335
20
19.1919126603807
30
0.00000000000000
11
-60.0695905599668
21
19.1911969522873
31
0.00000000000000
  0
LINE
  5
F10420
330
F10421
100
AcDbEntity
8
Geo
100
AcDbLine
10
-60.0695905599668
20
19.1911969522873
30
0.00000000000000
11
-60.0679238933002
21
19.1904782448279
31
0.00000000000000
  0
LINE
  5
F10422
330
F10423
100
AcDbEntity
8
Geo
100
AcDbLine
10
-60.0679238933002
20
19.1904782448279
30
0.00000000000000
11
-60.0662572266335
21
19.1897565546394
31
0.00000000000000
  0
LINE
  5
F10424
330
F10425
100
AcDbEntity
8
Geo
100
AcDbLine
10
-60.0662572266335
20
19.1897565546394
30
0.00000000000000
11
-60.0645905599668
21
19.1890318984275
31
0.00000000000000
  0
LINE
  5
F10426
330
F10427
100
AcDbEntity
8
Geo
100
AcDbLine
10
-60.0645905599668
20
19.1890318984275
30
0.00000000000000
11
-60.0629238933002
21
19.1883042929666
31
0.00000000000000
  0
LINE
  5
F10428
330
F10429
100
AcDbEntity
8
Geo
100
AcDbLine
10
-60.0629238933002
20
19.1883042929666
30
0.00000000000000
11
-60.0612572266335
21
19.1875737550994
31
0.00000000000000
  0
LINE
  5
F1042A
330
F1042B
100
AcDbEntity
8
Geo
100
AcDbLine
10
-60.0612572266335
20
19.1875737550994
30
0.00000000000000
11
-60.0595905599668
21
19.1868403017365
31
0.00000000000000
  0
LINE
  5
F1042C
330
F1042D
100
AcDbEntity
8
Geo
100
AcDbLine
10
-60.0595905599668
20
19.1868403017365
30
0.00000000000000
11
-60.0579238933002
21
19.1861039498559
31
0.00000000000000
  0
LINE
  5
F1042E
330
F1042F
100
AcDbEntity
8
Geo
100
AcDbLine
10
-60.0579238933002
20
19.1861039498559
30
0.00000000000000
11
-60.0562572266335
21
19.1853647165028
31
0.00000000000000
  0
LINE
  5
F10430
330
F10431
100
AcDbEntity
8
Geo
100
AcDbLine
10
-60.0562572266335
20
19.1853647165028
30
0.00000000000000
11
-60.0545905599668
21
19.1846226187890
31
0.00000000000000
  0
LINE
  5
F10432
330
F10433
100
AcDbEntity
8
Geo
100
AcDbLine
10
-60.0545905599668
20
19.1846226187890
30
0.00000000000000
11
-60.0529238933002
21
19.1838776738926
31
0.00000000000000
  0
LINE
  5
F10434
330
F10435
100
AcDbEntity
8
Geo
100
AcDbLine
10
-60.0529238933002
20
19.1838776738926
30
0.00000000000000
11
-60.0512572266335
21
19.1831298990579
31
0.00000000000000
  0
LINE
  5
F10436
330
F10437
100
AcDbEntity
8
Geo
100
AcDbLine
10
-60.0512572266335
20
19.1831298990579
30
0.00000000000000
11
-60.0495905599668
21
19.1823793115942
31
0.00000000000000
  0
LINE
  5
F10438
330
F10439
100
AcDbEntity
8
Geo
100
AcDbLine
10
-60.0495905599668
20
19.1823793115942
30
0.00000000000000
11
-60.0479238933002
21
19.1816259288763
31
0.00000000000000
  0
LINE
  5
F1043A
330
F1043B
100
AcDbEntity
8
Geo
100
AcDbLine
10
-60.0479238933002
20
19.1816259288763
30
0.00000000000000
11
-60.0462572266335
21
19.1808697683435
31
0.00000000000000
  0
LINE
  5
F1043C
330
F1043D
100
AcDbEntity
8
Geo
100
AcDbLine
10
-60.0462572266335
20
19.1808697683435
30
0.00000000000000
11
-60.0445905599668
21
19.1801108474997
31
0.00000000000000
  0
LINE
  5
F1043E
330
F1043F
100
AcDbEntity
8
Geo
100
AcDbLine
10
-60.0445905599668
20
19.1801108474997
30
0.00000000000000
11
-60.0429238933002
21
19.1793491839122
31
0.00000000000000
  0
LINE
  5
F10440
330
F10441
100
AcDbEntity
8
Geo
100
AcDbLine
10
-60.0429238933002
20
19.1793491839122
30
0.00000000000000
11
-60.0412572266335
21
19.1785847952122
31
0.00000000000000
  0
LINE
  5
F10442
330
F10443
100
AcDbEntity
8
Geo
100
AcDbLine
10
-60.0412572266335
20
19.1785847952122
30
0.00000000000000
11
-60.0395905599668
21
19.1778176990939
31
0.00000000000000
  0
LINE
  5
F10444
330
F10445
100
AcDbEntity
8
Geo
100
AcDbLine
10
-60.0395905599668
20
19.1778176990939
30
0.00000000000000
11
-60.0379238933002
21
19.1770479133140
31
0.00000000000000
  0
LINE
  5
F10446
330
F10447
100
AcDbEntity
8
Geo
100
AcDbLine
10
-60.0379238933002
20
19.1770479133140
30
0.00000000000000
11
-60.0362572266335
21
19.1762754556917
31
0.00000000000000
  0
LINE
  5
F10448
330
F10449
100
AcDbEntity
8
Geo
100
AcDbLine
10
-60.0362572266335
20
19.1762754556917
30
0.00000000000000
11
-60.0345905599668
21
19.1755003441079
31
0.00000000000000
  0
LINE
  5
F1044A
330
F1044B
100
AcDbEntity
8
Geo
100
AcDbLine
10
-60.0345905599668
20
19.1755003441079
30
0.00000000000000
11
-60.0329238933002
21
19.1747225965049
31
0.00000000000000
  0
LINE
  5
F1044C
330
F1044D
100
AcDbEntity
8
Geo
100
AcDbLine
10
-60.0329238933002
20
19.1747225965049
30
0.00000000000000
11
-60.0312572266335
21
19.1739422308861
31
0.00000000000000
  0
LINE
  5
F1044E
330
F1044F
100
AcDbEntity
8
Geo
100
AcDbLine
10
-60.0312572266335
20
19.1739422308861
30
0.00000000000000
11
-60.0295905599668
21
19.1731592653155
31
0.00000000000000
  0
LINE
  5
F10450
330
F10451
100
AcDbEntity
8
Geo
100
AcDbLine
10
-60.0295905599668
20
19.1731592653155
30
0.00000000000000
11
-60.0279238933002
21
19.1723737179172
31
0.00000000000000
  0
LINE
  5
F10452
330
F10453
100
AcDbEntity
8
Geo
100
AcDbLine
10
-60.0279238933002
20
19.1723737179172
30
0.00000000000000
11
-60.0262572266335
21
19.1715856068753
31
0.00000000000000
  0
LINE
  5
F10454
330
F10455
100
AcDbEntity
8
Geo
100
AcDbLine
10
-60.0262572266335
20
19.1715856068753
30
0.00000000000000
11
-60.0245905599668
21
19.1707949504330
31
0.00000000000000
  0
LINE
  5
F10456
330
F10457
100
AcDbEntity
8
Geo
100
AcDbLine
10
-60.0245905599668
20
19.1707949504330
30
0.00000000000000
11
-60.0229238933002
21
19.1700017668924
31
0.00000000000000
  0
LINE
  5
F10458
330
F10459
100
AcDbEntity
8
Geo
100
AcDbLine
10
-60.0229238933002
20
19.1700017668924
30
0.00000000000000
11
-60.0212572266335
21
19.1692060746143
31
0.00000000000000
  0
LINE
  5
F1045A
330
F1045B
100
AcDbEntity
8
Geo
100
AcDbLine
10
-60.0212572266335
20
19.1692060746143
30
0.00000000000000
11
-60.0195905599668
21
19.1684078920174
31
0.00000000000000
  0
LINE
  5
F1045C
330
F1045D
100
AcDbEntity
8
Geo
100
AcDbLine
10
-60.0195905599668
20
19.1684078920174
30
0.00000000000000
11
-60.0179238933002
21
19.1676072375782
31
0.00000000000000
  0
LINE
  5
F1045E
330
F1045F
100
AcDbEntity
8
Geo
100
AcDbLine
10
-60.0179238933002
20
19.1676072375782
30
0.00000000000000
11
-60.0162572266335
21
19.1668041298303
31
0.00000000000000
  0
LINE
  5
F10460
330
F10461
100
AcDbEntity
8
Geo
100
AcDbLine
10
-60.0162572266335
20
19.1668041298303
30
0.00000000000000
11
-60.0145905599668
21
19.1659985873641
31
0.00000000000000
  0
LINE
  5
F10462
330
F10463
100
AcDbEntity
8
Geo
100
AcDbLine
10
-60.0145905599668
20
19.1659985873641
30
0.00000000000000
11
-60.0129238933002
21
19.1651906288263
31
0.00000000000000
  0
LINE
  5
F10464
330
F10465
100
AcDbEntity
8
Geo
100
AcDbLine
10
-60.0129238933002
20
19.1651906288263
30
0.00000000000000
11
-60.0112572266335
21
19.1643802729198
31
0.00000000000000
  0
LINE
  5
F10466
330
F10467
100
AcDbEntity
8
Geo
100
AcDbLine
10
-60.0112572266335
20
19.1643802729198
30
0.00000000000000
11
-60.0095905599668
21
19.1635675384026
31
0.00000000000000
  0
LINE
  5
F10468
330
F10469
100
AcDbEntity
8
Geo
100
AcDbLine
10
-60.0095905599668
20
19.1635675384026
30
0.00000000000000
11
-60.0079238933002
21
19.1627524440881
31
0.00000000000000
  0
LINE
  5
F1046A
330
F1046B
100
AcDbEntity
8
Geo
100
AcDbLine
10
-60.0079238933002
20
19.1627524440881
30
0.00000000000000
11
-60.0062572266335
21
19.1619350088442
31
0.00000000000000
  0
LINE
  5
F1046C
330
F1046D
100
AcDbEntity
8
Geo
100
AcDbLine
10
-60.0062572266335
20
19.1619350088442
30
0.00000000000000
11
-60.0045905599668
21
19.1611152515928
31
0.00000000000000
  0
LINE
  5
F1046E
330
F1046F
100
AcDbEntity
8
Geo
100
AcDbLine
10
-60.0045905599668
20
19.1611152515928
30
0.00000000000000
11
-60.0029238933002
21
19.1602931913099
31
0.00000000000000
  0
LINE
  5
F10470
330
F10471
100
AcDbEntity
8
Geo
100
AcDbLine
10
-60.0029238933002
20
19.1602931913099
30
0.00000000000000
11
-60.0012572266335
21
19.1594688470246
31
0.00000000000000
  0
LINE
  5
F10472
330
F10473
100
AcDbEntity
8
Geo
100
AcDbLine
10
-60.0012572266335
20
19.1594688470246
30
0.00000000000000
11
-59.9995905599668
21
19.1586422378189
31
0.00000000000000
  0
LINE
  5
F10474
330
F10475
100
AcDbEntity
8
Geo
100
AcDbLine
10
-59.9995905599668
20
19.1586422378189
30
0.00000000000000
11
-59.9979238933002
21
19.1578133828272
31
0.00000000000000
  0
LINE
  5
F10476
330
F10477
100
AcDbEntity
8
Geo
100
AcDbLine
10
-59.9979238933002
20
19.1578133828272
30
0.00000000000000
11
-59.9962572266335
21
19.1569823012359
31
0.00000000000000
  0
LINE
  5
F10478
330
F10479
100
AcDbEntity
8
Geo
100
AcDbLine
10
-59.9962572266335
20
19.1569823012359
30
0.00000000000000
11
-59.9945905599668
21
19.1561490122831
31
0.00000000000000
  0
LINE
  5
F1047A
330
F1047B
100
AcDbEntity
8
Geo
100
AcDbLine
10
-59.9945905599668
20
19.1561490122831
30
0.00000000000000
11
-59.9929238933002
21
19.1553135352577
31
0.00000000000000
  0
LINE
  5
F1047C
330
F1047D
100
AcDbEntity
8
Geo
100
AcDbLine
10
-59.9929238933002
20
19.1553135352577
30
0.00000000000000
11
-59.9912572266335
21
19.1544758894995
31
0.00000000000000
  0
LINE
  5
F1047E
330
F1047F
100
AcDbEntity
8
Geo
100
AcDbLine
10
-59.9912572266335
20
19.1544758894995
30
0.00000000000000
11
-59.9895905599668
21
19.1536360943984
31
0.00000000000000
  0
LINE
  5
F10480
330
F10481
100
AcDbEntity
8
Geo
100
AcDbLine
10
-59.9895905599668
20
19.1536360943984
30
0.00000000000000
11
-59.9879238933002
21
19.1527941693941
31
0.00000000000000
  0
LINE
  5
F10482
330
F10483
100
AcDbEntity
8
Geo
100
AcDbLine
10
-59.9879238933002
20
19.1527941693941
30
0.00000000000000
11
-59.9862572266335
21
19.1519501339754
31
0.00000000000000
  0
LINE
  5
F10484
330
F10485
100
AcDbEntity
8
Geo
100
AcDbLine
10
-59.9862572266335
20
19.1519501339754
30
0.00000000000000
11
-59.9845905599668
21
19.1511040076803
31
0.00000000000000
  0
LINE
  5
F10486
330
F10487
100
AcDbEntity
8
Geo
100
AcDbLine
10
-59.9845905599668
20
19.1511040076803
30
0.00000000000000
11
-59.9829238933002
21
19.1502558100949
31
0.00000000000000
  0
LINE
  5
F10488
330
F10489
100
AcDbEntity
8
Geo
100
AcDbLine
10
-59.9829238933002
20
19.1502558100949
30
0.00000000000000
11
-59.9812572266335
21
19.1494055608535
31
0.00000000000000
  0
LINE
  5
F1048A
330
F1048B
100
AcDbEntity
8
Geo
100
AcDbLine
10
-59.9812572266335
20
19.1494055608535
30
0.00000000000000
11
-59.9795905599668
21
19.1485532796377
31
0.00000000000000
  0
LINE
  5
F1048C
330
F1048D
100
AcDbEntity
8
Geo
100
AcDbLine
10
-59.9795905599668
20
19.1485532796377
30
0.00000000000000
11
-59.9779238933002
21
19.1476989861761
31
0.00000000000000
  0
LINE
  5
F1048E
330
F1048F
100
AcDbEntity
8
Geo
100
AcDbLine
10
-59.9779238933002
20
19.1476989861761
30
0.00000000000000
11
-59.9762572266335
21
19.1468427002440
31
0.00000000000000
  0
LINE
  5
F10490
330
F10491
100
AcDbEntity
8
Geo
100
AcDbLine
10
-59.9762572266335
20
19.1468427002440
30
0.00000000000000
11
-59.9745905599668
21
19.1459844416629
31
0.00000000000000
  0
LINE
  5
F10492
330
F10493
100
AcDbEntity
8
Geo
100
AcDbLine
10
-59.9745905599668
20
19.1459844416629
30
0.00000000000000
11
-59.9729238933002
21
19.1451242302998
31
0.00000000000000
  0
LINE
  5
F10494
330
F10495
100
AcDbEntity
8
Geo
100
AcDbLine
10
-59.9729238933002
20
19.1451242302998
30
0.00000000000000
11
-59.9712572266335
21
19.1442620860670
31
0.00000000000000
  0
LINE
  5
F10496
330
F10497
100
AcDbEntity
8
Geo
100
AcDbLine
10
-59.9712572266335
20
19.1442620860670
30
0.00000000000000
11
-59.9695905599668
21
19.1433980289214
31
0.00000000000000
  0
LINE
  5
F10498
330
F10499
100
AcDbEntity
8
Geo
100
AcDbLine
10
-59.9695905599668
20
19.1433980289214
30
0.00000000000000
11
-59.9679238933002
21
19.1425320788644
31
0.00000000000000
  0
LINE
  5
F1049A
330
F1049B
100
AcDbEntity
8
Geo
100
AcDbLine
10
-59.9679238933002
20
19.1425320788644
30
0.00000000000000
11
-59.9662572266335
21
19.1416642559411
31
0.00000000000000
  0
LINE
  5
F1049C
330
F1049D
100
AcDbEntity
8
Geo
100
AcDbLine
10
-59.9662572266335
20
19.1416642559411
30
0.00000000000000
11
-59.9645905599668
21
19.1407945802398
31
0.00000000000000
  0
LINE
  5
F1049E
330
F1049F
100
AcDbEntity
8
Geo
100
AcDbLine
10
-59.9645905599668
20
19.1407945802398
30
0.00000000000000
11
-59.9629238933002
21
19.1399230718920
31
0.00000000000000
  0
LINE
  5
F104A0
330
F104A1
100
AcDbEntity
8
Geo
100
AcDbLine
10
-59.9629238933002
20
19.1399230718920
30
0.00000000000000
11
-59.9612572266335
21
19.1390497510714
31
0.00000000000000
  0
LINE
  5
F104A2
330
F104A3
100
AcDbEntity
8
Geo
100
AcDbLine
10
-59.9612572266335
20
19.1390497510714
30
0.00000000000000
11
-59.9595905599668
21
19.1381746379937
31
0.00000000000000
  0
LINE
  5
F104A4
330
F104A5
100
AcDbEntity
8
Geo
100
AcDbLine
10
-59.9595905599668
20
19.1381746379937
30
0.00000000000000
11
-59.9579238933002
21
19.1372977529162
31
0.00000000000000
  0
LINE
  5
F104A6
330
F104A7
100
AcDbEntity
8
Geo
100
AcDbLine
10
-59.9579238933002
20
19.1372977529162
30
0.00000000000000
11
-59.9562572266335
21
19.1364191161371
31
0.00000000000000
  0
LINE
  5
F104A8
330
F104A9
100
AcDbEntity
8
Geo
100
AcDbLine
10
-59.9562572266335
20
19.1364191161371
30
0.00000000000000
11
-59.9545905599668
21
19.1355387479951
31
0.00000000000000
  0
LINE
  5
F104AA
330
F104AB
100
AcDbEntity
8
Geo
100
AcDbLine
10
-59.9545905599668
20
19.1355387479951
30
0.00000000000000
11
-59.9529238933002
21
19.1346566688691
31
0.00000000000000
  0
LINE
  5
F104AC
330
F104AD
100
AcDbEntity
8
Geo
100
AcDbLine
10
-59.9529238933002
20
19.1346566688691
30
0.00000000000000
11
-59.9512572266335
21
19.1337728991775
31
0.00000000000000
  0
LINE
  5
F104AE
330
F104AF
100
AcDbEntity
8
Geo
100
AcDbLine
10
-59.9512572266335
20
19.1337728991775
30
0.00000000000000
11
-59.9495905599668
21
19.1328874593780
31
0.00000000000000
  0
LINE
  5
F104B0
330
F104B1
100
AcDbEntity
8
Geo
100
AcDbLine
10
-59.9495905599668
20
19.1328874593780
30
0.00000000000000
11
-59.9479238933002
21
19.1320003699668
31
0.00000000000000
  0
LINE
  5
F104B2
330
F104B3
100
AcDbEntity
8
Geo
100
AcDbLine
10
-59.9479238933002
20
19.1320003699668
30
0.00000000000000
11
-59.9462572266335
21
19.1311116514783
31
0.00000000000000
  0
LINE
  5
F104B4
330
F104B5
100
AcDbEntity
8
Geo
100
AcDbLine
10
-59.9462572266335
20
19.1311116514783
30
0.00000000000000
11
-59.9445905599668
21
19.1302213244848
31
0.00000000000000
  0
LINE
  5
F104B6
330
F104B7
100
AcDbEntity
8
Geo
100
AcDbLine
10
-59.9445905599668
20
19.1302213244848
30
0.00000000000000
11
-59.9429238933002
21
19.1293294095955
31
0.00000000000000
  0
LINE
  5
F104B8
330
F104B9
100
AcDbEntity
8
Geo
100
AcDbLine
10
-59.9429238933002
20
19.1293294095955
30
0.00000000000000
11
-59.9412572266335
21
19.1284359274566
31
0.00000000000000
  0
LINE
  5
F104BA
330
F104BB
100
AcDbEntity
8
Geo
100
AcDbLine
10
-59.9412572266335
20
19.1284359274566
30
0.00000000000000
11
-59.9395905599668
21
19.1275408987505
31
0.00000000000000
  0
LINE
  5
F104BC
330
F104BD
100
AcDbEntity
8
Geo
100
AcDbLine
10
-59.9395905599668
20
19.1275408987505
30
0.00000000000000
11
-59.9379238933002
21
19.1266443441954
31
0.00000000000000
  0
LINE
  5
F104BE
330
F104BF
100
AcDbEntity
8
Geo
100
AcDbLine
10
-59.9379238933002
20
19.1266443441954
30
0.00000000000000
11
-59.9362572266335
21
19.1257462845450
31
0.00000000000000
  0
LINE
  5
F104C0
330
F104C1
100
AcDbEntity
8
Geo
100
AcDbLine
10
-59.9362572266335
20
19.1257462845450
30
0.00000000000000
11
-59.9345905599668
21
19.1248467405875
31
0.00000000000000
  0
LINE
  5
F104C2
330
F104C3
100
AcDbEntity
8
Geo
100
AcDbLine
10
-59.9345905599668
20
19.1248467405875
30
0.00000000000000
11
-59.9329238933002
21
19.1239457331457
31
0.00000000000000
  0
LINE
  5
F104C4
330
F104C5
100
AcDbEntity
8
Geo
100
AcDbLine
10
-59.9329238933002
20
19.1239457331457
30
0.00000000000000
11
-59.9312572266335
21
19.1230432830762
31
0.00000000000000
  0
LINE
  5
F104C6
330
F104C7
100
AcDbEntity
8
Geo
100
AcDbLine
10
-20.3312572266335
20
20.4616240965206
30
0.00000000000000
11
-20.3312572266335
21
19.0616240965206
31
0.00000000000000
  0
LINE
  5
F104C8
330
F104C9
100
AcDbEntity
8
Geo
100
AcDbLine
10
-60.3312572266335
20
19.0616240965206
30
0.00000000000000
11
-60.3312572266335
21
18.9116240965206
31
0.00000000000000
  0
ARC
  5
F104CA
330
F104CB
100
AcDbEntity
8
Geo
100
AcDbCircle
10
-60.2812572266335
20
18.9116240965206
30
0.00000000000000
 40
0.0500000000000007
100
AcDbArc
 50
180.000000000000
 51
270.000000000000
  0
LINE
  5
F104CC
330
F104CD
100
AcDbEntity
8
Geo
100
AcDbLine
10
-60.2812572266335
20
18.8616240965206
30
0.00000000000000
11
-59.9312572266335
21
18.8616240965206
31
0.00000000000000
  0
LINE
  5
F104CE
330
F104CF
100
AcDbEntity
8
Geo
100
AcDbLine
10
-59.9312572266335
20
18.8616240965206
30
0.00000000000000
11
-58.3309486802575
21
18.8616240965206
31
0.00000000000000
  0
LINE
  5
F104D0
330
F104D1
100
AcDbEntity
8
Geo
100
AcDbLine
10
-58.3309486802575
20
18.8616240965206
30
0.00000000000000
11
-51.6132572266335
21
17.0616240965206
31
0.00000000000000
  0
LINE
  5
F104D2
330
F104D3
100
AcDbEntity
8
Geo
100
AcDbLine
10
-51.6132572266335
20
17.0616240965206
30
0.00000000000000
11
-20.9312572266335
21
17.0616240965206
31
0.00000000000000
  0
LINE
  5
F104D4
330
F104D5
100
AcDbEntity
8
Geo
100
AcDbLine
10
-20.9312572266335
20
17.0616240965206
30
0.00000000000000
11
-20.3312572266335
21
17.6616240965206
31
0.00000000000000
  0
LINE
  5
F104D6
330
F104D7
100
AcDbEntity
8
Geo
100
AcDbLine
10
-60.2812572266335
20
19.2616240965206
30
0.00000000000000
11
-60.2812572266335
21
18.8616240965206
31
0.00000000000000
  0
LINE
  5
F104D8
330
F104D9
100
AcDbEntity
8
Geo
100
AcDbLine
10
-60.2812572266335
20
19.2616240965206
30
0.00000000000000
11
-60.2812572266335
21
18.8616240965206
31
0.00000000000000
  0
LINE
  5
F104DA
330
F104DB
100
AcDbEntity
8
Geo
100
AcDbLine
10
-59.9312572266335
20
19.2616240965206
30
0.00000000000000
11
-59.9312572266335
21
18.8616240965206
31
0.00000000000000
  0
LINE
  5
F104DC
330
F104DD
100
AcDbEntity
8
Geo
100
AcDbLine
10
-59.9312572266335
20
19.2616240965206
30
0.00000000000000
11
-59.9312572266335
21
18.8616240965206
31
0.00000000000000
  0
LINE
  5
F104DE
330
F104DF
100
AcDbEntity
8
Geo
100
AcDbLine
10
-58.3309486802575
20
19.2616240965206
30
0.00000000000000
11
-58.3309486802575
21
18.8616240965206
31
0.00000000000000
  0
LINE
  5
F104E0
330
F104E1
100
AcDbEntity
8
Geo
100
AcDbLine
10
-51.6132572266335
20
21.0616240965206
30
0.00000000000000
11
-51.6132572266335
21
17.0616240965206
31
0.00000000000000
  0
LINE
  5
F104E2
330
F104E3
100
AcDbEntity
8
Geo
100
AcDbLine
10
-51.6132572266335
20
21.0616240965206
30
0.00000000000000
11
-51.6132572266335
21
17.0616240965206
31
0.00000000000000
  0
LINE
  5
F104E4
330
F104E5
100
AcDbEntity
8
Geo
100
AcDbLine
10
-20.9312572266335
20
21.0616240965206
30
0.00000000000000
11
-20.9312572266335
21
17.0616240965206
31
0.00000000000000
  0
LINE
  5
F104E6
330
F104E7
100
AcDbEntity
8
Geo
100
AcDbLine
10
-20.3312572266335
20
20.4616240965206
30
0.00000000000000
11
-20.3312572266335
21
17.6616240965206
31
0.00000000000000
  0
LINE
  5
F104E8
330
F104E9
100
AcDbEntity
8
Geo
 6
Dashdot
100
AcDbLine
10
-60.3312572266335
20
19.0616240965206
30
0.00000000000000
11
-20.3312572266335
21
19.0616240965206
31
0.00000000000000
0
VIEWPORT
5
294
102
{ACAD_XDICTIONARY
360
58A
102
}
330
25D
100
AcDbEntity
67
1
8
0
60
1
100
AcDbViewport
10
0.0
20
0.0
30
0.0
40
10.0
41
10.0
68
-1
69
1
12
0.0
22
0.0
13
0.0
23
0.0
14
1.0
24
1.0
15
0.0
25
0.0
16
0.0
26
0.0
36
1.0
17
0.0
27
0.0
37
0.0
42
0.0
43
0.0
44
0.0
45
10.0
50
0.0
51
0.0000000000007958
72
100
90
32800
1

281
0
71
0
74
0
110
0.0
120
0.0
130
0.0
111
1.0
121
0.0
131
0.0
112
0.0
122
1.0
132
0.0
79
0
146
0.0
1001
VD_INVISIBLE_NOT_FOR_READ
1000
VD_INVISIBLE_NOT_FOR_READ
0
VIEWPORT
5
295
102
{ACAD_XDICTIONARY
360
58C
102
}
330
25D
100
AcDbEntity
67
1
8
0
60
1
100
AcDbViewport
10
0.0
20
0.0
30
0.0
40
10.0
41
10.0
68
0
69
2
12
0.0
22
0.0
13
0.0
23
0.0
14
1.0
24
1.0
15
0.0
25
0.0
16
0.0
26
0.0
36
1.0
17
0.0
27
0.0
37
0.0
42
0.0
43
0.0
44
0.0
45
10.0
50
0.0
51
0.0000000000007958
72
100
90
163872
1

281
0
71
0
74
0
110
0.0
120
0.0
130
0.0
111
1.0
121
0.0
131
0.0
112
0.0
122
1.0
132
0.0
79
0
146
0.0
1001
VD_INVISIBLE_NOT_FOR_READ
1000
VD_INVISIBLE_NOT_FOR_READ
0
ENDSEC
0
SECTION
2
OBJECTS
0
DICTIONARY
5
13
330
0
100
AcDbDictionary
281
1
3
ACAD_COLOR
350
FA7
3
ACAD_GROUP
350
14
3
ACAD_LAYOUT
350
FCF
3
ACAD_MATERIAL
350
F7A
3
ACAD_MLEADERSTYLE
350
FCD
3
ACAD_MLINESTYLE
350
16
3
ACAD_PLOTSETTINGS
350
17
3
ACAD_PLOTSTYLENAME
350
18
3
ACAD_SCALELIST
350
FAB
3
ACAD_TABLESTYLE
350
FA8
3
ACAD_VISUALSTYLE
350
F93
3
ACDB_RECOMPOSE_DATA
350
107E
3
AcDbVariableDictionary
350
FF0
3
DWGPROPS
350
107F
0
DICTIONARY
5
FA7
102
{ACAD_REACTORS
330
13
102
}
330
13
100
AcDbDictionary
281
1
0
DICTIONARY
5
14
330
13
100
AcDbDictionary
281
1
0
DICTIONARY
5
FCF
102
{ACAD_REACTORS
330
13
102
}
330
13
100
AcDbDictionary
281
1
3
Layout1
350
FD1
3
Model
350
FD0
0
DICTIONARY
5
F7A
102
{ACAD_REACTORS
330
13
102
}
330
13
100
AcDbDictionary
281
1
3
ByBlock
350
F83
3
ByLayer
350
F7B
3
Global
350
F8B
0
DICTIONARY
5
FCD
102
{ACAD_REACTORS
330
13
102
}
330
13
100
AcDbDictionary
281
1
3
Standard
350
FCE
0
DICTIONARY
5
16
330
13
100
AcDbDictionary
281
1
3
Standard
350
FAA
0
DICTIONARY
5
17
102
{ACAD_REACTORS
330
13
102
}
330
13
100
AcDbDictionary
281
1
0
ACDBDICTIONARYWDFLT
5
18
102
{ACAD_REACTORS
330
13
102
}
330
13
100
AcDbDictionary
281
1
3
Normal
350
19
100
AcDbDictionaryWithDefault
340
19
0
DICTIONARY
5
FAB
102
{ACAD_REACTORS
330
13
102
}
330
13
100
AcDbDictionary
281
1
3
A0
350
FAC
3
A1
350
FAD
3
A2
350
FAE
3
A3
350
FAF
3
A4
350
FB0
3
A5
350
FB1
3
A6
350
FB2
3
A7
350
FB3
3
A8
350
FB4
3
A9
350
FB5
3
B0
350
FB6
3
B1
350
FB7
3
B2
350
FB8
3
B3
350
FB9
3
B4
350
FBA
3
B5
350
FBB
3
B6
350
FBC
3
B7
350
FBD
3
B8
350
FBE
3
B9
350
FBF
3
C0
350
FC0
3
C1
350
FC1
3
C2
350
FC2
3
C3
350
FC3
3
C4
350
FC4
3
C5
350
FC5
3
C6
350
FC6
3
C7
350
FC7
3
C8
350
FC8
3
C9
350
FC9
3
D0
350
FCA
3
D1
350
FCB
3
D2
350
FCC
0
DICTIONARY
5
FA8
102
{ACAD_REACTORS
330
13
102
}
330
13
100
AcDbDictionary
281
1
3
Standard
350
FA9
0
DICTIONARY
5
F93
102
{ACAD_REACTORS
330
13
102
}
330
13
100
AcDbDictionary
281
1
3
2dWireframe
350
F99
3
3D Hidden
350
F9B
3
3dWireframe
350
F9A
3
Basic
350
F98
3
Brighten
350
F9F
3
ColorChange
350
FA3
3
Conceptual
350
F9C
3
Dim
350
F9E
3
EdgeColorOff
350
FA6
3
Facepattern
350
FA2
3
Flat
350
F94
3
FlatWithEdges
350
F95
3
Gouraud
350
F96
3
GouraudWithEdges
350
F97
3
JitterOff
350
FA4
3
Linepattern
350
FA1
3
OverhangOff
350
FA5
3
Realistic
350
F9D
3
Thicken
350
FA0
0
XRECORD
5
107E
102
{ACAD_REACTORS
330
13
102
}
330
13
100
AcDbXrecord
280
1
90
1
330
FA9
0
DICTIONARY
5
FF0
102
{ACAD_REACTORS
330
13
102
}
330
13
100
AcDbDictionary
281
1
3
CANNOSCALE
350
FF3
3
CMLEADERSTYLE
350
FF2
3
CTABLESTYLE
350
FF1
3
DIMASSOC
350
FF6
3
INDEXCTL
350
FF5
3
SORTENTS
350
FF4
3
XCLIPFRAME
350
1078
0
XRECORD
5
107F
102
{ACAD_REACTORS
330
13
102
}
330
13
100
AcDbXrecord
280
1
1
DWGPROPS COOKIE
2

3

4

6

7

8

9

300
=
301
=
302
=
303
=
304
=
305
=
306
=
307
=
308
=
309
=
40
0.0
41
0.0
42
0.0
1

90
0
0
LAYOUT
5
FD1
102
{ACAD_XDICTIONARY
360
10A9
102
}
102
{ACAD_REACTORS
330
FCF
102
}
330
FCF
100
AcDbPlotSettings
1

2
Microsoft XPS Document Writer
4

6

40
0.0
41
0.0
42
0.0
43
0.0
44
0.0
45
0.0
46
0.0
47
0.0
48
0.0
49
0.0
140
0.0
141
0.0
142
1.0
143
1.0
70
688
72
0
73
0
74
5
7

75
16
147
1.0
148
0.0
149
0.0
100
AcDbLayout
1
Layout1
70
1
71
1
10
0.0
20
0.0
11
12.0
21
9.0
12
0.0
22
0.0
32
0.0
14
1.000000000000000E+20
24
1.000000000000000E+20
34
1.000000000000000E+20
15
-1.000000000000000E+20
25
-1.000000000000000E+20
35
-1.000000000000000E+20
146
0.0
13
0.0
23
0.0
33
0.0
16
1.0
26
0.0
36
0.0
17
0.0
27
1.0
37
0.0
76
0
330
25D
0
LAYOUT
5
FD0
102
{ACAD_XDICTIONARY
360
10A7
102
}
102
{ACAD_REACTORS
330
FCF
102
}
330
FCF
100
AcDbPlotSettings
1

2
Microsoft XPS Document Writer
4

6

40
0.0
41
0.0
42
0.0
43
0.0
44
0.0
45
0.0
46
0.0
47
0.0
48
0.0
49
0.0
140
0.0
141
0.0
142
1.0
143
1.0
70
1712
72
0
73
0
74
0
7

75
0
147
1.0
148
0.0
149
0.0
100
AcDbLayout
1
Model
70
1
71
0
10
0.0
20
0.0
11
12.0
21
9.0
12
0.0
22
0.0
32
0.0
14
0.0
24
0.0
34
0.0
15
0.0
25
0.0
35
0.0
146
0.0
13
0.0
23
0.0
33
0.0
16
1.0
26
0.0
36
0.0
17
0.0
27
1.0
37
0.0
76
0
330
261
331
26B
0
MATERIAL
5
F83
102
{ACAD_XDICTIONARY
360
F84
102
}
102
{ACAD_REACTORS
330
F7A
102
}
330
F7A
100
AcDbMaterial
1
ByBlock
72
0
43
0.0208333333333333
43
0.0
43
0.0
43
0.0
43
0.0
43
0.0208333333333333
43
0.0
43
0.0
43
0.0
43
0.0
43
1.0
43
0.0
43
0.0
43
0.0
43
0.0
43
1.0
77
0
47
0.0208333333333333
47
0.0
47
0.0
47
0.0
47
0.0
47
0.0208333333333333
47
0.0
47
0.0
47
0.0
47
0.0
47
1.0
47
0.0
47
0.0
47
0.0
47
0.0
47
1.0
171
0
49
0.0208333333333333
49
0.0
49
0.0
49
0.0
49
0.0
49
0.0208333333333333
49
0.0
49
0.0
49
0.0
49
0.0
49
1.0
49
0.0
49
0.0
49
0.0
49
0.0
49
1.0
175
0
142
0.0208333333333333
142
0.0
142
0.0
142
0.0
142
0.0
142
0.0208333333333333
142
0.0
142
0.0
142
0.0
142
0.0
142
1.0
142
0.0
142
0.0
142
0.0
142
0.0
142
1.0
179
0
144
0.0208333333333333
144
0.0
144
0.0
144
0.0
144
0.0
144
0.0208333333333333
144
0.0
144
0.0
144
0.0
144
0.0
144
1.0
144
0.0
144
0.0
144
0.0
144
0.0
144
1.0
147
0.0208333333333333
147
0.0
147
0.0
147
0.0
147
0.0
147
0.0208333333333333
147
0.0
147
0.0
147
0.0
147
0.0
147
1.0
147
0.0
147
0.0
147
0.0
147
0.0
147
1.0
0
MATERIAL
5
F7B
102
{ACAD_XDICTIONARY
360
F7C
102
}
102
{ACAD_REACTORS
330
F7A
102
}
330
F7A
100
AcDbMaterial
1
ByLayer
72
0
43
0.0208333333333333
43
0.0
43
0.0
43
0.0
43
0.0
43
0.0208333333333333
43
0.0
43
0.0
43
0.0
43
0.0
43
1.0
43
0.0
43
0.0
43
0.0
43
0.0
43
1.0
77
0
47
0.0208333333333333
47
0.0
47
0.0
47
0.0
47
0.0
47
0.0208333333333333
47
0.0
47
0.0
47
0.0
47
0.0
47
1.0
47
0.0
47
0.0
47
0.0
47
0.0
47
1.0
171
0
49
0.0208333333333333
49
0.0
49
0.0
49
0.0
49
0.0
49
0.0208333333333333
49
0.0
49
0.0
49
0.0
49
0.0
49
1.0
49
0.0
49
0.0
49
0.0
49
0.0
49
1.0
175
0
142
0.0208333333333333
142
0.0
142
0.0
142
0.0
142
0.0
142
0.0208333333333333
142
0.0
142
0.0
142
0.0
142
0.0
142
1.0
142
0.0
142
0.0
142
0.0
142
0.0
142
1.0
179
0
144
0.0208333333333333
144
0.0
144
0.0
144
0.0
144
0.0
144
0.0208333333333333
144
0.0
144
0.0
144
0.0
144
0.0
144
1.0
144
0.0
144
0.0
144
0.0
144
0.0
144
1.0
147
0.0208333333333333
147
0.0
147
0.0
147
0.0
147
0.0
147
0.0208333333333333
147
0.0
147
0.0
147
0.0
147
0.0
147
1.0
147
0.0
147
0.0
147
0.0
147
0.0
147
1.0
0
MATERIAL
5
F8B
102
{ACAD_XDICTIONARY
360
F8C
102
}
102
{ACAD_REACTORS
330
F7A
102
}
330
F7A
100
AcDbMaterial
1
Global
72
0
43
0.0208333333333333
43
0.0
43
0.0
43
0.0
43
0.0
43
0.0208333333333333
43
0.0
43
0.0
43
0.0
43
0.0
43
1.0
43
0.0
43
0.0
43
0.0
43
0.0
43
1.0
77
0
47
0.0208333333333333
47
0.0
47
0.0
47
0.0
47
0.0
47
0.0208333333333333
47
0.0
47
0.0
47
0.0
47
0.0
47
1.0
47
0.0
47
0.0
47
0.0
47
0.0
47
1.0
171
0
49
0.0208333333333333
49
0.0
49
0.0
49
0.0
49
0.0
49
0.0208333333333333
49
0.0
49
0.0
49
0.0
49
0.0
49
1.0
49
0.0
49
0.0
49
0.0
49
0.0
49
1.0
175
0
142
0.0208333333333333
142
0.0
142
0.0
142
0.0
142
0.0
142
0.0208333333333333
142
0.0
142
0.0
142
0.0
142
0.0
142
1.0
142
0.0
142
0.0
142
0.0
142
0.0
142
1.0
179
0
144
0.0208333333333333
144
0.0
144
0.0
144
0.0
144
0.0
144
0.0208333333333333
144
0.0
144
0.0
144
0.0
144
0.0
144
1.0
144
0.0
144
0.0
144
0.0
144
0.0
144
1.0
147
0.0208333333333333
147
0.0
147
0.0
147
0.0
147
0.0
147
0.0208333333333333
147
0.0
147
0.0
147
0.0
147
0.0
147
1.0
147
0.0
147
0.0
147
0.0
147
0.0
147
1.0
0
MLEADERSTYLE
5
FCE
102
{ACAD_REACTORS
330
FCD
102
}
330
FCD
100
AcDbMLeaderStyle
170
2
171
1
172
0
90
2
40
0.0
41
0.0
173
1
91
-1056964608
340
256
92
-2
290
1
42
0.09
291
1
43
0.36
3
Standard
44
0.18
300

342
253
174
1
178
6
175
1
176
0
93
-1056964608
45
0.18
292
0
297
0
46
0.18
94
-1056964608
47
1.0
49
1.0
140
1.0
293
1
141
0.0
294
1
177
0
142
1.0
295
0
296
0
143
0.125
1001
ACAD_MLEADERVER
1070
2
0
MLINESTYLE
5
FAA
102
{ACAD_REACTORS
330
16
102
}
330
16
100
AcDbMlineStyle
2
STANDARD
70
0
3

62
256
51
90.0
52
90.0
71
2
49
0.5
62
256
6
BYLAYER
49
-0.5
62
256
6
BYLAYER
0
ACDBPLACEHOLDER
5
19
102
{ACAD_REACTORS
330
18
102
}
330
18
0
SCALE
5
FAC
102
{ACAD_REACTORS
330
FAB
102
}
330
FAB
100
AcDbScale
70
0
300
1:1
140
1.0
141
1.0
290
1
0
SCALE
5
FAD
102
{ACAD_REACTORS
330
FAB
102
}
330
FAB
100
AcDbScale
70
0
300
1:2
140
1.0
141
2.0
290
0
0
SCALE
5
FAE
102
{ACAD_REACTORS
330
FAB
102
}
330
FAB
100
AcDbScale
70
0
300
1:4
140
1.0
141
4.0
290
0
0
SCALE
5
FAF
102
{ACAD_REACTORS
330
FAB
102
}
330
FAB
100
AcDbScale
70
0
300
1:5
140
1.0
141
5.0
290
0
0
SCALE
5
FB0
102
{ACAD_REACTORS
330
FAB
102
}
330
FAB
100
AcDbScale
70
0
300
1:8
140
1.0
141
8.0
290
0
0
SCALE
5
FB1
102
{ACAD_REACTORS
330
FAB
102
}
330
FAB
100
AcDbScale
70
0
300
1:10
140
1.0
141
10.0
290
0
0
SCALE
5
FB2
102
{ACAD_REACTORS
330
FAB
102
}
330
FAB
100
AcDbScale
70
0
300
1:16
140
1.0
141
16.0
290
0
0
SCALE
5
FB3
102
{ACAD_REACTORS
330
FAB
102
}
330
FAB
100
AcDbScale
70
0
300
1:20
140
1.0
141
20.0
290
0
0
SCALE
5
FB4
102
{ACAD_REACTORS
330
FAB
102
}
330
FAB
100
AcDbScale
70
0
300
1:30
140
1.0
141
30.0
290
0
0
SCALE
5
FB5
102
{ACAD_REACTORS
330
FAB
102
}
330
FAB
100
AcDbScale
70
0
300
1:40
140
1.0
141
40.0
290
0
0
SCALE
5
FB6
102
{ACAD_REACTORS
330
FAB
102
}
330
FAB
100
AcDbScale
70
0
300
1:50
140
1.0
141
50.0
290
0
0
SCALE
5
FB7
102
{ACAD_REACTORS
330
FAB
102
}
330
FAB
100
AcDbScale
70
0
300
1:100
140
1.0
141
100.0
290
0
0
SCALE
5
FB8
102
{ACAD_REACTORS
330
FAB
102
}
330
FAB
100
AcDbScale
70
0
300
2:1
140
2.0
141
1.0
290
0
0
SCALE
5
FB9
102
{ACAD_REACTORS
330
FAB
102
}
330
FAB
100
AcDbScale
70
0
300
4:1
140
4.0
141
1.0
290
0
0
SCALE
5
FBA
102
{ACAD_REACTORS
330
FAB
102
}
330
FAB
100
AcDbScale
70
0
300
8:1
140
8.0
141
1.0
290
0
0
SCALE
5
FBB
102
{ACAD_REACTORS
330
FAB
102
}
330
FAB
100
AcDbScale
70
0
300
10:1
140
10.0
141
1.0
290
0
0
SCALE
5
FBC
102
{ACAD_REACTORS
330
FAB
102
}
330
FAB
100
AcDbScale
70
0
300
100:1
140
100.0
141
1.0
290
0
0
SCALE
5
FBD
102
{ACAD_REACTORS
330
FAB
102
}
330
FAB
100
AcDbScale
70
0
300
1/128" = 1'-0"
140
0.0078125
141
12.0
290
0
0
SCALE
5
FBE
102
{ACAD_REACTORS
330
FAB
102
}
330
FAB
100
AcDbScale
70
0
300
1/64" = 1'-0"
140
0.015625
141
12.0
290
0
0
SCALE
5
FBF
102
{ACAD_REACTORS
330
FAB
102
}
330
FAB
100
AcDbScale
70
0
300
1/32" = 1'-0"
140
0.03125
141
12.0
290
0
0
SCALE
5
FC0
102
{ACAD_REACTORS
330
FAB
102
}
330
FAB
100
AcDbScale
70
0
300
1/16" = 1'-0"
140
0.0625
141
12.0
290
0
0
SCALE
5
FC1
102
{ACAD_REACTORS
330
FAB
102
}
330
FAB
100
AcDbScale
70
0
300
3/32" = 1'-0"
140
0.09375
141
12.0
290
0
0
SCALE
5
FC2
102
{ACAD_REACTORS
330
FAB
102
}
330
FAB
100
AcDbScale
70
0
300
1/8" = 1'-0"
140
0.125
141
12.0
290
0
0
SCALE
5
FC3
102
{ACAD_REACTORS
330
FAB
102
}
330
FAB
100
AcDbScale
70
0
300
3/16" = 1'-0"
140
0.1875
141
12.0
290
0
0
SCALE
5
FC4
102
{ACAD_REACTORS
330
FAB
102
}
330
FAB
100
AcDbScale
70
0
300
1/4" = 1'-0"
140
0.25
141
12.0
290
0
0
SCALE
5
FC5
102
{ACAD_REACTORS
330
FAB
102
}
330
FAB
100
AcDbScale
70
0
300
3/8" = 1'-0"
140
0.375
141
12.0
290
0
0
SCALE
5
FC6
102
{ACAD_REACTORS
330
FAB
102
}
330
FAB
100
AcDbScale
70
0
300
1/2" = 1'-0"
140
0.5
141
12.0
290
0
0
SCALE
5
FC7
102
{ACAD_REACTORS
330
FAB
102
}
330
FAB
100
AcDbScale
70
0
300
3/4" = 1'-0"
140
0.75
141
12.0
290
0
0
SCALE
5
FC8
102
{ACAD_REACTORS
330
FAB
102
}
330
FAB
100
AcDbScale
70
0
300
1" = 1'-0"
140
1.0
141
12.0
290
0
0
SCALE
5
FC9
102
{ACAD_REACTORS
330
FAB
102
}
330
FAB
100
AcDbScale
70
0
300
1-1/2" = 1'-0"
140
1.5
141
12.0
290
0
0
SCALE
5
FCA
102
{ACAD_REACTORS
330
FAB
102
}
330
FAB
100
AcDbScale
70
0
300
3" = 1'-0"
140
3.0
141
12.0
290
0
0
SCALE
5
FCB
102
{ACAD_REACTORS
330
FAB
102
}
330
FAB
100
AcDbScale
70
0
300
6" = 1'-0"
140
6.0
141
12.0
290
0
0
SCALE
5
FCC
102
{ACAD_REACTORS
330
FAB
102
}
330
FAB
100
AcDbScale
70
0
300
1'-0" = 1'-0"
140
12.0
141
12.0
290
0
0
TABLESTYLE
5
FA9
102
{ACAD_XDICTIONARY
360
FF8
102
}
102
{ACAD_REACTORS
330
FA8
102
}
330
FA8
100
AcDbTableStyle
3
Standard
70
0
71
0
40
0.06
41
0.06
280
0
281
0
7
Standard
140
0.18
170
2
62
0
63
7
283
0
274
-2
284
1
64
0
275
-2
285
1
65
0
276
-2
286
1
66
0
277
-2
287
1
67
0
278
-2
288
1
68
0
279
-2
289
1
69
0
7
Standard
140
0.25
170
5
62
0
63
7
283
0
274
-2
284
1
64
0
275
-2
285
1
65
0
276
-2
286
1
66
0
277
-2
287
1
67
0
278
-2
288
1
68
0
279
-2
289
1
69
0
7
Standard
140
0.18
170
5
62
0
63
7
283
0
274
-2
284
1
64
0
275
-2
285
1
65
0
276
-2
286
1
66
0
277
-2
287
1
67
0
278
-2
288
1
68
0
279
-2
289
1
69
0
0
VISUALSTYLE
5
F99
102
{ACAD_XDICTIONARY
360
108A
102
}
102
{ACAD_REACTORS
330
F93
102
}
330
F93
100
AcDbVisualStyle
2

70
4
71
0
72
2
73
0
90
0
40
-0.6
41
-30.0
62
5
63
7
74
1
91
4
64
7
65
257
75
1
175
1
42
1.0
92
0
66
257
43
1.0
76
1
77
6
78
2
67
7
79
5
170
0
171
0
290
0
174
0
93
1
44
0.0
173
0
291
0
45
0.0
1001
ACAD
1000
AcDbSavedByObjectVersion
1070
0
0
VISUALSTYLE
5
F9B
102
{ACAD_XDICTIONARY
360
108E
102
}
102
{ACAD_REACTORS
330
F93
102
}
330
F93
100
AcDbVisualStyle
2

70
6
71
1
72
2
73
2
90
0
40
-0.6
41
-30.0
62
5
63
7
74
2
91
2
64
7
65
257
75
2
175
1
42
179.0
92
0
66
257
43
1.0
76
1
77
6
78
2
67
7
79
3
170
0
171
0
290
0
174
0
93
1
44
0.0
173
0
291
0
45
0.0
1001
ACAD
1000
AcDbSavedByObjectVersion
1070
0
0
VISUALSTYLE
5
F9A
102
{ACAD_XDICTIONARY
360
108C
102
}
102
{ACAD_REACTORS
330
F93
102
}
330
F93
100
AcDbVisualStyle
2

70
5
71
0
72
2
73
0
90
0
40
-0.6
41
-30.0
62
5
63
7
74
1
91
4
64
7
65
257
75
1
175
1
42
1.0
92
0
66
257
43
1.0
76
1
77
6
78
2
67
7
79
5
170
0
171
0
290
0
174
0
93
1
44
0.0
173
0
291
0
45
0.0
1001
ACAD
1000
AcDbSavedByObjectVersion
1070
0
0
VISUALSTYLE
5
F98
102
{ACAD_XDICTIONARY
360
1088
102
}
102
{ACAD_REACTORS
330
F93
102
}
330
F93
100
AcDbVisualStyle
2

70
7
71
1
72
0
73
1
90
0
40
-0.6
41
-30.0
62
5
63
7
74
0
91
4
64
7
65
257
75
1
175
1
42
1.0
92
8
66
7
43
1.0
76
1
77
6
78
2
67
7
79
5
170
0
171
0
290
0
174
0
93
1
44
0.0
173
0
291
1
45
0.0
1001
ACAD
1000
AcDbSavedByObjectVersion
1070
0
0
VISUALSTYLE
5
F9F
102
{ACAD_XDICTIONARY
360
1096
102
}
102
{ACAD_REACTORS
330
F93
102
}
330
F93
100
AcDbVisualStyle
2

70
12
71
2
72
2
73
0
90
0
40
-0.6
41
-30.0
62
5
63
7
74
1
91
4
64
7
65
257
75
1
175
1
42
1.0
92
8
66
7
43
1.0
76
1
77
6
78
2
67
7
79
5
170
0
171
0
290
0
174
0
93
1
44
50.0
173
0
291
1
45
0.0
1001
ACAD
1000
AcDbSavedByObjectVersion
1070
0
0
VISUALSTYLE
5
FA3
102
{ACAD_XDICTIONARY
360
109E
102
}
102
{ACAD_REACTORS
330
F93
102
}
330
F93
100
AcDbVisualStyle
2

70
16
71
2
72
2
73
3
90
0
40
-0.6
41
-30.0
62
5
63
8
74
1
91
4
64
7
65
257
75
1
175
1
42
1.0
92
8
66
8
43
1.0
76
1
77
6
78
2
67
7
79
5
170
0
171
0
290
0
174
0
93
1
44
0.0
173
0
291
1
45
0.0
1001
ACAD
1000
AcDbSavedByObjectVersion
1070
0
0
VISUALSTYLE
5
F9C
102
{ACAD_XDICTIONARY
360
1090
102
}
102
{ACAD_REACTORS
330
F93
102
}
330
F93
100
AcDbVisualStyle
2

70
9
71
3
72
2
73
0
90
0
40
-0.6
41
-30.0
62
5
63
7
74
2
91
2
64
7
65
257
75
1
175
1
42
179.0
92
8
66
7
43
1.0
76
1
77
6
78
2
67
7
79
3
170
0
171
0
290
0
174
0
93
1
44
0.0
173
0
291
0
45
0.0
1001
ACAD
1000
AcDbSavedByObjectVersion
1070
0
0
VISUALSTYLE
5
F9E
102
{ACAD_XDICTIONARY
360
1094
102
}
102
{ACAD_REACTORS
330
F93
102
}
330
F93
100
AcDbVisualStyle
2

70
11
71
2
72
2
73
0
90
0
40
-0.6
41
-30.0
62
5
63
7
74
1
91
4
64
7
65
257
75
1
175
1
42
1.0
92
8
66
7
43
1.0
76
1
77
6
78
2
67
7
79
5
170
0
171
0
290
0
174
0
93
1
44
-50.0
173
0
291
1
45
0.0
1001
ACAD
1000
AcDbSavedByObjectVersion
1070
0
0
VISUALSTYLE
5
FA6
102
{ACAD_XDICTIONARY
360
10A4
102
}
102
{ACAD_REACTORS
330
F93
102
}
330
F93
100
AcDbVisualStyle
2

70
22
71
2
72
2
73
0
90
0
40
-0.6
41
-30.0
62
5
63
7
74
1
91
4
64
7
65
257
75
1
175
1
42
1.0
92
8
66
7
43
1.0
76
1
77
6
78
2
67
7
79
5
170
0
171
0
290
0
174
0
93
1
44
0.0
173
0
291
1
45
0.0
1001
ACAD
1000
AcDbSavedByObjectVersion
1070
0
0
VISUALSTYLE
5
FA2
102
{ACAD_XDICTIONARY
360
109C
102
}
102
{ACAD_REACTORS
330
F93
102
}
330
F93
100
AcDbVisualStyle
2

70
15
71
2
72
2
73
0
90
0
40
-0.6
41
-30.0
62
5
63
7
74
1
91
4
64
7
65
257
75
1
175
1
42
1.0
92
8
66
7
43
1.0
76
1
77
6
78
2
67
7
79
5
170
0
171
0
290
0
174
0
93
1
44
0.0
173
0
291
1
45
0.0
1001
ACAD
1000
AcDbSavedByObjectVersion
1070
0
0
VISUALSTYLE
5
F94
102
{ACAD_XDICTIONARY
360
1080
102
}
102
{ACAD_REACTORS
330
F93
102
}
330
F93
100
AcDbVisualStyle
2

70
0
71
2
72
1
73
1
90
2
40
-0.6
41
30.0
62
5
63
7
74
0
91
4
64
7
65
257
75
1
175
1
42
1.0
92
8
66
7
43
1.0
76
1
77
6
78
2
67
7
79
5
170
0
171
0
290
0
174
0
93
13
44
0.0
173
0
291
1
45
0.0
1001
ACAD
1000
AcDbSavedByObjectVersion
1070
0
0
VISUALSTYLE
5
F95
102
{ACAD_XDICTIONARY
360
1082
102
}
102
{ACAD_REACTORS
330
F93
102
}
330
F93
100
AcDbVisualStyle
2

70
1
71
2
72
1
73
1
90
2
40
-0.6
41
30.0
62
5
63
7
74
1
91
4
64
7
65
257
75
1
175
1
42
1.0
92
0
66
257
43
1.0
76
1
77
6
78
2
67
7
79
5
170
0
171
0
290
0
174
0
93
13
44
0.0
173
0
291
1
45
0.0
1001
ACAD
1000
AcDbSavedByObjectVersion
1070
0
0
VISUALSTYLE
5
F96
102
{ACAD_XDICTIONARY
360
1084
102
}
102
{ACAD_REACTORS
330
F93
102
}
330
F93
100
AcDbVisualStyle
2

70
2
71
2
72
2
73
1
90
2
40
-0.6
41
30.0
62
5
63
7
74
0
91
4
64
7
65
257
75
1
175
1
42
1.0
92
0
66
7
43
1.0
76
1
77
6
78
2
67
7
79
5
170
0
171
0
290
0
174
0
93
13
44
0.0
173
0
291
1
45
0.0
1001
ACAD
1000
AcDbSavedByObjectVersion
1070
0
0
VISUALSTYLE
5
F97
102
{ACAD_XDICTIONARY
360
1086
102
}
102
{ACAD_REACTORS
330
F93
102
}
330
F93
100
AcDbVisualStyle
2

70
3
71
2
72
2
73
1
90
2
40
-0.6
41
30.0
62
5
63
7
74
1
91
4
64
7
65
257
75
1
175
1
42
1.0
92
0
66
257
43
1.0
76
1
77
6
78
2
67
7
79
5
170
0
171
0
290
0
174
0
93
13
44
0.0
173
0
291
1
45
0.0
1001
ACAD
1000
AcDbSavedByObjectVersion
1070
0
0
VISUALSTYLE
5
FA4
102
{ACAD_XDICTIONARY
360
10A0
102
}
102
{ACAD_REACTORS
330
F93
102
}
330
F93
100
AcDbVisualStyle
2

70
20
71
2
72
2
73
0
90
0
40
-0.6
41
-30.0
62
5
63
7
74
1
91
4
64
7
65
257
75
1
175
1
42
1.0
92
10
66
7
43
1.0
76
1
77
6
78
2
67
7
79
5
170
0
171
0
290
0
174
0
93
1
44
0.0
173
0
291
1
45
0.0
1001
ACAD
1000
AcDbSavedByObjectVersion
1070
0
0
VISUALSTYLE
5
FA1
102
{ACAD_XDICTIONARY
360
109A
102
}
102
{ACAD_REACTORS
330
F93
102
}
330
F93
100
AcDbVisualStyle
2

70
14
71
2
72
2
73
0
90
0
40
-0.6
41
-30.0
62
5
63
7
74
1
91
4
64
7
65
257
75
7
175
7
42
1.0
92
8
66
7
43
1.0
76
1
77
6
78
2
67
7
79
5
170
0
171
0
290
0
174
0
93
1
44
0.0
173
0
291
1
45
0.0
1001
ACAD
1000
AcDbSavedByObjectVersion
1070
0
0
VISUALSTYLE
5
FA5
102
{ACAD_XDICTIONARY
360
10A2
102
}
102
{ACAD_REACTORS
330
F93
102
}
330
F93
100
AcDbVisualStyle
2

70
21
71
2
72
2
73
0
90
0
40
-0.6
41
-30.0
62
5
63
7
74
1
91
4
64
7
65
257
75
1
175
1
42
1.0
92
9
66
7
43
1.0
76
1
77
6
78
2
67
7
79
5
170
0
171
0
290
0
174
0
93
1
44
0.0
173
0
291
1
45
0.0
1001
ACAD
1000
AcDbSavedByObjectVersion
1070
0
0
VISUALSTYLE
5
F9D
102
{ACAD_XDICTIONARY
360
1092
102
}
102
{ACAD_REACTORS
330
F93
102
}
330
F93
100
AcDbVisualStyle
2

70
8
71
2
72
2
73
0
90
0
40
-0.6
41
-30.0
62
5
63
7
74
1
91
0
64
7
65
257
75
1
175
1
42
1.0
92
8
66
8
43
1.0
76
1
77
6
78
2
67
7
79
5
170
0
171
0
290
0
174
0
93
13
44
0.0
173
0
291
0
45
0.0
1001
ACAD
1000
AcDbSavedByObjectVersion
1070
0
0
VISUALSTYLE
5
FA0
102
{ACAD_XDICTIONARY
360
1098
102
}
102
{ACAD_REACTORS
330
F93
102
}
330
F93
100
AcDbVisualStyle
2

70
13
71
2
72
2
73
0
90
0
40
-0.6
41
-30.0
62
5
63
7
74
1
91
4
64
7
65
257
75
1
175
1
42
1.0
92
12
66
7
43
1.0
76
1
77
6
78
2
67
7
79
5
170
0
171
0
290
0
174
0
93
1
44
0.0
173
0
291
1
45
0.0
1001
ACAD
1000
AcDbSavedByObjectVersion
1070
0
0
DICTIONARYVAR
5
FF3
102
{ACAD_REACTORS
330
FF0
102
}
330
FF0
100
DictionaryVariables
280
0
1
1:1
0
DICTIONARYVAR
5
FF2
102
{ACAD_REACTORS
330
FF0
102
}
330
FF0
100
DictionaryVariables
280
0
1
STANDARD
0
DICTIONARYVAR
5
FF1
102
{ACAD_REACTORS
330
FF0
102
}
330
FF0
100
DictionaryVariables
280
0
1
STANDARD
0
DICTIONARYVAR
5
FF6
102
{ACAD_REACTORS
330
FF0
102
}
330
FF0
100
DictionaryVariables
280
0
1
1
0
DICTIONARYVAR
5
FF5
102
{ACAD_REACTORS
330
FF0
102
}
330
FF0
100
DictionaryVariables
280
0
1
0
0
DICTIONARYVAR
5
FF4
102
{ACAD_REACTORS
330
FF0
102
}
330
FF0
100
DictionaryVariables
280
0
1
127
0
DICTIONARYVAR
5
1078
102
{ACAD_REACTORS
330
FF0
102
}
330
FF0
100
DictionaryVariables
280
0
1
2
0
DICTIONARY
5
10A9
330
FD1
100
AcDbDictionary
280
1
281
1
3
ACAD_XREC_ROUNDTRIP
360
10AA
0
DICTIONARY
5
10A7
330
FD0
100
AcDbDictionary
280
1
281
1
3
ACAD_XREC_ROUNDTRIP
360
10A8
0
DICTIONARY
5
F84
330
F83
100
AcDbDictionary
280
1
281
1
3
ACAD_XREC_ROUNDTRIP
360
FFF
3
BUMPTILE
360
F86
3
DIFFUSETILE
360
F85
3
OPACITYTILE
360
F89
3
REFLECTIONTILE
360
F88
3
REFRACTIONTILE
360
F8A
3
SPECULARTILE
360
F87
0
DICTIONARY
5
F7C
330
F7B
100
AcDbDictionary
280
1
281
1
3
ACAD_XREC_ROUNDTRIP
360
FFE
3
BUMPTILE
360
F7E
3
DIFFUSETILE
360
F7D
3
OPACITYTILE
360
F81
3
REFLECTIONTILE
360
F80
3
REFRACTIONTILE
360
F82
3
SPECULARTILE
360
F7F
0
DICTIONARY
5
F8C
330
F8B
100
AcDbDictionary
280
1
281
1
3
ACAD_XREC_ROUNDTRIP
360
1000
3
BUMPTILE
360
F8E
3
DIFFUSETILE
360
F8D
3
OPACITYTILE
360
F91
3
REFLECTIONTILE
360
F90
3
REFRACTIONTILE
360
F92
3
SPECULARTILE
360
F8F
0
DICTIONARY
5
FF8
330
FA9
100
AcDbDictionary
280
1
281
1
3
ACAD_ROUNDTRIP_2008_TABLESTYLE_CELLSTYLEMAP
360
1079
3
ACAD_XREC_ROUNDTRIP
360
10A6
0
DICTIONARY
5
108A
330
F99
100
AcDbDictionary
280
1
281
1
3
ACAD_XREC_ROUNDTRIP
360
108B
0
DICTIONARY
5
108E
330
F9B
100
AcDbDictionary
280
1
281
1
3
ACAD_XREC_ROUNDTRIP
360
108F
0
DICTIONARY
5
108C
330
F9A
100
AcDbDictionary
280
1
281
1
3
ACAD_XREC_ROUNDTRIP
360
108D
0
DICTIONARY
5
1088
330
F98
100
AcDbDictionary
280
1
281
1
3
ACAD_XREC_ROUNDTRIP
360
1089
0
DICTIONARY
5
1096
330
F9F
100
AcDbDictionary
280
1
281
1
3
ACAD_XREC_ROUNDTRIP
360
1097
0
DICTIONARY
5
109E
330
FA3
100
AcDbDictionary
280
1
281
1
3
ACAD_XREC_ROUNDTRIP
360
109F
0
DICTIONARY
5
1090
330
F9C
100
AcDbDictionary
280
1
281
1
3
ACAD_XREC_ROUNDTRIP
360
1091
0
DICTIONARY
5
1094
330
F9E
100
AcDbDictionary
280
1
281
1
3
ACAD_XREC_ROUNDTRIP
360
1095
0
DICTIONARY
5
10A4
330
FA6
100
AcDbDictionary
280
1
281
1
3
ACAD_XREC_ROUNDTRIP
360
10A5
0
DICTIONARY
5
109C
330
FA2
100
AcDbDictionary
280
1
281
1
3
ACAD_XREC_ROUNDTRIP
360
109D
0
DICTIONARY
5
1080
330
F94
100
AcDbDictionary
280
1
281
1
3
ACAD_XREC_ROUNDTRIP
360
1081
0
DICTIONARY
5
1082
330
F95
100
AcDbDictionary
280
1
281
1
3
ACAD_XREC_ROUNDTRIP
360
1083
0
DICTIONARY
5
1084
330
F96
100
AcDbDictionary
280
1
281
1
3
ACAD_XREC_ROUNDTRIP
360
1085
0
DICTIONARY
5
1086
330
F97
100
AcDbDictionary
280
1
281
1
3
ACAD_XREC_ROUNDTRIP
360
1087
0
DICTIONARY
5
10A0
330
FA4
100
AcDbDictionary
280
1
281
1
3
ACAD_XREC_ROUNDTRIP
360
10A1
0
DICTIONARY
5
109A
330
FA1
100
AcDbDictionary
280
1
281
1
3
ACAD_XREC_ROUNDTRIP
360
109B
0
DICTIONARY
5
10A2
330
FA5
100
AcDbDictionary
280
1
281
1
3
ACAD_XREC_ROUNDTRIP
360
10A3
0
DICTIONARY
5
1092
330
F9D
100
AcDbDictionary
280
1
281
1
3
ACAD_XREC_ROUNDTRIP
360
1093
0
DICTIONARY
5
1098
330
FA0
100
AcDbDictionary
280
1
281
1
3
ACAD_XREC_ROUNDTRIP
360
1099
0
XRECORD
5
10AA
102
{ACAD_REACTORS
330
10A9
102
}
330
10A9
100
AcDbXrecord
280
1
102
SHADEPLOT
70
0
102
SHADEPLOTRESLEVEL
70
2
102
SHADEPLOTCUSTOMDPI
70
300
0
XRECORD
5
10A8
102
{ACAD_REACTORS
330
10A7
102
}
330
10A7
100
AcDbXrecord
280
1
102
SHADEPLOT
70
0
102
SHADEPLOTRESLEVEL
70
2
102
SHADEPLOTCUSTOMDPI
70
300
0
XRECORD
5
FFF
102
{ACAD_REACTORS
330
F84
102
}
330
F84
100
AcDbXrecord
280
1
102
MATERIAL
148
0.0
149
0.0
149
0.0
93
0
94
127
282
0
72
0
77
0
171
0
175
0
179
0
273
0
0
XRECORD
5
F86
102
{ACAD_REACTORS
330
F84
102
}
330
F84
100
AcDbXrecord
280
1
270
1
271
1
0
XRECORD
5
F85
102
{ACAD_REACTORS
330
F84
102
}
330
F84
100
AcDbXrecord
280
1
270
1
271
1
0
XRECORD
5
F89
102
{ACAD_REACTORS
330
F84
102
}
330
F84
100
AcDbXrecord
280
1
270
1
271
1
0
XRECORD
5
F88
102
{ACAD_REACTORS
330
F84
102
}
330
F84
100
AcDbXrecord
280
1
270
1
271
1
0
XRECORD
5
F8A
102
{ACAD_REACTORS
330
F84
102
}
330
F84
100
AcDbXrecord
280
1
270
1
271
1
0
XRECORD
5
F87
102
{ACAD_REACTORS
330
F84
102
}
330
F84
100
AcDbXrecord
280
1
270
1
271
1
0
XRECORD
5
FFE
102
{ACAD_REACTORS
330
F7C
102
}
330
F7C
100
AcDbXrecord
280
1
102
MATERIAL
148
0.0
149
0.0
149
0.0
93
0
94
127
282
0
72
0
77
0
171
0
175
0
179
0
273
0
0
XRECORD
5
F7E
102
{ACAD_REACTORS
330
F7C
102
}
330
F7C
100
AcDbXrecord
280
1
270
1
271
1
0
XRECORD
5
F7D
102
{ACAD_REACTORS
330
F7C
102
}
330
F7C
100
AcDbXrecord
280
1
270
1
271
1
0
XRECORD
5
F81
102
{ACAD_REACTORS
330
F7C
102
}
330
F7C
100
AcDbXrecord
280
1
270
1
271
1
0
XRECORD
5
F80
102
{ACAD_REACTORS
330
F7C
102
}
330
F7C
100
AcDbXrecord
280
1
270
1
271
1
0
XRECORD
5
F82
102
{ACAD_REACTORS
330
F7C
102
}
330
F7C
100
AcDbXrecord
280
1
270
1
271
1
0
XRECORD
5
F7F
102
{ACAD_REACTORS
330
F7C
102
}
330
F7C
100
AcDbXrecord
280
1
270
1
271
1
0
XRECORD
5
1000
102
{ACAD_REACTORS
330
F8C
102
}
330
F8C
100
AcDbXrecord
280
1
102
MATERIAL
148
0.0
149
0.0
149
0.0
93
0
94
127
282
0
72
0
77
0
171
0
175
0
179
0
273
0
0
XRECORD
5
F8E
102
{ACAD_REACTORS
330
F8C
102
}
330
F8C
100
AcDbXrecord
280
1
270
1
271
1
0
XRECORD
5
F8D
102
{ACAD_REACTORS
330
F8C
102
}
330
F8C
100
AcDbXrecord
280
1
270
1
271
1
0
XRECORD
5
F91
102
{ACAD_REACTORS
330
F8C
102
}
330
F8C
100
AcDbXrecord
280
1
270
1
271
1
0
XRECORD
5
F90
102
{ACAD_REACTORS
330
F8C
102
}
330
F8C
100
AcDbXrecord
280
1
270
1
271
1
0
XRECORD
5
F92
102
{ACAD_REACTORS
330
F8C
102
}
330
F8C
100
AcDbXrecord
280
1
270
1
271
1
0
XRECORD
5
F8F
102
{ACAD_REACTORS
330
F8C
102
}
330
F8C
100
AcDbXrecord
280
1
270
1
271
1
0
CELLSTYLEMAP
5
1079
102
{ACAD_REACTORS
330
FF8
102
}
330
FF8
100
AcDbCellStyleMap
90
3
300
CELLSTYLE
1
TABLEFORMAT_BEGIN
90
5
170
1
91
0
92
32768
62
257
93
1
300
CONTENTFORMAT
1
CONTENTFORMAT_BEGIN
90
0
91
0
92
512
93
0
300

40
0.0
140
1.0
94
5
62
0
340
253
144
0.25
309
CONTENTFORMAT_END
171
1
301
MARGIN
1
CELLMARGIN_BEGIN
40
0.06
40
0.06
40
0.06
40
0.06
40
0.18
40
0.18
309
CELLMARGIN_END
94
6
95
1
302
GRIDFORMAT
1
GRIDFORMAT_BEGIN
90
0
91
1
62
0
92
-2
340
0
93
0
40
0.045
309
GRIDFORMAT_END
95
2
302
GRIDFORMAT
1
GRIDFORMAT_BEGIN
90
0
91
1
62
0
92
-2
340
0
93
0
40
0.045
309
GRIDFORMAT_END
95
4
302
GRIDFORMAT
1
GRIDFORMAT_BEGIN
90
0
91
1
62
0
92
-2
340
0
93
0
40
0.045
309
GRIDFORMAT_END
95
8
302
GRIDFORMAT
1
GRIDFORMAT_BEGIN
90
0
91
1
62
0
92
-2
340
0
93
0
40
0.045
309
GRIDFORMAT_END
95
16
302
GRIDFORMAT
1
GRIDFORMAT_BEGIN
90
0
91
1
62
0
92
-2
340
0
93
0
40
0.045
309
GRIDFORMAT_END
95
32
302
GRIDFORMAT
1
GRIDFORMAT_BEGIN
90
0
91
1
62
0
92
-2
340
0
93
0
40
0.045
309
GRIDFORMAT_END
309
TABLEFORMAT_END
1
CELLSTYLE_BEGIN
90
1
91
1
300
_TITLE
309
CELLSTYLE_END
300
CELLSTYLE
1
TABLEFORMAT_BEGIN
90
5
170
1
91
0
92
0
62
257
93
1
300
CONTENTFORMAT
1
CONTENTFORMAT_BEGIN
90
0
91
0
92
512
93
0
300

40
0.0
140
1.0
94
5
62
0
340
253
144
0.18
309
CONTENTFORMAT_END
171
1
301
MARGIN
1
CELLMARGIN_BEGIN
40
0.06
40
0.06
40
0.06
40
0.06
40
0.18
40
0.18
309
CELLMARGIN_END
94
6
95
1
302
GRIDFORMAT
1
GRIDFORMAT_BEGIN
90
0
91
1
62
0
92
-2
340
0
93
0
40
0.045
309
GRIDFORMAT_END
95
2
302
GRIDFORMAT
1
GRIDFORMAT_BEGIN
90
0
91
1
62
0
92
-2
340
0
93
0
40
0.045
309
GRIDFORMAT_END
95
4
302
GRIDFORMAT
1
GRIDFORMAT_BEGIN
90
0
91
1
62
0
92
-2
340
0
93
0
40
0.045
309
GRIDFORMAT_END
95
8
302
GRIDFORMAT
1
GRIDFORMAT_BEGIN
90
0
91
1
62
0
92
-2
340
0
93
0
40
0.045
309
GRIDFORMAT_END
95
16
302
GRIDFORMAT
1
GRIDFORMAT_BEGIN
90
0
91
1
62
0
92
-2
340
0
93
0
40
0.045
309
GRIDFORMAT_END
95
32
302
GRIDFORMAT
1
GRIDFORMAT_BEGIN
90
0
91
1
62
0
92
-2
340
0
93
0
40
0.045
309
GRIDFORMAT_END
309
TABLEFORMAT_END
1
CELLSTYLE_BEGIN
90
2
91
1
300
_HEADER
309
CELLSTYLE_END
300
CELLSTYLE
1
TABLEFORMAT_BEGIN
90
5
170
1
91
0
92
0
62
257
93
1
300
CONTENTFORMAT
1
CONTENTFORMAT_BEGIN
90
0
91
0
92
512
93
0
300

40
0.0
140
1.0
94
2
62
0
340
253
144
0.18
309
CONTENTFORMAT_END
171
1
301
MARGIN
1
CELLMARGIN_BEGIN
40
0.06
40
0.06
40
0.06
40
0.06
40
0.18
40
0.18
309
CELLMARGIN_END
94
6
95
1
302
GRIDFORMAT
1
GRIDFORMAT_BEGIN
90
0
91
1
62
0
92
-2
340
0
93
0
40
0.045
309
GRIDFORMAT_END
95
2
302
GRIDFORMAT
1
GRIDFORMAT_BEGIN
90
0
91
1
62
0
92
-2
340
0
93
0
40
0.045
309
GRIDFORMAT_END
95
4
302
GRIDFORMAT
1
GRIDFORMAT_BEGIN
90
0
91
1
62
0
92
-2
340
0
93
0
40
0.045
309
GRIDFORMAT_END
95
8
302
GRIDFORMAT
1
GRIDFORMAT_BEGIN
90
0
91
1
62
0
92
-2
340
0
93
0
40
0.045
309
GRIDFORMAT_END
95
16
302
GRIDFORMAT
1
GRIDFORMAT_BEGIN
90
0
91
1
62
0
92
-2
340
0
93
0
40
0.045
309
GRIDFORMAT_END
95
32
302
GRIDFORMAT
1
GRIDFORMAT_BEGIN
90
0
91
1
62
0
92
-2
340
0
93
0
40
0.045
309
GRIDFORMAT_END
309
TABLEFORMAT_END
1
CELLSTYLE_BEGIN
90
3
91
2
300
_DATA
309
CELLSTYLE_END
0
XRECORD
5
10A6
102
{ACAD_REACTORS
330
FF8
102
}
330
FF8
100
AcDbXrecord
280
1
102
ACAD_ROUNDTRIP_PRE2007_TABLESTYLE
90
512
91
0
1

92
512
93
0
2

94
512
95
0
3

0
XRECORD
5
108B
102
{ACAD_REACTORS
330
108A
102
}
330
108A
100
AcDbXrecord
280
1
102
RTVSPropertyOp0
70
1
102
RTVSPropertyOp1
70
1
102
RTVSPropertyOp2
70
1
102
RTVSPropertyOp3
70
1
102
RTVSPropertyOp4
70
1
102
RTVSPropertyOp5
70
1
102
RTVSPropertyOp6
70
1
102
RTVSPropertyOp7
70
1
102
RTVSPropertyOp8
70
1
102
RTVSPropertyOp9
70
1
102
RTVSPropertyOp10
70
1
102
RTVSPropertyOp11
70
1
102
RTVSPropertyOp12
70
1
102
RTVSPropertyOp13
70
1
102
RTVSPropertyOp14
70
1
102
RTVSPropertyOp15
70
1
102
RTVSPropertyOp16
70
1
102
RTVSPropertyOp17
70
1
102
RTVSPropertyOp18
70
1
102
RTVSPropertyOp19
70
1
102
RTVSPropertyOp20
70
1
102
RTVSPropertyOp21
70
1
102
RTVSPropertyOp22
70
1
102
RTVSPropertyOp23
70
1
102
RTVSPropertyOp24
70
1
102
RTVSPropertyOp25
70
1
102
RTVSPropertyOp26
70
1
102
RTVSPropertyOp27
70
1
0
XRECORD
5
108F
102
{ACAD_REACTORS
330
108E
102
}
330
108E
100
AcDbXrecord
280
1
102
RTVSPropertyOp0
70
1
102
RTVSPropertyOp1
70
1
102
RTVSPropertyOp2
70
1
102
RTVSPropertyOp3
70
1
102
RTVSPropertyOp4
70
1
102
RTVSPropertyOp5
70
1
102
RTVSPropertyOp6
70
1
102
RTVSPropertyOp7
70
1
102
RTVSPropertyOp8
70
1
102
RTVSPropertyOp9
70
1
102
RTVSPropertyOp10
70
1
102
RTVSPropertyOp11
70
1
102
RTVSPropertyOp12
70
1
102
RTVSPropertyOp13
70
1
102
RTVSPropertyOp14
70
1
102
RTVSPropertyOp15
70
1
102
RTVSPropertyOp16
70
1
102
RTVSPropertyOp17
70
1
102
RTVSPropertyOp18
70
1
102
RTVSPropertyOp19
70
1
102
RTVSPropertyOp20
70
1
102
RTVSPropertyOp21
70
1
102
RTVSPropertyOp22
70
1
102
RTVSPropertyOp23
70
1
102
RTVSPropertyOp24
70
1
102
RTVSPropertyOp25
70
1
102
RTVSPropertyOp26
70
1
102
RTVSPropertyOp27
70
1
0
XRECORD
5
108D
102
{ACAD_REACTORS
330
108C
102
}
330
108C
100
AcDbXrecord
280
1
102
RTVSPropertyOp0
70
1
102
RTVSPropertyOp1
70
1
102
RTVSPropertyOp2
70
1
102
RTVSPropertyOp3
70
1
102
RTVSPropertyOp4
70
1
102
RTVSPropertyOp5
70
1
102
RTVSPropertyOp6
70
1
102
RTVSPropertyOp7
70
1
102
RTVSPropertyOp8
70
1
102
RTVSPropertyOp9
70
1
102
RTVSPropertyOp10
70
1
102
RTVSPropertyOp11
70
1
102
RTVSPropertyOp12
70
1
102
RTVSPropertyOp13
70
1
102
RTVSPropertyOp14
70
1
102
RTVSPropertyOp15
70
1
102
RTVSPropertyOp16
70
1
102
RTVSPropertyOp17
70
1
102
RTVSPropertyOp18
70
1
102
RTVSPropertyOp19
70
1
102
RTVSPropertyOp20
70
1
102
RTVSPropertyOp21
70
1
102
RTVSPropertyOp22
70
1
102
RTVSPropertyOp23
70
1
102
RTVSPropertyOp24
70
1
102
RTVSPropertyOp25
70
1
102
RTVSPropertyOp26
70
1
102
RTVSPropertyOp27
70
1
0
XRECORD
5
1089
102
{ACAD_REACTORS
330
1088
102
}
330
1088
100
AcDbXrecord
280
1
102
RTVSPropertyOp0
70
1
102
RTVSPropertyOp1
70
1
102
RTVSPropertyOp2
70
1
102
RTVSPropertyOp3
70
1
102
RTVSPropertyOp4
70
1
102
RTVSPropertyOp5
70
1
102
RTVSPropertyOp6
70
1
102
RTVSPropertyOp7
70
1
102
RTVSPropertyOp8
70
1
102
RTVSPropertyOp9
70
1
102
RTVSPropertyOp10
70
1
102
RTVSPropertyOp11
70
1
102
RTVSPropertyOp12
70
1
102
RTVSPropertyOp13
70
1
102
RTVSPropertyOp14
70
1
102
RTVSPropertyOp15
70
1
102
RTVSPropertyOp16
70
1
102
RTVSPropertyOp17
70
1
102
RTVSPropertyOp18
70
1
102
RTVSPropertyOp19
70
1
102
RTVSPropertyOp20
70
1
102
RTVSPropertyOp21
70
1
102
RTVSPropertyOp22
70
1
102
RTVSPropertyOp23
70
1
102
RTVSPropertyOp24
70
1
102
RTVSPropertyOp25
70
1
102
RTVSPropertyOp26
70
1
102
RTVSPropertyOp27
70
1
0
XRECORD
5
1097
102
{ACAD_REACTORS
330
1096
102
}
330
1096
100
AcDbXrecord
280
1
102
RTVSPropertyOp0
70
1
102
RTVSPropertyOp1
70
1
102
RTVSPropertyOp2
70
1
102
RTVSPropertyOp3
70
1
102
RTVSPropertyOp4
70
1
102
RTVSPropertyOp5
70
1
102
RTVSPropertyOp6
70
1
102
RTVSPropertyOp7
70
1
102
RTVSPropertyOp8
70
1
102
RTVSPropertyOp9
70
1
102
RTVSPropertyOp10
70
1
102
RTVSPropertyOp11
70
1
102
RTVSPropertyOp12
70
1
102
RTVSPropertyOp13
70
1
102
RTVSPropertyOp14
70
1
102
RTVSPropertyOp15
70
1
102
RTVSPropertyOp16
70
1
102
RTVSPropertyOp17
70
1
102
RTVSPropertyOp18
70
1
102
RTVSPropertyOp19
70
1
102
RTVSPropertyOp20
70
1
102
RTVSPropertyOp21
70
1
102
RTVSPropertyOp22
70
1
102
RTVSPropertyOp23
70
1
102
RTVSPropertyOp24
70
1
102
RTVSPropertyOp25
70
1
102
RTVSPropertyOp26
70
1
102
RTVSPropertyOp27
70
1
0
XRECORD
5
109F
102
{ACAD_REACTORS
330
109E
102
}
330
109E
100
AcDbXrecord
280
1
102
RTVSPropertyOp0
70
1
102
RTVSPropertyOp1
70
1
102
RTVSPropertyOp2
70
1
102
RTVSPropertyOp3
70
1
102
RTVSPropertyOp4
70
1
102
RTVSPropertyOp5
70
1
102
RTVSPropertyOp6
70
1
102
RTVSPropertyOp7
70
1
102
RTVSPropertyOp8
70
1
102
RTVSPropertyOp9
70
1
102
RTVSPropertyOp10
70
1
102
RTVSPropertyOp11
70
1
102
RTVSPropertyOp12
70
1
102
RTVSPropertyOp13
70
1
102
RTVSPropertyOp14
70
1
102
RTVSPropertyOp15
70
1
102
RTVSPropertyOp16
70
1
102
RTVSPropertyOp17
70
1
102
RTVSPropertyOp18
70
1
102
RTVSPropertyOp19
70
1
102
RTVSPropertyOp20
70
1
102
RTVSPropertyOp21
70
1
102
RTVSPropertyOp22
70
1
102
RTVSPropertyOp23
70
1
102
RTVSPropertyOp24
70
1
102
RTVSPropertyOp25
70
1
102
RTVSPropertyOp26
70
1
102
RTVSPropertyOp27
70
1
0
XRECORD
5
1091
102
{ACAD_REACTORS
330
1090
102
}
330
1090
100
AcDbXrecord
280
1
102
RTVSPropertyOp0
70
1
102
RTVSPropertyOp1
70
1
102
RTVSPropertyOp2
70
1
102
RTVSPropertyOp3
70
1
102
RTVSPropertyOp4
70
1
102
RTVSPropertyOp5
70
1
102
RTVSPropertyOp6
70
1
102
RTVSPropertyOp7
70
1
102
RTVSPropertyOp8
70
1
102
RTVSPropertyOp9
70
1
102
RTVSPropertyOp10
70
1
102
RTVSPropertyOp11
70
1
102
RTVSPropertyOp12
70
1
102
RTVSPropertyOp13
70
1
102
RTVSPropertyOp14
70
1
102
RTVSPropertyOp15
70
1
102
RTVSPropertyOp16
70
1
102
RTVSPropertyOp17
70
1
102
RTVSPropertyOp18
70
1
102
RTVSPropertyOp19
70
1
102
RTVSPropertyOp20
70
1
102
RTVSPropertyOp21
70
1
102
RTVSPropertyOp22
70
1
102
RTVSPropertyOp23
70
1
102
RTVSPropertyOp24
70
1
102
RTVSPropertyOp25
70
1
102
RTVSPropertyOp26
70
1
102
RTVSPropertyOp27
70
1
0
XRECORD
5
1095
102
{ACAD_REACTORS
330
1094
102
}
330
1094
100
AcDbXrecord
280
1
102
RTVSPropertyOp0
70
1
102
RTVSPropertyOp1
70
1
102
RTVSPropertyOp2
70
1
102
RTVSPropertyOp3
70
1
102
RTVSPropertyOp4
70
1
102
RTVSPropertyOp5
70
1
102
RTVSPropertyOp6
70
1
102
RTVSPropertyOp7
70
1
102
RTVSPropertyOp8
70
1
102
RTVSPropertyOp9
70
1
102
RTVSPropertyOp10
70
1
102
RTVSPropertyOp11
70
1
102
RTVSPropertyOp12
70
1
102
RTVSPropertyOp13
70
1
102
RTVSPropertyOp14
70
1
102
RTVSPropertyOp15
70
1
102
RTVSPropertyOp16
70
1
102
RTVSPropertyOp17
70
1
102
RTVSPropertyOp18
70
1
102
RTVSPropertyOp19
70
1
102
RTVSPropertyOp20
70
1
102
RTVSPropertyOp21
70
1
102
RTVSPropertyOp22
70
1
102
RTVSPropertyOp23
70
1
102
RTVSPropertyOp24
70
1
102
RTVSPropertyOp25
70
1
102
RTVSPropertyOp26
70
1
102
RTVSPropertyOp27
70
1
0
XRECORD
5
10A5
102
{ACAD_REACTORS
330
10A4
102
}
330
10A4
100
AcDbXrecord
280
1
102
RTVSPropertyOp0
70
0
102
RTVSPropertyOp1
70
0
102
RTVSPropertyOp2
70
0
102
RTVSPropertyOp3
70
0
102
RTVSPropertyOp4
70
0
102
RTVSPropertyOp5
70
0
102
RTVSPropertyOp6
70
0
102
RTVSPropertyOp7
70
0
102
RTVSPropertyOp8
70
0
102
RTVSPropertyOp9
70
0
102
RTVSPropertyOp10
70
0
102
RTVSPropertyOp11
70
0
102
RTVSPropertyOp12
70
0
102
RTVSPropertyOp13
70
0
102
RTVSPropertyOp14
70
2
102
RTVSPropertyOp15
70
0
102
RTVSPropertyOp16
70
0
102
RTVSPropertyOp17
70
0
102
RTVSPropertyOp18
70
0
102
RTVSPropertyOp19
70
0
102
RTVSPropertyOp20
70
0
102
RTVSPropertyOp21
70
0
102
RTVSPropertyOp22
70
0
102
RTVSPropertyOp23
70
0
102
RTVSPropertyOp24
70
0
102
RTVSPropertyOp25
70
0
102
RTVSPropertyOp26
70
0
102
RTVSPropertyOp27
70
0
0
XRECORD
5
109D
102
{ACAD_REACTORS
330
109C
102
}
330
109C
100
AcDbXrecord
280
1
102
RTVSPropertyOp0
70
1
102
RTVSPropertyOp1
70
1
102
RTVSPropertyOp2
70
1
102
RTVSPropertyOp3
70
1
102
RTVSPropertyOp4
70
1
102
RTVSPropertyOp5
70
1
102
RTVSPropertyOp6
70
1
102
RTVSPropertyOp7
70
1
102
RTVSPropertyOp8
70
1
102
RTVSPropertyOp9
70
1
102
RTVSPropertyOp10
70
1
102
RTVSPropertyOp11
70
1
102
RTVSPropertyOp12
70
1
102
RTVSPropertyOp13
70
1
102
RTVSPropertyOp14
70
1
102
RTVSPropertyOp15
70
1
102
RTVSPropertyOp16
70
1
102
RTVSPropertyOp17
70
1
102
RTVSPropertyOp18
70
1
102
RTVSPropertyOp19
70
1
102
RTVSPropertyOp20
70
1
102
RTVSPropertyOp21
70
1
102
RTVSPropertyOp22
70
1
102
RTVSPropertyOp23
70
1
102
RTVSPropertyOp24
70
1
102
RTVSPropertyOp25
70
1
102
RTVSPropertyOp26
70
1
102
RTVSPropertyOp27
70
1
0
XRECORD
5
1081
102
{ACAD_REACTORS
330
1080
102
}
330
1080
100
AcDbXrecord
280
1
102
RTVSPropertyOp0
70
1
102
RTVSPropertyOp1
70
1
102
RTVSPropertyOp2
70
1
102
RTVSPropertyOp3
70
1
102
RTVSPropertyOp4
70
1
102
RTVSPropertyOp5
70
1
102
RTVSPropertyOp6
70
1
102
RTVSPropertyOp7
70
1
102
RTVSPropertyOp8
70
1
102
RTVSPropertyOp9
70
1
102
RTVSPropertyOp10
70
1
102
RTVSPropertyOp11
70
1
102
RTVSPropertyOp12
70
1
102
RTVSPropertyOp13
70
1
102
RTVSPropertyOp14
70
1
102
RTVSPropertyOp15
70
1
102
RTVSPropertyOp16
70
1
102
RTVSPropertyOp17
70
1
102
RTVSPropertyOp18
70
1
102
RTVSPropertyOp19
70
1
102
RTVSPropertyOp20
70
1
102
RTVSPropertyOp21
70
1
102
RTVSPropertyOp22
70
1
102
RTVSPropertyOp23
70
1
102
RTVSPropertyOp24
70
1
102
RTVSPropertyOp25
70
1
102
RTVSPropertyOp26
70
1
102
RTVSPropertyOp27
70
1
0
XRECORD
5
1083
102
{ACAD_REACTORS
330
1082
102
}
330
1082
100
AcDbXrecord
280
1
102
RTVSPropertyOp0
70
1
102
RTVSPropertyOp1
70
1
102
RTVSPropertyOp2
70
1
102
RTVSPropertyOp3
70
1
102
RTVSPropertyOp4
70
1
102
RTVSPropertyOp5
70
1
102
RTVSPropertyOp6
70
1
102
RTVSPropertyOp7
70
1
102
RTVSPropertyOp8
70
1
102
RTVSPropertyOp9
70
1
102
RTVSPropertyOp10
70
1
102
RTVSPropertyOp11
70
1
102
RTVSPropertyOp12
70
1
102
RTVSPropertyOp13
70
1
102
RTVSPropertyOp14
70
1
102
RTVSPropertyOp15
70
1
102
RTVSPropertyOp16
70
1
102
RTVSPropertyOp17
70
1
102
RTVSPropertyOp18
70
1
102
RTVSPropertyOp19
70
1
102
RTVSPropertyOp20
70
1
102
RTVSPropertyOp21
70
1
102
RTVSPropertyOp22
70
1
102
RTVSPropertyOp23
70
1
102
RTVSPropertyOp24
70
1
102
RTVSPropertyOp25
70
1
102
RTVSPropertyOp26
70
1
102
RTVSPropertyOp27
70
1
0
XRECORD
5
1085
102
{ACAD_REACTORS
330
1084
102
}
330
1084
100
AcDbXrecord
280
1
102
RTVSPropertyOp0
70
1
102
RTVSPropertyOp1
70
1
102
RTVSPropertyOp2
70
1
102
RTVSPropertyOp3
70
1
102
RTVSPropertyOp4
70
1
102
RTVSPropertyOp5
70
1
102
RTVSPropertyOp6
70
1
102
RTVSPropertyOp7
70
1
102
RTVSPropertyOp8
70
1
102
RTVSPropertyOp9
70
1
102
RTVSPropertyOp10
70
1
102
RTVSPropertyOp11
70
1
102
RTVSPropertyOp12
70
1
102
RTVSPropertyOp13
70
1
102
RTVSPropertyOp14
70
1
102
RTVSPropertyOp15
70
1
102
RTVSPropertyOp16
70
1
102
RTVSPropertyOp17
70
1
102
RTVSPropertyOp18
70
1
102
RTVSPropertyOp19
70
1
102
RTVSPropertyOp20
70
1
102
RTVSPropertyOp21
70
1
102
RTVSPropertyOp22
70
1
102
RTVSPropertyOp23
70
1
102
RTVSPropertyOp24
70
1
102
RTVSPropertyOp25
70
1
102
RTVSPropertyOp26
70
1
102
RTVSPropertyOp27
70
1
0
XRECORD
5
1087
102
{ACAD_REACTORS
330
1086
102
}
330
1086
100
AcDbXrecord
280
1
102
RTVSPropertyOp0
70
1
102
RTVSPropertyOp1
70
1
102
RTVSPropertyOp2
70
1
102
RTVSPropertyOp3
70
1
102
RTVSPropertyOp4
70
1
102
RTVSPropertyOp5
70
1
102
RTVSPropertyOp6
70
1
102
RTVSPropertyOp7
70
1
102
RTVSPropertyOp8
70
1
102
RTVSPropertyOp9
70
1
102
RTVSPropertyOp10
70
1
102
RTVSPropertyOp11
70
1
102
RTVSPropertyOp12
70
1
102
RTVSPropertyOp13
70
1
102
RTVSPropertyOp14
70
1
102
RTVSPropertyOp15
70
1
102
RTVSPropertyOp16
70
1
102
RTVSPropertyOp17
70
1
102
RTVSPropertyOp18
70
1
102
RTVSPropertyOp19
70
1
102
RTVSPropertyOp20
70
1
102
RTVSPropertyOp21
70
1
102
RTVSPropertyOp22
70
1
102
RTVSPropertyOp23
70
1
102
RTVSPropertyOp24
70
1
102
RTVSPropertyOp25
70
1
102
RTVSPropertyOp26
70
1
102
RTVSPropertyOp27
70
1
0
XRECORD
5
10A1
102
{ACAD_REACTORS
330
10A0
102
}
330
10A0
100
AcDbXrecord
280
1
102
RTVSPropertyOp0
70
0
102
RTVSPropertyOp1
70
0
102
RTVSPropertyOp2
70
0
102
RTVSPropertyOp3
70
0
102
RTVSPropertyOp4
70
0
102
RTVSPropertyOp5
70
0
102
RTVSPropertyOp6
70
0
102
RTVSPropertyOp7
70
0
102
RTVSPropertyOp8
70
0
102
RTVSPropertyOp9
70
0
102
RTVSPropertyOp10
70
0
102
RTVSPropertyOp11
70
0
102
RTVSPropertyOp12
70
0
102
RTVSPropertyOp13
70
0
102
RTVSPropertyOp14
70
2
102
RTVSPropertyOp15
70
0
102
RTVSPropertyOp16
70
0
102
RTVSPropertyOp17
70
0
102
RTVSPropertyOp18
70
0
102
RTVSPropertyOp19
70
0
102
RTVSPropertyOp20
70
0
102
RTVSPropertyOp21
70
0
102
RTVSPropertyOp22
70
0
102
RTVSPropertyOp23
70
0
102
RTVSPropertyOp24
70
0
102
RTVSPropertyOp25
70
0
102
RTVSPropertyOp26
70
0
102
RTVSPropertyOp27
70
0
0
XRECORD
5
109B
102
{ACAD_REACTORS
330
109A
102
}
330
109A
100
AcDbXrecord
280
1
102
RTVSPropertyOp0
70
1
102
RTVSPropertyOp1
70
1
102
RTVSPropertyOp2
70
1
102
RTVSPropertyOp3
70
1
102
RTVSPropertyOp4
70
1
102
RTVSPropertyOp5
70
1
102
RTVSPropertyOp6
70
1
102
RTVSPropertyOp7
70
1
102
RTVSPropertyOp8
70
1
102
RTVSPropertyOp9
70
1
102
RTVSPropertyOp10
70
1
102
RTVSPropertyOp11
70
1
102
RTVSPropertyOp12
70
1
102
RTVSPropertyOp13
70
1
102
RTVSPropertyOp14
70
1
102
RTVSPropertyOp15
70
1
102
RTVSPropertyOp16
70
1
102
RTVSPropertyOp17
70
1
102
RTVSPropertyOp18
70
1
102
RTVSPropertyOp19
70
1
102
RTVSPropertyOp20
70
1
102
RTVSPropertyOp21
70
1
102
RTVSPropertyOp22
70
1
102
RTVSPropertyOp23
70
1
102
RTVSPropertyOp24
70
1
102
RTVSPropertyOp25
70
1
102
RTVSPropertyOp26
70
1
102
RTVSPropertyOp27
70
1
0
XRECORD
5
10A3
102
{ACAD_REACTORS
330
10A2
102
}
330
10A2
100
AcDbXrecord
280
1
102
RTVSPropertyOp0
70
0
102
RTVSPropertyOp1
70
0
102
RTVSPropertyOp2
70
0
102
RTVSPropertyOp3
70
0
102
RTVSPropertyOp4
70
0
102
RTVSPropertyOp5
70
0
102
RTVSPropertyOp6
70
0
102
RTVSPropertyOp7
70
0
102
RTVSPropertyOp8
70
0
102
RTVSPropertyOp9
70
0
102
RTVSPropertyOp10
70
0
102
RTVSPropertyOp11
70
0
102
RTVSPropertyOp12
70
0
102
RTVSPropertyOp13
70
0
102
RTVSPropertyOp14
70
2
102
RTVSPropertyOp15
70
0
102
RTVSPropertyOp16
70
0
102
RTVSPropertyOp17
70
0
102
RTVSPropertyOp18
70
0
102
RTVSPropertyOp19
70
0
102
RTVSPropertyOp20
70
0
102
RTVSPropertyOp21
70
0
102
RTVSPropertyOp22
70
0
102
RTVSPropertyOp23
70
0
102
RTVSPropertyOp24
70
0
102
RTVSPropertyOp25
70
0
102
RTVSPropertyOp26
70
0
102
RTVSPropertyOp27
70
0
0
XRECORD
5
1093
102
{ACAD_REACTORS
330
1092
102
}
330
1092
100
AcDbXrecord
280
1
102
RTVSPropertyOp0
70
1
102
RTVSPropertyOp1
70
1
102
RTVSPropertyOp2
70
1
102
RTVSPropertyOp3
70
1
102
RTVSPropertyOp4
70
1
102
RTVSPropertyOp5
70
1
102
RTVSPropertyOp6
70
1
102
RTVSPropertyOp7
70
1
102
RTVSPropertyOp8
70
1
102
RTVSPropertyOp9
70
1
102
RTVSPropertyOp10
70
1
102
RTVSPropertyOp11
70
1
102
RTVSPropertyOp12
70
1
102
RTVSPropertyOp13
70
1
102
RTVSPropertyOp14
70
1
102
RTVSPropertyOp15
70
1
102
RTVSPropertyOp16
70
1
102
RTVSPropertyOp17
70
1
102
RTVSPropertyOp18
70
1
102
RTVSPropertyOp19
70
1
102
RTVSPropertyOp20
70
1
102
RTVSPropertyOp21
70
1
102
RTVSPropertyOp22
70
1
102
RTVSPropertyOp23
70
1
102
RTVSPropertyOp24
70
1
102
RTVSPropertyOp25
70
1
102
RTVSPropertyOp26
70
1
102
RTVSPropertyOp27
70
1
0
XRECORD
5
1099
102
{ACAD_REACTORS
330
1098
102
}
330
1098
100
AcDbXrecord
280
1
102
RTVSPropertyOp0
70
1
102
RTVSPropertyOp1
70
1
102
RTVSPropertyOp2
70
1
102
RTVSPropertyOp3
70
1
102
RTVSPropertyOp4
70
1
102
RTVSPropertyOp5
70
1
102
RTVSPropertyOp6
70
1
102
RTVSPropertyOp7
70
1
102
RTVSPropertyOp8
70
1
102
RTVSPropertyOp9
70
1
102
RTVSPropertyOp10
70
1
102
RTVSPropertyOp11
70
1
102
RTVSPropertyOp12
70
1
102
RTVSPropertyOp13
70
1
102
RTVSPropertyOp14
70
1
102
RTVSPropertyOp15
70
1
102
RTVSPropertyOp16
70
1
102
RTVSPropertyOp17
70
1
102
RTVSPropertyOp18
70
1
102
RTVSPropertyOp19
70
1
102
RTVSPropertyOp20
70
1
102
RTVSPropertyOp21
70
1
102
RTVSPropertyOp22
70
1
102
RTVSPropertyOp23
70
1
102
RTVSPropertyOp24
70
1
102
RTVSPropertyOp25
70
1
102
RTVSPropertyOp26
70
1
102
RTVSPropertyOp27
70
1
0
ENDSEC
0
EOF
